  0
SECTION
  2
HEADER
  9
$ACADVER
  1
AC1009
  9
$INSBASE
 10
0.0
 20
0.0
 30
0.0
  9
$EXTMIN
 10
0.0
 20
-1.4802182810368341
 30
0.0
  9
$EXTMAX
 10
38.705797917890443
 20
70.397832273793341
 30
0.0
  9
$LIMMIN
 10
0.0
 20
0.0
  9
$LIMMAX
 10
187.5
 20
135.0
  9
$ORTHOMODE
 70
     1
  9
$REGENMODE
 70
     1
  9
$FILLMODE
 70
     1
  9
$QTEXTMODE
 70
     0
  9
$MIRRTEXT
 70
     0
  9
$DRAGMODE
 70
     2
  9
$LTSCALE
 40
5.0
  9
$OSMODE
 70
  3071
  9
$ATTMODE
 70
     1
  9
$TEXTSIZE
 40
0.06
  9
$TRACEWID
 40
0.05
  9
$TEXTSTYLE
  7
STANDARD
  9
$CLAYER
  8
0
  9
$CELTYPE
  6
BYLAYER
  9
$CECOLOR
 62
   256
  9
$DIMSCALE
 40
0.5
  9
$DIMASZ
 40
3.0
  9
$DIMEXO
 40
2.0
  9
$DIMDLI
 40
10.0
  9
$DIMRND
 40
0.0
  9
$DIMDLE
 40
0.0
  9
$DIMEXE
 40
2.0
  9
$DIMTP
 40
0.0
  9
$DIMTM
 40
0.0
  9
$DIMTXT
 40
3.0
  9
$DIMCEN
 40
0.0
  9
$DIMTSZ
 40
0.0
  9
$DIMTOL
 70
     0
  9
$DIMLIM
 70
     0
  9
$DIMTIH
 70
     0
  9
$DIMTOH
 70
     0
  9
$DIMSE1
 70
     0
  9
$DIMSE2
 70
     0
  9
$DIMTAD
 70
     1
  9
$DIMZIN
 70
     8
  9
$DIMBLK
  1

  9
$DIMASO
 70
     0
  9
$DIMSHO
 70
     0
  9
$DIMPOST
  1

  9
$DIMAPOST
  1

  9
$DIMALT
 70
     0
  9
$DIMALTD
 70
     2
  9
$DIMALTF
 40
25.399999999999999
  9
$DIMLFAC
 40
1.0
  9
$DIMTOFL
 70
     1
  9
$DIMTVP
 40
1.6000000000000001
  9
$DIMTIX
 70
     1
  9
$DIMSOXD
 70
     0
  9
$DIMSAH
 70
     0
  9
$DIMBLK1
  1

  9
$DIMBLK2
  1

  9
$DIMSTYLE
  2
STANDARD
  9
$DIMCLRD
 70
     0
  9
$DIMCLRE
 70
     0
  9
$DIMCLRT
 70
     0
  9
$DIMTFAC
 40
1.0
  9
$DIMGAP
 40
1.0
  9
$LUNITS
 70
     2
  9
$LUPREC
 70
     4
  9
$SKETCHINC
 40
0.1
  9
$FILLETRAD
 40
1.3
  9
$AUNITS
 70
     0
  9
$AUPREC
 70
     4
  9
$MENU
  1
E:\r13\win\SUPPORT\ACAD
  9
$ELEVATION
 40
0.0
  9
$PELEVATION
 40
0.0
  9
$THICKNESS
 40
0.0
  9
$LIMCHECK
 70
     0
  9
$BLIPMODE
 70
     0
  9
$CHAMFERA
 40
0.0
  9
$CHAMFERB
 40
0.0
  9
$SKPOLY
 70
     0
  9
$TDCREATE
 40
2449840.5914699072
  9
$TDUPDATE
 40
2456597.635261273
  9
$TDINDWG
 40
4.2630546990999996
  9
$TDUSRTIMER
 40
4.2630546990999996
  9
$USRTIMER
 70
     1
  9
$ANGBASE
 50
0.0
  9
$ANGDIR
 70
     0
  9
$PDMODE
 70
     0
  9
$PDSIZE
 40
0.0
  9
$PLINEWID
 40
0.0
  9
$COORDS
 70
     1
  9
$SPLFRAME
 70
     0
  9
$SPLINETYPE
 70
     6
  9
$SPLINESEGS
 70
     8
  9
$ATTDIA
 70
     0
  9
$ATTREQ
 70
     1
  9
$HANDLING
 70
     1
  9
$HANDSEED
  5
138EA
  9
$SURFTAB1
 70
     6
  9
$SURFTAB2
 70
     6
  9
$SURFTYPE
 70
     6
  9
$SURFU
 70
     6
  9
$SURFV
 70
     6
  9
$UCSNAME
  2

  9
$UCSORG
 10
0.0
 20
0.0
 30
0.0
  9
$UCSXDIR
 10
1.0
 20
0.0
 30
0.0
  9
$UCSYDIR
 10
0.0
 20
1.0
 30
0.0
  9
$PUCSNAME
  2

  9
$PUCSORG
 10
0.0
 20
0.0
 30
0.0
  9
$PUCSXDIR
 10
1.0
 20
0.0
 30
0.0
  9
$PUCSYDIR
 10
0.0
 20
1.0
 30
0.0
  9
$USERI1
 70
     3
  9
$USERI2
 70
     1
  9
$USERI3
 70
     0
  9
$USERI4
 70
     0
  9
$USERI5
 70
     0
  9
$USERR1
 40
0.5
  9
$USERR2
 40
3.0
  9
$USERR3
 40
3.0
  9
$USERR4
 40
3.0
  9
$USERR5
 40
10.0
  9
$WORLDVIEW
 70
     1
  9
$SHADEDGE
 70
     3
  9
$SHADEDIF
 70
    70
  9
$TILEMODE
 70
     1
  9
$MAXACTVP
 70
    16
  9
$PLIMCHECK
 70
     0
  9
$PEXTMIN
 10
1.0000000000000000E+020
 20
1.0000000000000000E+020
 30
1.0000000000000000E+020
  9
$PEXTMAX
 10
-1.0000000000000000E+020
 20
-1.0000000000000000E+020
 30
-1.0000000000000000E+020
  9
$PLIMMIN
 10
0.0
 20
0.0
  9
$PLIMMAX
 10
12.0
 20
9.0
  9
$UNITMODE
 70
     0
  9
$VISRETAIN
 70
     0
  9
$PLINEGEN
 70
     0
  9
$PSLTSCALE
 70
     0
  0
ENDSEC
  0
SECTION
  2
TABLES
  0
TABLE
  2
VPORT
 70
     1
  0
VPORT
  2
*ACTIVE
 70
     0
 10
0.0
 20
0.0
 11
1.0
 21
1.0
 12
93.747139195326156
 22
67.05183146954721
 13
0.0
 23
0.0
 14
5.0
 24
5.0
 15
10.0
 25
10.0
 16
0.0
 26
0.0
 36
1.0
 17
0.0
 27
0.0
 37
0.0
 40
138.6470298934976
 41
2.304913294797688
 42
50.0
 43
0.0
 44
0.0
 50
0.0
 51
0.0
 71
     0
 72
   100
 73
     1
 74
     0
 75
     0
 76
     0
 77
     0
 78
     0
  0
ENDTAB
  0
TABLE
  2
LTYPE
 70
     4
  0
LTYPE
  2
CONTINUOUS
 70
     0
  3
Solid Line
 72
    65
 73
     0
 40
0.0
  0
LTYPE
  2
CENTER
 70
     0
  3
____ _ ____ _ ____ _ ____ _ ____ _ ____ _ ____
 72
    65
 73
     4
 40
2.0
 49
1.25
 49
-0.25
 49
0.25
 49
-0.25
  0
LTYPE
  2
HIDDEN
 70
     0
  3
_ _ _ _ _ _ _ _ _ _ _ _ _ _ _ _ _ _ _ _ _ _ _
 72
    65
 73
     2
 40
0.375
 49
0.25
 49
-0.125
  0
LTYPE
  2
PHANTOM2
 70
     0
  3
___ _ _ ___ _ _ ___ _ _ ___ _ _
 72
    65
 73
     6
 40
1.25
 49
0.625
 49
-0.125
 49
0.125
 49
-0.125
 49
0.125
 49
-0.125
  0
ENDTAB
  0
TABLE
  2
LAYER
 70
     5
  0
LAYER
  2
0
 70
     0
 62
     7
  6
CONTINUOUS
  0
LAYER
  2
1
 70
     0
 62
     1
  6
CENTER
  0
LAYER
  2
2
 70
     0
 62
     2
  6
HIDDEN
  0
LAYER
  2
3
 70
     0
 62
     3
  6
CONTINUOUS
  0
LAYER
  2
DEFPOINTS
 70
     0
 62
     7
  6
CONTINUOUS
  0
ENDTAB
  0
TABLE
  2
STYLE
 70
     2
  0
STYLE
  2
STANDARD
 70
     0
 40
0.0
 41
1.0
 50
0.0
 71
     0
 42
0.06
  3
TXT
  4
BIGFONT
  0
STYLE
  2
STANDARD1
 70
     0
 40
0.0
 41
1.0
 50
0.0
 71
     0
 42
3.0
  3
txt
  4

  0
ENDTAB
  0
TABLE
  2
VIEW
 70
     3
  0
VIEW
  2
OLE1
 70
     0
 40
24.514257897662329
 10
44.901529473115893
 20
103.25177669290009
 41
34.172454060781448
 11
0.0
 21
0.0
 31
1.0
 12
0.0
 22
0.0
 32
0.0
 42
50.0
 43
0.0
 44
0.0
 50
0.0
 71
     0
  0
VIEW
  2
OLE2
 70
     0
 40
111.8251716252055
 10
23.153306359535989
 20
84.753742215946431
 41
155.8823667497492
 11
0.0
 21
0.0
 31
1.0
 12
0.0
 22
0.0
 32
0.0
 42
50.0
 43
0.0
 44
0.0
 50
0.0
 71
     0
  0
VIEW
  2
OLE3
 70
     0
 40
74.608199520119342
 10
-293.62538904716121
 20
-23.174189004697379
 41
90.16357702624461
 11
0.0
 21
0.0
 31
1.0
 12
0.0
 22
0.0
 32
0.0
 42
50.0
 43
0.0
 44
0.0
 50
0.0
 71
     0
  0
ENDTAB
  0
TABLE
  2
UCS
 70
     0
  0
ENDTAB
  0
TABLE
  2
APPID
 70
    42
  0
APPID
  2
ACAD
 70
     0
  0
APPID
  2
ACAD_PSEXT
 70
     0
  0
APPID
  2
ACAD_DSTYLE_DIMJAG
 70
     0
  0
APPID
  2
ACAD_DSTYLE_DIMTALN
 70
     0
  0
APPID
  2
ACAD_EXEMPT_FROM_CAD_STANDARDS
 70
     0
  0
APPID
  2
ACAD_MLEADERVER
 70
     0
  0
APPID
  2
DCO15
 70
     0
  0
APPID
  2
GENIUS_GENOREF_13
 70
     0
  0
APPID
  2
GENIUS_GENOENT_13
 70
     0
  0
APPID
  2
GENIUS_GENBH_13
 70
     0
  0
APPID
  2
GENIUS_GENOBJ_13
 70
     0
  0
APPID
  2
GENIUS_GENODEF_13
 70
     0
  0
APPID
  2
GENIUS_GENOLIS_13
 70
     0
  0
APPID
  2
GENIUS_GENOBJ-NBEHI-BHF_13
 70
     0
  0
APPID
  2
GENIUS_GENOBJ-NBEHI-BHB_13
 70
     0
  0
APPID
  2
GENIUS_GENOBJ-F-PART_13
 70
     0
  0
APPID
  2
GENIUS_GEFSTDP_13
 70
     0
  0
APPID
  2
GENIUS_GENOBJ-N-RSSYM_13
 70
     0
  0
APPID
  2
GENIUS_GENSYMENT_13
 70
     0
  0
APPID
  2
GENIUS_GENOBJ-N-TIT_13
 70
     0
  0
APPID
  2
GENIUS_GENTITLE_13
 70
     0
  0
APPID
  2
GENIUS_GENZVEED_13
 70
     0
  0
APPID
  2
GENIUS_GENOBJ-N-LEADER_13
 70
     0
  0
APPID
  2
GENIUS_GENOBJ-N-FIL_13
 70
     0
  0
APPID
  2
GENIUS_GENOBJ-N-SEC_13
 70
     0
  0
APPID
  2
GENIUS_GENOBJ-N-CRS_13
 70
     0
  0
APPID
  2
GENIUS_GENOBJ-N-ZOO_13
 70
     0
  0
APPID
  2
GENIUS_GENZOO_13
 70
     0
  0
APPID
  2
GENIUS_GENOBJ-F-TOL_13
 70
     0
  0
APPID
  2
GENIUS_GENFIL_13
 70
     0
  0
APPID
  2
GENIUS_GENOBJ-N-CHA_13
 70
     0
  0
APPID
  2
_CALL_MAC$
 70
     0
  0
APPID
  2
ASM_BASE
 70
     0
  0
APPID
  2
ASM_EXPLO_VER_2_00
 70
     0
  0
APPID
  2
ASM_CADM_VER_12_00
 70
     0
  0
APPID
  2
ASM_BASEFORO
 70
     0
  0
APPID
  2
ASM_BASETRAVI
 70
     0
  0
APPID
  2
ASM_BASETRAVI1
 70
     0
  0
APPID
  2
ASM_GRUPPI
 70
     0
  0
APPID
  2
ASM_CADM_ALBERO
 70
     0
  0
APPID
  2
ASM_GOLE
 70
     0
  0
APPID
  2
ACAD_NAV_VCDISPLAY
 70
     0
  0
ENDTAB
  0
TABLE
  2
DIMSTYLE
 70
     1
  0
DIMSTYLE
  2
STANDARD
 70
     0
  3

  4

  5

  6

  7

 40
1.0
 41
0.18
 42
0.0625
 43
0.38
 44
0.18
 45
0.0
 46
0.0
 47
0.0
 48
0.0
140
0.18
141
0.09
142
0.0
143
25.399999999999999
144
1.0
145
0.0
146
1.0
147
0.1
 71
     0
 72
     0
 73
     0
 74
     0
 75
     0
 76
     0
 77
     1
 78
     0
170
     0
171
     2
172
     0
173
     0
174
     0
175
     0
176
     0
177
     0
178
     0
  0
ENDTAB
  0
ENDSEC
  0
SECTION
  2
BLOCKS
  0
BLOCK
  8
0
  2
$MODEL_SPACE
 70
     0
 10
0.0
 20
0.0
 30
0.0
  3
$MODEL_SPACE
  1

  0
ENDBLK
  5
E6
  8
0
  0
BLOCK
 67
     1
  8
0
  2
$PAPER_SPACE
 70
     0
 10
0.0
 20
0.0
 30
0.0
  3
$PAPER_SPACE
  1

  0
ENDBLK
  5
E4
 67
     1
  8
0
  0
ENDSEC
  0
SECTION
  2
ENTITIES
  0
LINE
  5
EFB9
  8
0
 10
20.128990671915059
 20
26.11493608204815
 30
0.0
 11
33.686453452126791
 21
24.092622573025722
 31
0.0
  0
LINE
  5
EFC0
  8
0
 10
33.23720228063474
 20
33.560147331241538
 30
0.0
 11
17.30617366410479
 21
35.116798839892652
 31
0.0
  0
LINE
  5
F011
  8
2
 10
19.530797114384882
 20
31.29934434807474
 30
0.0
 11
30.030797114384882
 21
31.29934434807474
 31
0.0
  0
LINE
  5
F08F
  8
2
 10
31.905430249418721
 20
30.79934434807474
 30
0.0
 11
31.905430249418831
 21
33.690277343023709
 31
0.0
  0
LINE
  5
F090
  8
2
 10
19.180030249418561
 20
34.933700701615642
 30
0.0
 11
19.180030249418671
 21
30.79934434807474
 31
0.0
  0
LINE
  5
F091
  8
2
 10
29.695630249418741
 20
24.687918005939348
 30
0.0
 11
29.695630249418741
 21
30.79934434807474
 31
0.0
  0
LINE
  5
F092
  8
2
 10
21.389830249418651
 20
30.79934434807474
 30
0.0
 11
21.389830249418772
 21
25.926861591147269
 31
0.0
  0
LINE
  5
F093
  8
2
 10
30.030797114384882
 20
30.79934434807474
 30
0.0
 11
30.030797114384882
 21
31.29934434807474
 31
0.0
  0
LINE
  5
F094
  8
2
 10
19.530797114384882
 20
31.29934434807474
 30
0.0
 11
19.530797114384882
 21
30.79934434807474
 31
0.0
  0
LINE
  5
F18F
  8
0
 10
17.180797114384742
 20
70.397832273793341
 30
0.0
 11
17.180797114384742
 21
51.29783227379334
 31
0.0
  0
LINE
  5
F190
  8
0
 10
36.280797114384882
 20
51.29783227379334
 30
0.0
 11
36.280797114384882
 21
70.397832273793341
 31
0.0
  0
ARC
  5
F1B2
  8
0
 10
24.7808779178904
 20
60.847832273793337
 30
0.0
 40
5.6007000000000033
 50
90.0
 51
270.0
  0
LINE
  5
F1B3
  8
0
 10
26.304877917890401
 20
55.247132273793362
 30
0.0
 11
24.7808779178904
 21
55.247132273793362
 31
0.0
  0
LINE
  5
F1B8
  8
0
 10
24.7808779178904
 20
66.448532273793347
 30
0.0
 11
26.304877917890401
 21
66.448532273793347
 31
0.0
  0
LINE
  5
F27A
  8
2
 10
22.471557644427438
 20
34.083866195773041
 30
0.0
 11
27.090198191353348
 21
34.084746441947154
 31
0.0
  0
LINE
  5
F345
  8
0
 10
17.180797114384742
 20
70.397832273793341
 30
0.0
 11
36.280797114384882
 21
70.397832273793341
 31
0.0
  0
LINE
  5
F346
  8
0
 10
17.180797114384742
 20
51.29783227379334
 30
0.0
 11
36.280797114384882
 21
51.29783227379334
 31
0.0
  0
POLYLINE
  5
F358
  8
2
 66
     1
 10
0.0
 20
0.0
 30
0.0
 70
     2
  0
VERTEX
  5
F359
  8
2
 10
22.471557644427438
 20
34.083866195773041
 30
0.0
  0
VERTEX
  5
F35A
  8
2
 10
22.471557644427438
 20
34.083866195773041
 30
0.0
  0
VERTEX
  5
F35B
  8
2
 10
22.471557644427438
 20
34.083866195773041
 30
0.0
 42
0.0086959175169399
  0
VERTEX
  5
F36F
  8
2
 10
22.307157857648122
 20
34.06453369239069
 30
0.0
 42
0.017318745464378
 70
     1
  0
VERTEX
  5
F35C
  8
2
 10
22.225209154942942
 20
34.050544047974661
 30
0.0
 42
0.0016066992343427
  0
VERTEX
  5
F370
  8
2
 10
21.981855730169968
 20
33.999455705323733
 30
0.0
 42
0.0091377408796183
 70
     1
  0
VERTEX
  5
F35D
  8
2
 10
21.939266070452842
 20
33.989554660127851
 30
0.0
 42
0.0106209826499243
  0
VERTEX
  5
F371
  8
2
 10
21.78856654169283
 20
33.948182305990713
 30
0.0
 42
0.0148041982318531
 70
     1
  0
VERTEX
  5
F35E
  8
2
 10
21.682087114456749
 20
33.913040073703087
 30
0.0
 42
0.0091762429058246
  0
VERTEX
  5
F372
  8
2
 10
21.578376502783041
 20
33.873203038485599
 30
0.0
 42
0.0113952819164026
 70
     1
  0
VERTEX
  5
F35F
  8
2
 10
21.4962481307922
 20
33.837714164159593
 30
0.0
 42
0.0049939426759495
  0
VERTEX
  5
F373
  8
2
 10
21.397482336095319
 20
33.791137644710041
 30
0.0
 42
0.004430144059289
 70
     1
  0
VERTEX
  5
F360
  8
2
 10
21.287157094979531
 20
33.736544894708913
 30
0.0
 42
0.0046329147531758
  0
VERTEX
  5
F374
  8
2
 10
21.174402221011739
 20
33.678182327521426
 30
0.0
 42
0.0077012691910974
 70
     1
  0
VERTEX
  5
F361
  8
2
 10
21.107455460171991
 20
33.641408894586107
 30
0.0
 42
0.0118843109484345
  0
VERTEX
  5
F375
  8
2
 10
21.056775744097081
 20
33.610928579016672
 30
0.0
 42
0.0051477998986259
 70
     1
  0
VERTEX
  5
F362
  8
2
 10
20.94225303990731
 20
33.536625866367558
 30
0.0
 42
0.0093901483742208
  0
VERTEX
  5
F376
  8
2
 10
20.8183064012286
 20
33.450988141934893
 30
0.0
 42
0.0119490820857169
 70
     1
  0
VERTEX
  5
F363
  8
2
 10
20.72385805283864
 20
33.379591797810008
 30
0.0
 42
0.0140497596292481
  0
VERTEX
  5
F377
  8
2
 10
20.641268236903102
 20
33.310128911366981
 30
0.0
 42
0.0092538787231972
 70
     1
  0
VERTEX
  5
F364
  8
2
 10
20.520938617156961
 20
33.198951593399187
 30
0.0
 42
0.0076716616772267
  0
VERTEX
  5
F378
  8
2
 10
20.414758180101099
 20
33.093966948026718
 30
0.0
 42
0.0085137167364921
 70
     1
  0
VERTEX
  5
F365
  8
2
 10
20.322190159850269
 20
32.996317529883072
 30
0.0
 42
0.0121040319849924
  0
VERTEX
  5
F379
  8
2
 10
20.215561494170171
 20
32.874118043800543
 30
0.0
 42
0.0181590642241583
 70
     1
  0
VERTEX
  5
F366
  8
2
 10
20.149532151125982
 20
32.788499850771593
 30
0.0
 42
0.0071396028961908
  0
VERTEX
  5
F37A
  8
2
 10
20.097389696438199
 20
32.713311280993373
 30
0.0
 42
0.0050208815334694
 70
     1
  0
VERTEX
  5
F367
  8
2
 10
20.02586786577092
 20
32.604625819580093
 30
0.0
 42
0.0048623516874105
  0
VERTEX
  5
F37B
  8
2
 10
19.929082807166079
 20
32.451022302565441
 30
0.0
 42
0.015844609681209
 70
     1
  0
VERTEX
  5
F368
  8
2
 10
19.901352284344618
 20
32.402684677721027
 30
0.0
 42
0.0070313816004147
  0
VERTEX
  5
F37C
  8
2
 10
19.87855074929973
 20
32.358357609393352
 30
0.0
 42
0.0028823916620104
 70
     1
  0
VERTEX
  5
F369
  8
2
 10
19.825085057514912
 20
32.249147970736971
 30
0.0
 42
0.0031897334295196
  0
VERTEX
  5
F37D
  8
2
 10
19.77758181319621
 20
32.149057419030221
 30
0.0
 42
0.0041424924108042
 70
     1
  0
VERTEX
  5
F36A
  8
2
 10
19.742137981125211
 20
32.07145872425599
 30
0.0
 42
0.0179876132347249
  0
VERTEX
  5
F37E
  8
2
 10
19.706541251745762
 20
31.983412292373028
 30
0.0
 42
0.0099631981721897
 70
     1
  0
VERTEX
  5
F36B
  8
2
 10
19.651268235918341
 20
31.821146993841008
 30
0.0
 42
0.009453029801463
  0
VERTEX
  5
F380
  8
2
 10
19.641197216477732
 20
31.787333614915038
 30
0.0
 42
0.0014716173039173
 70
     1
  0
VERTEX
  5
F36C
  8
2
 10
19.58127125104545
 20
31.568788742556531
 30
0.0
 42
0.0198782695044359
  0
VERTEX
  5
F37F
  8
2
 10
19.55958156236181
 20
31.47399266963566
 30
0.0
 42
0.0109180536120617
 70
     1
  0
VERTEX
  5
F36D
  8
2
 10
19.530797114384882
 20
31.29934434807474
 30
0.0
  0
SEQEND
  5
F36E
  8
2
  0
POLYLINE
  5
F381
  8
2
 66
     1
 10
0.0
 20
0.0
 30
0.0
 70
     2
  0
VERTEX
  5
F382
  8
2
 10
27.090036584342329
 20
34.083866195773041
 30
0.0
  0
VERTEX
  5
F383
  8
2
 10
27.090036584342329
 20
34.083866195773041
 30
0.0
  0
VERTEX
  5
F384
  8
2
 10
27.090036584342329
 20
34.083866195773041
 30
0.0
 42
-0.0086959175169399
  0
VERTEX
  5
F385
  8
2
 10
27.254436371121638
 20
34.06453369239069
 30
0.0
 42
-0.017318745464378
 70
     1
  0
VERTEX
  5
F386
  8
2
 10
27.336385073826818
 20
34.050544047974661
 30
0.0
 42
-0.0016066992343427
  0
VERTEX
  5
F387
  8
2
 10
27.579738498599792
 20
33.999455705323733
 30
0.0
 42
-0.0091377408796183
 70
     1
  0
VERTEX
  5
F388
  8
2
 10
27.622328158316918
 20
33.989554660127851
 30
0.0
 42
-0.0106209826499243
  0
VERTEX
  5
F389
  8
2
 10
27.77302768707694
 20
33.948182305990713
 30
0.0
 42
-0.0148041982318531
 70
     1
  0
VERTEX
  5
F38A
  8
2
 10
27.879507114313022
 20
33.913040073703087
 30
0.0
 42
-0.0091762429058246
  0
VERTEX
  5
F38B
  8
2
 10
27.983217725986719
 20
33.873203038485599
 30
0.0
 42
-0.0113952819164026
 70
     1
  0
VERTEX
  5
F38C
  8
2
 10
28.065346097977681
 20
33.837714164159593
 30
0.0
 42
-0.0049939426759495
  0
VERTEX
  5
F38D
  8
2
 10
28.164111892674441
 20
33.791137644710041
 30
0.0
 42
-0.004430144059289
 70
     1
  0
VERTEX
  5
F38E
  8
2
 10
28.274437133790229
 20
33.736544894708913
 30
0.0
 42
-0.0046329147531758
  0
VERTEX
  5
F38F
  8
2
 10
28.387192007758021
 20
33.678182327521426
 30
0.0
 42
-0.0077012691910974
 70
     1
  0
VERTEX
  5
F390
  8
2
 10
28.45413876859789
 20
33.641408894586107
 30
0.0
 42
-0.0118843109484345
  0
VERTEX
  5
F391
  8
2
 10
28.504818484672679
 20
33.610928579016672
 30
0.0
 42
-0.0051477998986259
 70
     1
  0
VERTEX
  5
F392
  8
2
 10
28.61934118886245
 20
33.536625866367558
 30
0.0
 42
-0.0093901483742208
  0
VERTEX
  5
F393
  8
2
 10
28.74328782754117
 20
33.450988141934893
 30
0.0
 42
-0.0119490820857169
 70
     1
  0
VERTEX
  5
F394
  8
2
 10
28.837736175931131
 20
33.379591797810008
 30
0.0
 42
-0.0140497596292481
  0
VERTEX
  5
F395
  8
2
 10
28.920325991866662
 20
33.310128911366981
 30
0.0
 42
-0.0092538787231972
 70
     1
  0
VERTEX
  5
F396
  8
2
 10
29.04065561161292
 20
33.198951593399187
 30
0.0
 42
-0.0076716616772267
  0
VERTEX
  5
F397
  8
2
 10
29.146836048668661
 20
33.093966948026718
 30
0.0
 42
-0.0085137167364921
 70
     1
  0
VERTEX
  5
F398
  8
2
 10
29.239404068919502
 20
32.996317529883072
 30
0.0
 42
-0.0121040319849924
  0
VERTEX
  5
F399
  8
2
 10
29.346032734599589
 20
32.874118043800543
 30
0.0
 42
-0.0181590642241583
 70
     1
  0
VERTEX
  5
F39A
  8
2
 10
29.412062077643778
 20
32.788499850771593
 30
0.0
 42
-0.0071396028961908
  0
VERTEX
  5
F39B
  8
2
 10
29.464204532331571
 20
32.713311280993373
 30
0.0
 42
-0.0050208815334694
 70
     1
  0
VERTEX
  5
F39C
  8
2
 10
29.535726362998851
 20
32.604625819580093
 30
0.0
 42
-0.0048623516874105
  0
VERTEX
  5
F39D
  8
2
 10
29.632511421603681
 20
32.451022302565441
 30
0.0
 42
-0.015844609681209
 70
     1
  0
VERTEX
  5
F39E
  8
2
 10
29.660241944425142
 20
32.402684677721027
 30
0.0
 42
-0.0070313816004147
  0
VERTEX
  5
F39F
  8
2
 10
29.68304347947003
 20
32.358357609393352
 30
0.0
 42
-0.0028823916620104
 70
     1
  0
VERTEX
  5
F3A0
  8
2
 10
29.736509171255079
 20
32.249147970736971
 30
0.0
 42
-0.0031897334295196
  0
VERTEX
  5
F3A1
  8
2
 10
29.78401241557356
 20
32.149057419030221
 30
0.0
 42
-0.0041424924108042
 70
     1
  0
VERTEX
  5
F3A2
  8
2
 10
29.819456247644549
 20
32.07145872425599
 30
0.0
 42
-0.0179876132347249
  0
VERTEX
  5
F3A3
  8
2
 10
29.855052977023998
 20
31.983412292373028
 30
0.0
 42
-0.0099631981721897
 70
     1
  0
VERTEX
  5
F3A4
  8
2
 10
29.91032599285143
 20
31.821146993841008
 30
0.0
 42
-0.009453029801463
  0
VERTEX
  5
F3A5
  8
2
 10
29.920397012292032
 20
31.787333614915038
 30
0.0
 42
-0.0014716173039173
 70
     1
  0
VERTEX
  5
F3A6
  8
2
 10
29.98032297772431
 20
31.568788742556531
 30
0.0
 42
-0.0198782695044359
  0
VERTEX
  5
F3A7
  8
2
 10
30.00201266640795
 20
31.47399266963566
 30
0.0
 42
-0.0109180536120617
 70
     1
  0
VERTEX
  5
F3A8
  8
2
 10
30.030797114384882
 20
31.29934434807474
 30
0.0
  0
SEQEND
  5
F3A9
  8
2
  0
LINE
  5
F3AA
  8
2
 10
19.180030249418671
 20
30.79934434807474
 30
0.0
 11
31.905430249418721
 21
30.79934434807474
 31
0.0
  0
LINE
  5
F3AF
  8
2
 10
21.780797114384431
 20
23.429485874196089
 30
0.0
 11
21.780797114384882
 21
30.79934434807468
 31
0.0
  0
LINE
  5
F3B0
  8
2
 10
22.322297114384352
 20
23.429485874196089
 30
0.0
 11
22.32229711438492
 21
30.79934434807468
 31
0.0
  0
LINE
  5
F3B1
  8
2
 10
27.23929711438484
 20
23.429485874196089
 30
0.0
 11
27.23929711438484
 21
30.79934434807474
 31
0.0
  0
LINE
  5
F3B2
  8
2
 10
27.780797114384431
 20
23.429485874196089
 30
0.0
 11
27.780797114384882
 21
30.79934434807474
 31
0.0
  0
LINE
  5
F3B3
  8
0
 10
21.780797114384882
 20
15.79934434807474
 30
0.0
 11
27.780797114384882
 21
15.79934434807468
 31
0.0
  0
LINE
  5
F3B4
  8
0
 10
22.780797114384882
 20
14.79934434807474
 30
0.0
 11
21.780797114384882
 21
15.79934434807474
 31
0.0
  0
LINE
  5
F3B5
  8
0
 10
27.780797114384882
 20
15.79934434807474
 30
0.0
 11
26.780797114384882
 21
14.79934434807474
 31
0.0
  0
LINE
  5
F3B6
  8
0
 10
27.780797114384651
 20
23.429485874196089
 30
0.0
 11
27.780797114384882
 21
15.79934434807474
 31
0.0
  0
LINE
  5
F3B7
  8
3
 10
27.239297114384961
 20
23.429485874196089
 30
0.0
 11
27.239297114385071
 21
15.25784434807475
 31
0.0
  0
LINE
  5
F3B8
  8
3
 10
22.3222971143847
 20
23.429485874196089
 30
0.0
 11
22.32229711438492
 21
15.257844348074871
 31
0.0
  0
LINE
  5
F3B9
  8
0
 10
21.780797114384772
 20
23.429485874196089
 30
0.0
 11
21.780797114384882
 21
15.79934434807474
 31
0.0
  0
LINE
  5
F3BA
  8
0
 10
26.780797114384882
 20
14.79934434807474
 30
0.0
 11
22.780797114384882
 21
14.79934434807474
 31
0.0
  0
LINE
  5
F3BB
  8
1
 10
24.780797114384882
 20
12.29934434807474
 30
0.0
 11
24.780797114384882
 21
36.29934434807469
 31
0.0
  0
LINE
  5
F3C4
  8
1
 10
14.625717114384649
 20
60.847832273793301
 30
0.0
 11
38.705797917890443
 21
60.847832273793323
 31
0.0
  0
LINE
  5
F3C6
  8
1
 10
24.780797114384882
 20
53.347832273793323
 30
0.0
 11
24.780797114384882
 21
68.347832273793301
 31
0.0
  0
LINE
  5
F517
  8
0
 10
17.180866758875819
 20
34.999016619720877
 30
0.0
 11
17.241163454384939
 21
33.272380269894441
 31
0.0
  0
LINE
  5
F518
  8
0
 10
18.027058183522279
 20
31.74487765399515
 30
0.0
 11
18.522179517890429
 21
27.75526506989441
 31
0.0
  0
ARC
  5
F519
  8
0
 10
15.66484495438487
 20
31.43988126989446
 30
0.0
 40
2.381821599999999
 50
7.3570238999996587
 51
47.36881999999666
  0
ARC
  5
F51A
  8
0
 10
17.29512455438487
 20
35.003006569894431
 30
0.0
 40
0.11432744
 50
84.454026000002301
 51
181.9999900000013
  0
ARC
  5
F51B
  8
0
 10
20.41193761789032
 20
27.99926846989446
 30
0.0
 40
1.9054572999999999
 50
187.3570199999993
 51
261.46040000000119
  0
ARC
  5
F51D
  8
0
 10
17.355421249197551
 20
33.276370240009733
 30
0.0
 40
0.11432744
 50
182.0000000000004
 51
227.3688199999967
  0
ARC
  5
F51E
  8
0
 10
33.06911274188667
 20
32.10705750777106
 30
0.0
 40
1.462779589722941
 50
17.24990019878841
 51
83.40150541572207
  0
LINE
  5
F51F
  8
0
 10
36.277251882109447
 20
26.485666837124061
 30
0.0
 11
34.466097179989902
 21
32.540830037799303
 31
0.0
  0
ARC
  5
F5C4
  8
0
 10
33.994225495969772
 20
26.358386491700831
 30
0.0
 40
2.2865716184150622
 50
262.26452207212498
 51
3.1909772068140332
  0
CIRCLE
  5
F5E6
  8
0
 10
24.780797114384882
 20
60.847832273171491
 30
0.0
 40
5.2500000004617693
  0
LINE
  5
F69B
  8
0
 10
22.780797114385109
 20
59.689326354187003
 30
0.0
 11
24.780797114385109
 21
58.534625815807701
 31
0.0
  0
LINE
  5
F69C
  8
0
 10
24.780797114385109
 20
58.534625815807701
 30
0.0
 11
26.780797114384882
 21
59.689326354187003
 31
0.0
  0
LINE
  5
F69D
  8
0
 10
26.780797114384882
 20
59.689326354187003
 30
0.0
 11
26.780797114384882
 21
61.998727430945841
 31
0.0
  0
LINE
  5
F69E
  8
0
 10
26.780797114384882
 20
61.998727430945841
 30
0.0
 11
24.780797114384882
 21
63.153427969324682
 31
0.0
  0
LINE
  5
F69F
  8
0
 10
24.780797114384882
 20
63.153427969324682
 30
0.0
 11
22.780797114384651
 21
61.998727430945152
 31
0.0
  0
LINE
  5
F6A0
  8
0
 10
22.780797114384651
 20
61.998727430945152
 30
0.0
 11
22.780797114385109
 21
59.689326354187003
 31
0.0
  0
CIRCLE
  5
F6A3
  8
0
 10
24.780797114384882
 20
60.847832273171491
 30
0.0
 40
2.3093202734629008
  0
LINE
  5
114A1
  8
1
 10
25.542797114384818
 20
53.347832273793323
 30
0.0
 11
25.542797114384818
 21
68.347832273793301
 31
0.0
  0
LINE
  5
114B4
  8
0
 10
21.10407973230588
 20
25.969485874196099
 30
0.0
 11
20.462797114384902
 21
25.969485874196081
 31
0.0
  0
ARC
  5
114B5
  8
0
 10
29.098797114384869
 20
24.699485874196078
 30
0.0
 40
1.2700000000000029
 50
270.0
 51
354.97439163792319
  0
LINE
  5
114B7
  8
0
 10
20.462797114384902
 20
23.429485874196089
 30
0.0
 11
29.098797114384869
 21
23.429485874196089
 31
0.0
  0
ARC
  5
114BE
  8
0
 10
20.462797114384902
 20
24.699485874196078
 30
0.0
 40
1.269999999999996
 50
90.0
 51
270.0
  0
LINE
  5
11515
  8
1
 10
25.5427302494187
 20
35.496245768210798
 30
0.0
 11
25.5427302494187
 21
23.976910640737032
 31
0.0
  0
ARC
  5
1289D
  8
2
 10
24.7808779178904
 20
60.847832273793337
 30
0.0
 40
3.3908999999999159
 50
90.0
 51
270.0
  0
ARC
  5
1289E
  8
0
 10
26.304716310879261
 20
60.847832273793337
 30
0.0
 40
5.6007000000000033
 50
270.0
 51
90.0
  0
ARC
  5
1289F
  8
2
 10
26.304716310879261
 20
60.847832273793337
 30
0.0
 40
3.3908999999999159
 50
270.0
 51
90.0
  0
LINE
  5
128A0
  8
2
 10
24.780797114384882
 20
64.238732272830504
 30
0.0
 11
26.304716310879261
 21
64.238732273793261
 31
0.0
  0
LINE
  5
128A1
  8
2
 10
24.7808779178904
 20
57.456932273793427
 30
0.0
 11
26.304716310879261
 21
57.456932273793427
 31
0.0
  0
TEXT
  5
13882
  8
0
 62
     3
 10
0.0
 20
0.0
 30
0.0
 40
5.0
  1
MBSC06C
  7
STANDARD1
  0
ENDSEC
  0
EOF
