  0
SECTION
  2
HEADER
  9
$ACADVER
  1
AC1009
  9
$INSBASE
 10
0.0
 20
0.0
 30
0.0
  9
$EXTMIN
 10
0.0
 20
-1.4802182810368341
 30
0.0
  9
$EXTMAX
 10
36.879263301500693
 20
45.557729315195758
 30
0.0
  9
$LIMMIN
 10
0.0
 20
0.0
  9
$LIMMAX
 10
187.5
 20
135.0
  9
$ORTHOMODE
 70
     1
  9
$REGENMODE
 70
     1
  9
$FILLMODE
 70
     1
  9
$QTEXTMODE
 70
     0
  9
$MIRRTEXT
 70
     0
  9
$DRAGMODE
 70
     2
  9
$LTSCALE
 40
5.0
  9
$OSMODE
 70
  3071
  9
$ATTMODE
 70
     1
  9
$TEXTSIZE
 40
0.06
  9
$TRACEWID
 40
0.05
  9
$TEXTSTYLE
  7
STANDARD
  9
$CLAYER
  8
0
  9
$CELTYPE
  6
BYLAYER
  9
$CECOLOR
 62
   256
  9
$DIMSCALE
 40
0.5
  9
$DIMASZ
 40
3.0
  9
$DIMEXO
 40
2.0
  9
$DIMDLI
 40
10.0
  9
$DIMRND
 40
0.0
  9
$DIMDLE
 40
0.0
  9
$DIMEXE
 40
2.0
  9
$DIMTP
 40
0.0
  9
$DIMTM
 40
0.0
  9
$DIMTXT
 40
3.0
  9
$DIMCEN
 40
0.0
  9
$DIMTSZ
 40
0.0
  9
$DIMTOL
 70
     0
  9
$DIMLIM
 70
     0
  9
$DIMTIH
 70
     0
  9
$DIMTOH
 70
     0
  9
$DIMSE1
 70
     0
  9
$DIMSE2
 70
     0
  9
$DIMTAD
 70
     1
  9
$DIMZIN
 70
     8
  9
$DIMBLK
  1

  9
$DIMASO
 70
     0
  9
$DIMSHO
 70
     0
  9
$DIMPOST
  1

  9
$DIMAPOST
  1

  9
$DIMALT
 70
     0
  9
$DIMALTD
 70
     2
  9
$DIMALTF
 40
25.399999999999999
  9
$DIMLFAC
 40
1.0
  9
$DIMTOFL
 70
     1
  9
$DIMTVP
 40
1.6000000000000001
  9
$DIMTIX
 70
     1
  9
$DIMSOXD
 70
     0
  9
$DIMSAH
 70
     0
  9
$DIMBLK1
  1

  9
$DIMBLK2
  1

  9
$DIMSTYLE
  2
STANDARD
  9
$DIMCLRD
 70
     0
  9
$DIMCLRE
 70
     0
  9
$DIMCLRT
 70
     0
  9
$DIMTFAC
 40
1.0
  9
$DIMGAP
 40
1.0
  9
$LUNITS
 70
     2
  9
$LUPREC
 70
     4
  9
$SKETCHINC
 40
0.1
  9
$FILLETRAD
 40
1.3
  9
$AUNITS
 70
     0
  9
$AUPREC
 70
     4
  9
$MENU
  1
E:\r13\win\SUPPORT\ACAD
  9
$ELEVATION
 40
0.0
  9
$PELEVATION
 40
0.0
  9
$THICKNESS
 40
0.0
  9
$LIMCHECK
 70
     0
  9
$BLIPMODE
 70
     0
  9
$CHAMFERA
 40
0.0
  9
$CHAMFERB
 40
0.0
  9
$SKPOLY
 70
     0
  9
$TDCREATE
 40
2449840.5914699072
  9
$TDUPDATE
 40
2456597.6352170492
  9
$TDINDWG
 40
4.2637277893999999
  9
$TDUSRTIMER
 40
4.2637277893999999
  9
$USRTIMER
 70
     1
  9
$ANGBASE
 50
0.0
  9
$ANGDIR
 70
     0
  9
$PDMODE
 70
     0
  9
$PDSIZE
 40
0.0
  9
$PLINEWID
 40
0.0
  9
$COORDS
 70
     1
  9
$SPLFRAME
 70
     0
  9
$SPLINETYPE
 70
     6
  9
$SPLINESEGS
 70
     8
  9
$ATTDIA
 70
     0
  9
$ATTREQ
 70
     1
  9
$HANDLING
 70
     1
  9
$HANDSEED
  5
138EA
  9
$SURFTAB1
 70
     6
  9
$SURFTAB2
 70
     6
  9
$SURFTYPE
 70
     6
  9
$SURFU
 70
     6
  9
$SURFV
 70
     6
  9
$UCSNAME
  2

  9
$UCSORG
 10
0.0
 20
0.0
 30
0.0
  9
$UCSXDIR
 10
1.0
 20
0.0
 30
0.0
  9
$UCSYDIR
 10
0.0
 20
1.0
 30
0.0
  9
$PUCSNAME
  2

  9
$PUCSORG
 10
0.0
 20
0.0
 30
0.0
  9
$PUCSXDIR
 10
1.0
 20
0.0
 30
0.0
  9
$PUCSYDIR
 10
0.0
 20
1.0
 30
0.0
  9
$USERI1
 70
     3
  9
$USERI2
 70
     1
  9
$USERI3
 70
     0
  9
$USERI4
 70
     0
  9
$USERI5
 70
     0
  9
$USERR1
 40
0.5
  9
$USERR2
 40
3.0
  9
$USERR3
 40
3.0
  9
$USERR4
 40
3.0
  9
$USERR5
 40
10.0
  9
$WORLDVIEW
 70
     1
  9
$SHADEDGE
 70
     3
  9
$SHADEDIF
 70
    70
  9
$TILEMODE
 70
     1
  9
$MAXACTVP
 70
    16
  9
$PLIMCHECK
 70
     0
  9
$PEXTMIN
 10
1.0000000000000000E+020
 20
1.0000000000000000E+020
 30
1.0000000000000000E+020
  9
$PEXTMAX
 10
-1.0000000000000000E+020
 20
-1.0000000000000000E+020
 30
-1.0000000000000000E+020
  9
$PLIMMIN
 10
0.0
 20
0.0
  9
$PLIMMAX
 10
12.0
 20
9.0
  9
$UNITMODE
 70
     0
  9
$VISRETAIN
 70
     0
  9
$PLINEGEN
 70
     0
  9
$PSLTSCALE
 70
     0
  0
ENDSEC
  0
SECTION
  2
TABLES
  0
TABLE
  2
VPORT
 70
     1
  0
VPORT
  2
*ACTIVE
 70
     0
 10
0.0
 20
0.0
 11
1.0
 21
1.0
 12
93.747139195326156
 22
67.05183146954721
 13
0.0
 23
0.0
 14
5.0
 24
5.0
 15
10.0
 25
10.0
 16
0.0
 26
0.0
 36
1.0
 17
0.0
 27
0.0
 37
0.0
 40
138.6470298934976
 41
2.304913294797688
 42
50.0
 43
0.0
 44
0.0
 50
0.0
 51
0.0
 71
     0
 72
   100
 73
     1
 74
     0
 75
     0
 76
     0
 77
     0
 78
     0
  0
ENDTAB
  0
TABLE
  2
LTYPE
 70
     4
  0
LTYPE
  2
CONTINUOUS
 70
     0
  3
Solid Line
 72
    65
 73
     0
 40
0.0
  0
LTYPE
  2
CENTER
 70
     0
  3
____ _ ____ _ ____ _ ____ _ ____ _ ____ _ ____
 72
    65
 73
     4
 40
2.0
 49
1.25
 49
-0.25
 49
0.25
 49
-0.25
  0
LTYPE
  2
HIDDEN
 70
     0
  3
_ _ _ _ _ _ _ _ _ _ _ _ _ _ _ _ _ _ _ _ _ _ _
 72
    65
 73
     2
 40
0.375
 49
0.25
 49
-0.125
  0
LTYPE
  2
PHANTOM2
 70
     0
  3
___ _ _ ___ _ _ ___ _ _ ___ _ _
 72
    65
 73
     6
 40
1.25
 49
0.625
 49
-0.125
 49
0.125
 49
-0.125
 49
0.125
 49
-0.125
  0
ENDTAB
  0
TABLE
  2
LAYER
 70
     5
  0
LAYER
  2
0
 70
     0
 62
     7
  6
CONTINUOUS
  0
LAYER
  2
1
 70
     0
 62
     1
  6
CENTER
  0
LAYER
  2
2
 70
     0
 62
     2
  6
HIDDEN
  0
LAYER
  2
3
 70
     0
 62
     3
  6
CONTINUOUS
  0
LAYER
  2
DEFPOINTS
 70
     0
 62
     7
  6
CONTINUOUS
  0
ENDTAB
  0
TABLE
  2
STYLE
 70
     2
  0
STYLE
  2
STANDARD
 70
     0
 40
0.0
 41
1.0
 50
0.0
 71
     0
 42
0.06
  3
TXT
  4
BIGFONT
  0
STYLE
  2
STANDARD1
 70
     0
 40
0.0
 41
1.0
 50
0.0
 71
     0
 42
3.0
  3
txt
  4

  0
ENDTAB
  0
TABLE
  2
VIEW
 70
     3
  0
VIEW
  2
OLE1
 70
     0
 40
24.514257897662329
 10
44.901529473115893
 20
103.25177669290009
 41
34.172454060781448
 11
0.0
 21
0.0
 31
1.0
 12
0.0
 22
0.0
 32
0.0
 42
50.0
 43
0.0
 44
0.0
 50
0.0
 71
     0
  0
VIEW
  2
OLE2
 70
     0
 40
111.8251716252055
 10
23.153306359535989
 20
84.753742215946431
 41
155.8823667497492
 11
0.0
 21
0.0
 31
1.0
 12
0.0
 22
0.0
 32
0.0
 42
50.0
 43
0.0
 44
0.0
 50
0.0
 71
     0
  0
VIEW
  2
OLE3
 70
     0
 40
74.608199520119342
 10
-293.62538904716121
 20
-23.174189004697379
 41
90.16357702624461
 11
0.0
 21
0.0
 31
1.0
 12
0.0
 22
0.0
 32
0.0
 42
50.0
 43
0.0
 44
0.0
 50
0.0
 71
     0
  0
ENDTAB
  0
TABLE
  2
UCS
 70
     0
  0
ENDTAB
  0
TABLE
  2
APPID
 70
    42
  0
APPID
  2
ACAD
 70
     0
  0
APPID
  2
ACAD_PSEXT
 70
     0
  0
APPID
  2
ACAD_DSTYLE_DIMJAG
 70
     0
  0
APPID
  2
ACAD_DSTYLE_DIMTALN
 70
     0
  0
APPID
  2
ACAD_EXEMPT_FROM_CAD_STANDARDS
 70
     0
  0
APPID
  2
ACAD_MLEADERVER
 70
     0
  0
APPID
  2
DCO15
 70
     0
  0
APPID
  2
GENIUS_GENOREF_13
 70
     0
  0
APPID
  2
GENIUS_GENOENT_13
 70
     0
  0
APPID
  2
GENIUS_GENBH_13
 70
     0
  0
APPID
  2
GENIUS_GENOBJ_13
 70
     0
  0
APPID
  2
GENIUS_GENODEF_13
 70
     0
  0
APPID
  2
GENIUS_GENOLIS_13
 70
     0
  0
APPID
  2
GENIUS_GENOBJ-NBEHI-BHF_13
 70
     0
  0
APPID
  2
GENIUS_GENOBJ-NBEHI-BHB_13
 70
     0
  0
APPID
  2
GENIUS_GENOBJ-F-PART_13
 70
     0
  0
APPID
  2
GENIUS_GEFSTDP_13
 70
     0
  0
APPID
  2
GENIUS_GENOBJ-N-RSSYM_13
 70
     0
  0
APPID
  2
GENIUS_GENSYMENT_13
 70
     0
  0
APPID
  2
GENIUS_GENOBJ-N-TIT_13
 70
     0
  0
APPID
  2
GENIUS_GENTITLE_13
 70
     0
  0
APPID
  2
GENIUS_GENZVEED_13
 70
     0
  0
APPID
  2
GENIUS_GENOBJ-N-LEADER_13
 70
     0
  0
APPID
  2
GENIUS_GENOBJ-N-FIL_13
 70
     0
  0
APPID
  2
GENIUS_GENOBJ-N-SEC_13
 70
     0
  0
APPID
  2
GENIUS_GENOBJ-N-CRS_13
 70
     0
  0
APPID
  2
GENIUS_GENOBJ-N-ZOO_13
 70
     0
  0
APPID
  2
GENIUS_GENZOO_13
 70
     0
  0
APPID
  2
GENIUS_GENOBJ-F-TOL_13
 70
     0
  0
APPID
  2
GENIUS_GENFIL_13
 70
     0
  0
APPID
  2
GENIUS_GENOBJ-N-CHA_13
 70
     0
  0
APPID
  2
_CALL_MAC$
 70
     0
  0
APPID
  2
ASM_BASE
 70
     0
  0
APPID
  2
ASM_EXPLO_VER_2_00
 70
     0
  0
APPID
  2
ASM_CADM_VER_12_00
 70
     0
  0
APPID
  2
ASM_BASEFORO
 70
     0
  0
APPID
  2
ASM_BASETRAVI
 70
     0
  0
APPID
  2
ASM_BASETRAVI1
 70
     0
  0
APPID
  2
ASM_GRUPPI
 70
     0
  0
APPID
  2
ASM_CADM_ALBERO
 70
     0
  0
APPID
  2
ASM_GOLE
 70
     0
  0
APPID
  2
ACAD_NAV_VCDISPLAY
 70
     0
  0
ENDTAB
  0
TABLE
  2
DIMSTYLE
 70
     1
  0
DIMSTYLE
  2
STANDARD
 70
     0
  3

  4

  5

  6

  7

 40
1.0
 41
0.18
 42
0.0625
 43
0.38
 44
0.18
 45
0.0
 46
0.0
 47
0.0
 48
0.0
140
0.18
141
0.09
142
0.0
143
25.399999999999999
144
1.0
145
0.0
146
1.0
147
0.1
 71
     0
 72
     0
 73
     0
 74
     0
 75
     0
 76
     0
 77
     1
 78
     0
170
     0
171
     2
172
     0
173
     0
174
     0
175
     0
176
     0
177
     0
178
     0
  0
ENDTAB
  0
ENDSEC
  0
SECTION
  2
BLOCKS
  0
BLOCK
  8
0
  2
$MODEL_SPACE
 70
     0
 10
0.0
 20
0.0
 30
0.0
  3
$MODEL_SPACE
  1

  0
ENDBLK
  5
E6
  8
0
  0
BLOCK
 67
     1
  8
0
  2
$PAPER_SPACE
 70
     0
 10
0.0
 20
0.0
 30
0.0
  3
$PAPER_SPACE
  1

  0
ENDBLK
  5
E4
 67
     1
  8
0
  0
ENDSEC
  0
SECTION
  2
ENTITIES
  0
LINE
  5
A390
  8
0
 10
13.27017106542541
 20
20.775983488804609
 30
0.0
 11
13.31058367625746
 21
19.727037969485561
 31
0.0
  0
ARC
  5
A391
  8
0
 10
13.49860159612467
 20
20.784784207211128
 30
0.0
 40
0.2285999999999983
 50
89.638295560787697
 51
182.20633710851851
  0
LINE
  5
A392
  8
0
 10
21.141572301527962
 20
20.23803547596026
 30
0.0
 11
13.500044723110481
 21
21.013379652013739
 31
0.0
  0
ARC
  5
A393
  8
0
 10
21.128752126588271
 20
20.11168420721113
 30
0.0
 40
0.127000000000007
 50
29.978368948411529
 51
84.206337108516024
  0
LINE
  5
A394
  8
0
 10
22.584102476831621
 20
17.8175658761959
 30
0.0
 11
21.23876131838017
 21
20.175142679626521
 31
0.0
  0
ARC
  5
A395
  8
0
 10
21.224574118638259
 20
17.082699404353448
 30
0.0
 40
1.545427477486444
 50
257.89552806379299
 51
28.392571891414399
  0
LINE
  5
A396
  8
0
 10
14.77035952972682
 20
16.490138012865909
 30
0.0
 11
20.9005058918911
 21
15.571631612167049
 31
0.0
  0
ARC
  5
A397
  8
0
 10
14.91337212658828
 20
17.444684207211122
 30
0.0
 40
0.9651999999999993
 50
187.46470943097131
 51
261.47917500944232
  0
LINE
  5
A398
  8
0
 10
13.78071316909972
 20
18.737393966741021
 30
0.0
 11
13.9563521298304
 21
17.319289766323489
 31
0.0
  0
ARC
  5
A399
  8
0
 10
12.01778159612468
 20
18.50640420721113
 30
0.0
 40
1.7779999999999989
 50
7.4647094309712712
 51
43.355317375871643
  0
LINE
  5
A3D9
  8
2
 10
14.40283212658829
 20
19.070284207211131
 30
0.0
 11
20.49883212658824
 21
19.070284207211142
 31
0.0
  0
LINE
  5
A3E2
  8
2
 10
14.82000159612471
 20
19.570284207211131
 30
0.0
 11
19.320001596124708
 21
19.570284207211131
 31
0.0
  0
LINE
  5
A3E4
  8
2
 10
17.905229971071549
 20
20.566409502211489
 30
0.0
 11
16.207850898124661
 21
20.56640950221114
 31
0.0
  0
LINE
  5
A456
  8
2
 10
14.40283212658829
 20
20.921778732129869
 30
0.0
 11
14.40283212658829
 21
19.070284207211131
 31
0.0
  0
LINE
  5
A457
  8
2
 10
20.498832126588301
 20
19.070284207211131
 30
0.0
 11
20.498832126588301
 21
20.303250820175279
 31
0.0
  0
LINE
  5
A458
  8
2
 10
19.292332126588231
 20
15.81259125808735
 30
0.0
 11
19.292332126588288
 21
19.070284207211131
 31
0.0
  0
LINE
  5
A459
  8
2
 10
15.609332126588299
 20
19.070284207211131
 30
0.0
 11
15.609332126588299
 21
16.36443111213276
 31
0.0
  0
LINE
  5
A45A
  8
2
 10
19.320001596124708
 20
19.070284207211131
 30
0.0
 11
19.320001596124708
 21
19.570284207211131
 31
0.0
  0
LINE
  5
A45B
  8
2
 10
14.82000159612471
 20
19.570284207211131
 30
0.0
 11
14.82000159612471
 21
19.070284207211131
 31
0.0
  0
LINE
  5
D568
  8
0
 10
22.77000159612464
 20
36.057729315195743
 30
0.0
 11
22.770001596124761
 21
45.557729315195758
 31
0.0
  0
ARC
  5
D58B
  8
0
 10
17.831832126588321
 20
40.807729315195772
 30
0.0
 40
2.6670000000000011
 50
270.0
 51
90.0
  0
LINE
  5
D58C
  8
0
 10
17.06983212658826
 20
43.474729315195752
 30
0.0
 11
17.831832126588321
 21
43.474729315195752
 31
0.0
  0
ARC
  5
D58D
  8
0
 10
17.06983212658826
 20
40.807729315195772
 30
0.0
 40
2.6670000000000011
 50
90.0
 51
270.0
  0
LINE
  5
D58E
  8
0
 10
17.831832126588321
 20
38.14072931519577
 30
0.0
 11
17.06983212658826
 21
38.14072931519577
 31
0.0
  0
LINE
  5
D58F
  8
0
 10
22.7700015961247
 20
36.057729315195758
 30
0.0
 11
13.2700015961247
 21
36.057729315195758
 31
0.0
  0
LINE
  5
D590
  8
0
 10
22.7700015961247
 20
45.557729315195758
 30
0.0
 11
13.2700015961247
 21
45.557729315195743
 31
0.0
  0
LINE
  5
D7BE
  8
0
 10
13.270001596124761
 20
45.557729315195758
 30
0.0
 11
13.27000159612464
 21
36.057729315195743
 31
0.0
  0
CIRCLE
  5
E239
  8
0
 10
17.070001596124708
 20
40.807729315195772
 30
0.0
 40
2.25
  0
LINE
  5
E411
  8
0
 10
15.8200015961246
 20
11.57028420721101
 30
0.0
 11
18.320001596124602
 21
11.57028420721096
 31
0.0
  0
LINE
  5
E412
  8
0
 10
18.320001596124602
 20
11.57028420721096
 30
0.0
 11
17.820001596124602
 21
11.07028420721096
 31
0.0
  0
LINE
  5
E413
  8
0
 10
15.8200015961246
 20
11.57028420721101
 30
0.0
 11
16.320001596124591
 21
11.070284207211021
 31
0.0
  0
LINE
  5
E414
  8
3
 10
16.070001596124602
 20
11.32028420721119
 30
0.0
 11
16.070001596124651
 21
14.78477290832816
 31
0.0
  0
LINE
  5
E415
  8
3
 10
18.070001596124602
 20
11.3202842072109
 30
0.0
 11
18.070001596124602
 21
14.784772908328179
 31
0.0
  0
LINE
  5
E416
  8
0
 10
15.82000159612465
 20
14.784772908328151
 30
0.0
 11
15.82000159612465
 21
11.570284207211071
 31
0.0
  0
LINE
  5
E417
  8
0
 10
18.320001596124602
 20
14.78477290832816
 30
0.0
 11
18.320001596124602
 21
11.57028420721096
 31
0.0
  0
LINE
  5
E418
  8
0
 10
17.820001596124602
 20
11.07028420721096
 30
0.0
 11
16.320001596124591
 21
11.070284207211021
 31
0.0
  0
LINE
  5
E419
  8
2
 10
18.320001596124602
 20
14.78477290832816
 30
0.0
 11
18.320001596124602
 21
19.070284207211021
 31
0.0
  0
LINE
  5
E41A
  8
2
 10
18.070001596124602
 20
14.78477290832816
 30
0.0
 11
18.070001596124602
 21
19.070284207211021
 31
0.0
  0
LINE
  5
E41B
  8
2
 10
16.070001596124769
 20
14.784772908328151
 30
0.0
 11
16.070001596124602
 21
19.070284207211021
 31
0.0
  0
LINE
  5
E41C
  8
2
 10
15.82000159612477
 20
14.78477290832816
 30
0.0
 11
15.82000159612471
 21
19.070284207211021
 31
0.0
  0
LINE
  5
E423
  8
1
 10
11.291306861474309
 20
40.807729315195751
 30
0.0
 11
24.74869633077509
 21
40.807729315195751
 31
0.0
  0
POLYLINE
  5
E43E
  8
2
 66
     1
 10
0.0
 20
0.0
 30
0.0
 70
     2
  0
VERTEX
  5
E43F
  8
2
 10
16.207850898124661
 20
20.56640950221114
 30
0.0
 42
0.0036926770044224
  0
VERTEX
  5
E44C
  8
2
 10
16.14661651530184
 20
20.559568450748259
 30
0.0
 42
0.0083328898133298
 70
     1
  0
VERTEX
  5
E440
  8
2
 10
16.11956005803745
 20
20.555884975356431
 30
0.0
 42
0.0015838276094665
  0
VERTEX
  5
E44D
  8
2
 10
16.003532592264371
 20
20.537738473001468
 30
0.0
 42
0.0057374664241337
 70
     1
  0
VERTEX
  5
E441
  8
2
 10
15.97157901857963
 20
20.53226052926351
 30
0.0
 42
0.0225264718657294
  0
VERTEX
  5
E44E
  8
2
 10
15.89420303664383
 20
20.51444484671056
 30
0.0
 42
0.0162054005423687
 70
     1
  0
VERTEX
  5
E442
  8
2
 10
15.78891024529525
 20
20.48143997655438
 30
0.0
 42
0.0145946858846352
  0
VERTEX
  5
E44F
  8
2
 10
15.69431741461119
 20
20.445255731593608
 30
0.0
 42
0.0163679633013162
 70
     1
  0
VERTEX
  5
E443
  8
2
 10
15.61212626877648
 20
20.40783208568746
 30
0.0
 42
0.008826520255438
  0
VERTEX
  5
E450
  8
2
 10
15.5382859738462
 20
20.369609511809699
 30
0.0
 42
0.0113910061569911
 70
     1
  0
VERTEX
  5
E444
  8
2
 10
15.48231060648879
 20
20.33770179825898
 30
0.0
 42
0.0101488018005267
  0
VERTEX
  5
E451
  8
2
 10
15.43437737701367
 20
20.30757189150393
 30
0.0
 42
0.0076711720361083
 70
     1
  0
VERTEX
  5
E445
  8
2
 10
15.37242602222647
 20
20.265478265005509
 30
0.0
 42
0.0175184460742341
  0
VERTEX
  5
E452
  8
2
 10
15.309693558723319
 20
20.21806687971662
 30
0.0
 42
0.0121373564627122
 70
     1
  0
VERTEX
  5
E446
  8
2
 10
15.22337771647199
 20
20.144400969360898
 30
0.0
 42
0.0215842360351481
  0
VERTEX
  5
E453
  8
2
 10
15.13757071142652
 20
20.060540412501609
 30
0.0
 42
0.0198481965851564
 70
     1
  0
VERTEX
  5
E447
  8
2
 10
15.052131933356231
 20
19.961942493498551
 30
0.0
 42
0.0145464151461651
  0
VERTEX
  5
E454
  8
2
 10
14.97916326618429
 20
19.865001545967971
 30
0.0
 42
0.0240018402295634
 70
     1
  0
VERTEX
  5
E448
  8
2
 10
14.939581594480391
 20
19.802996399279721
 30
0.0
 42
0.0077588315652748
  0
VERTEX
  5
E456
  8
2
 10
14.917056624013069
 20
19.762215396218831
 30
0.0
 42
0.002667497675076
 70
     1
  0
VERTEX
  5
E449
  8
2
 10
14.854030116476681
 20
19.64226357468317
 30
0.0
 42
0.0092093716155761
  0
VERTEX
  5
E455
  8
2
 10
14.844068927204139
 20
19.622159818803539
 30
0.0
 42
0.0036128896801966
 70
     1
  0
VERTEX
  5
E44A
  8
2
 10
14.82000159612471
 20
19.570284207211131
 30
0.0
  0
SEQEND
  5
E44B
  8
2
  0
POLYLINE
  5
E48B
  8
2
 66
     1
 10
0.0
 20
0.0
 30
0.0
  0
VERTEX
  5
E48D
  8
2
 10
18.04272314944
 20
20.55245881839846
 30
0.0
 42
-0.0012798161064515
  0
VERTEX
  5
E48E
  8
2
 10
18.136470599985039
 20
20.537738473001468
 30
0.0
 42
-0.0057374664241337
  0
VERTEX
  5
E48F
  8
2
 10
18.168424173669791
 20
20.53226052926351
 30
0.0
 42
-0.0225264718657294
  0
VERTEX
  5
E490
  8
2
 10
18.24580015560559
 20
20.51444484671056
 30
0.0
 42
-0.0162054005423687
  0
VERTEX
  5
E491
  8
2
 10
18.351092946954171
 20
20.48143997655438
 30
0.0
 42
-0.0145946858846352
  0
VERTEX
  5
E492
  8
2
 10
18.445685777638229
 20
20.445255731593608
 30
0.0
 42
-0.0163679633013162
  0
VERTEX
  5
E493
  8
2
 10
18.527876923472942
 20
20.40783208568746
 30
0.0
 42
-0.008826520255438
  0
VERTEX
  5
E494
  8
2
 10
18.60171721840322
 20
20.369609511809699
 30
0.0
 42
-0.0113910061569911
  0
VERTEX
  5
E495
  8
2
 10
18.657692585760628
 20
20.33770179825898
 30
0.0
 42
-0.0101488018005267
  0
VERTEX
  5
E496
  8
2
 10
18.705625815235749
 20
20.30757189150393
 30
0.0
 42
-0.0076711720361083
  0
VERTEX
  5
E497
  8
2
 10
18.767577170022939
 20
20.265478265005509
 30
0.0
 42
-0.0175184460742341
  0
VERTEX
  5
E498
  8
2
 10
18.830309633526099
 20
20.21806687971662
 30
0.0
 42
-0.0121373564627122
  0
VERTEX
  5
E499
  8
2
 10
18.91662547577744
 20
20.144400969360898
 30
0.0
 42
-0.0215842360351481
  0
VERTEX
  5
E49A
  8
2
 10
19.0024324808229
 20
20.060540412501609
 30
0.0
 42
-0.0198481965851564
  0
VERTEX
  5
E49B
  8
2
 10
19.08787125889318
 20
19.961942493498551
 30
0.0
 42
-0.0145464151461651
  0
VERTEX
  5
E49C
  8
2
 10
19.16083992606514
 20
19.865001545967971
 30
0.0
 42
-0.0240018402295634
  0
VERTEX
  5
E49D
  8
2
 10
19.20042159776904
 20
19.802996399279721
 30
0.0
 42
-0.0077588315652748
  0
VERTEX
  5
E49E
  8
2
 10
19.222946568236349
 20
19.762215396218831
 30
0.0
 42
-0.002667497675076
  0
VERTEX
  5
E49F
  8
2
 10
19.285973075772741
 20
19.64226357468317
 30
0.0
 42
-0.0092093716155761
  0
VERTEX
  5
E4A0
  8
2
 10
19.295934265045268
 20
19.622159818803539
 30
0.0
 42
-0.0036128896801966
  0
VERTEX
  5
E4A1
  8
2
 10
19.320001596124708
 20
19.570284207211131
 30
0.0
  0
SEQEND
  5
E48C
  8
2
  0
POLYLINE
  5
E4BB
  8
0
 66
     1
 10
0.0
 20
0.0
 30
0.0
  0
VERTEX
  5
E4BD
  8
0
 10
17.932152294124759
 20
20.56640950221114
 30
0.0
 42
-0.0036926770044224
  0
VERTEX
  5
E4BE
  8
0
 10
17.99338667694758
 20
20.559568450748259
 30
0.0
 42
-0.0083328898133298
  0
VERTEX
  5
E4BF
  8
0
 10
18.02044313421197
 20
20.555884975356431
 30
0.0
 42
-0.0003040108868578
  0
VERTEX
  5
E4C0
  8
0
 10
18.04272314944
 20
20.55245881839846
 30
0.0
 42
-0.0057374664241337
  0
SEQEND
  5
E4BC
  8
0
  0
LINE
  5
E4D7
  8
0
 10
17.932152294124759
 20
20.56640950221114
 30
0.0
 11
17.905229971071549
 21
20.566409502211489
 31
0.0
  0
LINE
  5
E4EE
  8
1
 10
17.070001596124708
 20
37.107729315195762
 30
0.0
 11
17.070001596124708
 21
44.507729315195789
 31
0.0
  0
LINE
  5
F635
  8
0
 10
17.070001596124769
 20
39.941703911411253
 30
0.0
 11
16.320001596124769
 21
40.374716613303463
 31
0.0
  0
LINE
  5
F643
  8
0
 10
16.320001596124708
 20
41.240742017088103
 30
0.0
 11
16.320001596124708
 21
40.374716613303463
 31
0.0
  0
LINE
  5
F644
  8
0
 10
17.070001596124769
 20
41.673754718980319
 30
0.0
 11
16.320001596124769
 21
41.240742017088103
 31
0.0
  0
ARC
  5
F662
  8
0
 10
17.070001596124708
 20
40.807729315195772
 30
0.0
 40
0.8621506980000503
 50
90.449056602535563
 51
149.55094339746361
  0
ARC
  5
F663
  8
0
 10
17.070001596124708
 20
40.807729315195772
 30
0.0
 40
0.8621506980000503
 50
150.44905660252701
 51
209.55094339747259
  0
ARC
  5
F664
  8
0
 10
17.070001596124708
 20
40.807729315195772
 30
0.0
 40
0.8621506980000503
 50
210.44905660253639
 51
269.55094339746449
  0
LINE
  5
10E4F
  8
1
 10
17.45100159588895
 20
37.107729315195741
 30
0.0
 11
17.45100159588895
 21
44.507729315195768
 31
0.0
  0
LINE
  5
10E52
  8
1
 10
17.070001596124708
 20
9.5411071387097763
 30
0.0
 11
17.070001596124708
 21
23.011206963165929
 31
0.0
  0
ARC
  5
10E8D
  8
0
 10
18.911521595664571
 20
15.61027290832817
 30
0.0
 40
0.8255000000000023
 50
270.0
 51
9.5821706824340218
  0
LINE
  5
10E8E
  8
0
 10
18.911521595664571
 20
14.78477290832816
 30
0.0
 11
15.228521595664571
 21
14.78477290832816
 31
0.0
  0
ARC
  5
10E8F
  8
0
 10
15.228521595664571
 20
15.61027290832817
 30
0.0
 40
0.8255000000000052
 50
95.105834946841711
 51
270.0
  0
LINE
  5
10FF0
  8
1
 10
17.45100159636058
 20
21.826074846655011
 30
0.0
 11
17.45100159636058
 21
15.07169411060242
 31
0.0
  0
ARC
  5
123BC
  8
2
 10
17.832012196230831
 20
40.807729315195751
 30
0.0
 40
1.460493823081781
 50
270.0
 51
90.0
  0
LINE
  5
123BD
  8
2
 10
17.07001541897068
 20
42.268223138277527
 30
0.0
 11
17.832012196230831
 21
42.268223138277527
 31
0.0
  0
ARC
  5
123BE
  8
2
 10
17.07001541897074
 20
40.807729315195751
 30
0.0
 40
1.460493823081781
 50
90.0
 51
270.0
  0
LINE
  5
123BF
  8
2
 10
17.832012196230831
 20
39.347235492113981
 30
0.0
 11
17.07001541897068
 21
39.347235492113981
 31
0.0
  0
LINE
  5
12F25
  8
0
 10
17.820001596124708
 20
41.24464320225615
 30
0.0
 11
17.820001596124708
 21
40.370815428135373
 31
0.0
  0
LINE
  5
12F26
  8
0
 10
17.820001596124708
 20
40.370815428135373
 30
0.0
 11
17.070001596124769
 21
39.941703911411253
 31
0.0
  0
LINE
  5
12F27
  8
0
 10
17.820001596124708
 20
41.24464320225615
 30
0.0
 11
17.070001596124769
 21
41.673754718980319
 31
0.0
  0
ARC
  5
12F71
  8
0
 10
17.070001596124708
 20
40.807729315195772
 30
0.0
 40
0.8621506980000503
 50
30.449056602538558
 51
89.550943397464437
  0
ARC
  5
12F72
  8
0
 10
17.070001596124708
 20
40.807729315195772
 30
0.0
 40
0.8621506980000503
 50
330.44905660252709
 51
29.550943397472611
  0
ARC
  5
12F73
  8
0
 10
17.070001596124708
 20
40.807729315195772
 30
0.0
 40
0.8621506980000503
 50
270.44905660253551
 51
329.5509433974658
  0
TEXT
  5
13882
  8
0
 62
     3
 10
0.0
 20
0.0
 30
0.0
 40
5.0
  1
MBSC025C
  7
STANDARD1
  0
ENDSEC
  0
EOF
