  0
SECTION
  2
HEADER
  9
$ACADVER
  1
AC1009
  9
$INSBASE
 10
0.0
 20
0.0
 30
0.0
  9
$EXTMIN
 10
0.0
 20
-1.4802182810368341
 30
0.0
  9
$EXTMAX
 10
43.468622100954981
 20
58.700397893096572
 30
0.0
  9
$LIMMIN
 10
0.0
 20
0.0
  9
$LIMMAX
 10
192.5
 20
135.0
  9
$ORTHOMODE
 70
     0
  9
$REGENMODE
 70
     1
  9
$FILLMODE
 70
     1
  9
$QTEXTMODE
 70
     0
  9
$MIRRTEXT
 70
     0
  9
$DRAGMODE
 70
     2
  9
$LTSCALE
 40
5.0
  9
$OSMODE
 70
  3071
  9
$ATTMODE
 70
     1
  9
$TEXTSIZE
 40
0.2
  9
$TRACEWID
 40
0.05
  9
$TEXTSTYLE
  7
STANDARD
  9
$CLAYER
  8
0
  9
$CELTYPE
  6
BYLAYER
  9
$CECOLOR
 62
   256
  9
$DIMSCALE
 40
0.5
  9
$DIMASZ
 40
3.0
  9
$DIMEXO
 40
1.0
  9
$DIMDLI
 40
6.0
  9
$DIMRND
 40
0.0
  9
$DIMDLE
 40
0.0
  9
$DIMEXE
 40
1.0
  9
$DIMTP
 40
495.0
  9
$DIMTM
 40
0.0
  9
$DIMTXT
 40
3.0
  9
$DIMCEN
 40
0.0
  9
$DIMTSZ
 40
0.0
  9
$DIMTOL
 70
     0
  9
$DIMLIM
 70
     0
  9
$DIMTIH
 70
     0
  9
$DIMTOH
 70
     0
  9
$DIMSE1
 70
     0
  9
$DIMSE2
 70
     0
  9
$DIMTAD
 70
     1
  9
$DIMZIN
 70
     0
  9
$DIMBLK
  1

  9
$DIMASO
 70
     0
  9
$DIMSHO
 70
     0
  9
$DIMPOST
  1

  9
$DIMAPOST
  1

  9
$DIMALT
 70
     0
  9
$DIMALTD
 70
     2
  9
$DIMALTF
 40
25.399999999999999
  9
$DIMLFAC
 40
1.0
  9
$DIMTOFL
 70
     1
  9
$DIMTVP
 40
0.0
  9
$DIMTIX
 70
     1
  9
$DIMSOXD
 70
     0
  9
$DIMSAH
 70
     0
  9
$DIMBLK1
  1

  9
$DIMBLK2
  1

  9
$DIMSTYLE
  2
STANDARD
  9
$DIMCLRD
 70
     0
  9
$DIMCLRE
 70
     0
  9
$DIMCLRT
 70
     4
  9
$DIMTFAC
 40
1.0
  9
$DIMGAP
 40
1.0
  9
$LUNITS
 70
     2
  9
$LUPREC
 70
     4
  9
$SKETCHINC
 40
0.1
  9
$FILLETRAD
 40
0.0
  9
$AUNITS
 70
     0
  9
$AUPREC
 70
     0
  9
$MENU
  1
E:\r13\win\SUPPORT\ACAD
  9
$ELEVATION
 40
0.0
  9
$PELEVATION
 40
0.0
  9
$THICKNESS
 40
0.0
  9
$LIMCHECK
 70
     0
  9
$BLIPMODE
 70
     0
  9
$CHAMFERA
 40
0.5
  9
$CHAMFERB
 40
0.5
  9
$SKPOLY
 70
     0
  9
$TDCREATE
 40
2450647.4165519681
  9
$TDUPDATE
 40
2456597.6350209839
  9
$TDINDWG
 40
0.0095816782
  9
$TDUSRTIMER
 40
0.0095816782
  9
$USRTIMER
 70
     1
  9
$ANGBASE
 50
0.0
  9
$ANGDIR
 70
     0
  9
$PDMODE
 70
     0
  9
$PDSIZE
 40
0.0
  9
$PLINEWID
 40
0.0
  9
$COORDS
 70
     1
  9
$SPLFRAME
 70
     0
  9
$SPLINETYPE
 70
     6
  9
$SPLINESEGS
 70
     8
  9
$ATTDIA
 70
     0
  9
$ATTREQ
 70
     1
  9
$HANDLING
 70
     1
  9
$HANDSEED
  5
F59
  9
$SURFTAB1
 70
     6
  9
$SURFTAB2
 70
     6
  9
$SURFTYPE
 70
     6
  9
$SURFU
 70
     6
  9
$SURFV
 70
     6
  9
$UCSNAME
  2

  9
$UCSORG
 10
0.0
 20
0.0
 30
0.0
  9
$UCSXDIR
 10
1.0
 20
0.0
 30
0.0
  9
$UCSYDIR
 10
0.0
 20
1.0
 30
0.0
  9
$PUCSNAME
  2

  9
$PUCSORG
 10
0.0
 20
0.0
 30
0.0
  9
$PUCSXDIR
 10
1.0
 20
0.0
 30
0.0
  9
$PUCSYDIR
 10
0.0
 20
1.0
 30
0.0
  9
$USERI1
 70
     3
  9
$USERI2
 70
     1
  9
$USERI3
 70
     0
  9
$USERI4
 70
     0
  9
$USERI5
 70
     0
  9
$USERR1
 40
0.5
  9
$USERR2
 40
3.0
  9
$USERR3
 40
3.0
  9
$USERR4
 40
3.0
  9
$USERR5
 40
10.0
  9
$WORLDVIEW
 70
     1
  9
$SHADEDGE
 70
     3
  9
$SHADEDIF
 70
    70
  9
$TILEMODE
 70
     1
  9
$MAXACTVP
 70
    16
  9
$PLIMCHECK
 70
     0
  9
$PEXTMIN
 10
1.0000000000000000E+020
 20
1.0000000000000000E+020
 30
1.0000000000000000E+020
  9
$PEXTMAX
 10
-1.0000000000000000E+020
 20
-1.0000000000000000E+020
 30
-1.0000000000000000E+020
  9
$PLIMMIN
 10
0.0
 20
0.0
  9
$PLIMMAX
 10
12.0
 20
9.0
  9
$UNITMODE
 70
     0
  9
$VISRETAIN
 70
     0
  9
$PLINEGEN
 70
     0
  9
$PSLTSCALE
 70
     0
  0
ENDSEC
  0
SECTION
  2
TABLES
  0
TABLE
  2
VPORT
 70
     1
  0
VPORT
  2
*ACTIVE
 70
     0
 10
0.0
 20
0.0
 11
1.0
 21
1.0
 12
96.247062907201553
 22
67.05183146954721
 13
0.0
 23
0.0
 14
2.5
 24
2.5
 15
10.0
 25
10.0
 16
0.0
 26
0.0
 36
1.0
 17
0.0
 27
0.0
 37
0.0
 40
138.6470298934976
 41
2.304913294797688
 42
50.0
 43
0.0
 44
0.0
 50
0.0
 51
0.0
 71
     0
 72
   100
 73
     1
 74
     0
 75
     0
 76
     0
 77
     0
 78
     0
  0
ENDTAB
  0
TABLE
  2
LTYPE
 70
     3
  0
LTYPE
  2
CONTINUOUS
 70
     0
  3
Solid Line
 72
    65
 73
     0
 40
0.0
  0
LTYPE
  2
CENTER
 70
     0
  3
____ _ ____ _ ____ _ ____ _ ____ _ ____ _ ____
 72
    65
 73
     4
 40
2.0
 49
1.25
 49
-0.25
 49
0.25
 49
-0.25
  0
LTYPE
  2
PHANTOM2
 70
     0
  3
___ _ _ ___ _ _ ___ _ _ ___ _ _
 72
    65
 73
     6
 40
1.25
 49
0.625
 49
-0.125
 49
0.125
 49
-0.125
 49
0.125
 49
-0.125
  0
ENDTAB
  0
TABLE
  2
LAYER
 70
     3
  0
LAYER
  2
0
 70
     0
 62
     7
  6
CONTINUOUS
  0
LAYER
  2
1
 70
     0
 62
     1
  6
CENTER
  0
LAYER
  2
3
 70
     0
 62
     3
  6
CONTINUOUS
  0
ENDTAB
  0
TABLE
  2
STYLE
 70
     2
  0
STYLE
  2
STANDARD
 70
     0
 40
0.0
 41
1.0
 50
0.0
 71
     0
 42
0.2
  3
SIMPLEX
  4
BIGFONT
  0
STYLE
  2
STANDARD1
 70
     0
 40
0.0
 41
1.0
 50
0.0
 71
     0
 42
3.0
  3
txt
  4

  0
ENDTAB
  0
TABLE
  2
VIEW
 70
     0
  0
ENDTAB
  0
TABLE
  2
UCS
 70
     0
  0
ENDTAB
  0
TABLE
  2
APPID
 70
     3
  0
APPID
  2
ACAD
 70
     0
  0
APPID
  2
ACAD_MLEADERVER
 70
     0
  0
APPID
  2
ACAD_NAV_VCDISPLAY
 70
     0
  0
ENDTAB
  0
TABLE
  2
DIMSTYLE
 70
     1
  0
DIMSTYLE
  2
STANDARD
 70
     0
  3

  4

  5

  6

  7

 40
1.0
 41
0.18
 42
0.0625
 43
0.38
 44
0.18
 45
0.0
 46
0.0
 47
0.0
 48
0.0
140
0.18
141
0.09
142
0.0
143
25.399999999999999
144
1.0
145
0.0
146
1.0
147
0.09
 71
     0
 72
     0
 73
     1
 74
     1
 75
     0
 76
     0
 77
     0
 78
     0
170
     0
171
     2
172
     0
173
     0
174
     0
175
     0
176
     0
177
     0
178
     0
  0
ENDTAB
  0
ENDSEC
  0
SECTION
  2
BLOCKS
  0
BLOCK
  8
0
  2
$MODEL_SPACE
 70
     0
 10
0.0
 20
0.0
 30
0.0
  3
$MODEL_SPACE
  1

  0
ENDBLK
  5
329
  8
0
  0
BLOCK
 67
     1
  8
0
  2
$PAPER_SPACE
 70
     0
 10
0.0
 20
0.0
 30
0.0
  3
$PAPER_SPACE
  1

  0
ENDBLK
  5
327
 67
     1
  8
0
  0
ENDSEC
  0
SECTION
  2
ENTITIES
  0
CIRCLE
  5
DCC
  8
0
 10
26.133494370891871
 20
51.200397893096572
 30
0.0
 40
4.653589838486595
  0
LINE
  5
E02
  8
0
 10
21.479904532405499
 20
31.200397893096579
 30
0.0
 11
30.78708420937847
 21
31.20039789309681
 31
0.0
  0
LINE
  5
E03
  8
0
 10
21.133494370891871
 20
31.00039789309665
 30
0.0
 11
31.133494370891871
 21
31.00039789309665
 31
0.0
  0
LINE
  5
E04
  8
0
 10
31.133494370891871
 20
31.00039789309665
 30
0.0
 11
30.787084209377781
 21
31.20039789309681
 31
0.0
  0
LINE
  5
E05
  8
0
 10
21.133494370891871
 20
31.00039789309665
 30
0.0
 11
21.47990453240573
 21
31.200397893096689
 31
0.0
  0
LINE
  5
E06
  8
0
 10
31.133494370891871
 20
28.700397893096468
 30
0.0
 11
21.133494370891871
 21
28.700397893096468
 31
0.0
  0
LINE
  5
E07
  8
0
 10
31.133494370891871
 20
31.000397893096761
 30
0.0
 11
31.133494370891871
 21
28.700397893096468
 31
0.0
  0
LINE
  5
E08
  8
0
 10
21.13349437089164
 20
31.00039789309665
 30
0.0
 11
21.133494370891871
 21
28.700397893096468
 31
0.0
  0
CIRCLE
  5
E09
  8
0
 10
26.133494370891871
 20
51.200397893096572
 30
0.0
 40
5.0
  0
LINE
  5
E0A
  8
1
 10
18.633494370891871
 20
51.200397893096572
 30
0.0
 11
33.633494370891867
 21
51.200397893096572
 31
0.0
  0
LINE
  5
E0B
  8
1
 10
26.133494370891871
 20
58.700397893096572
 30
0.0
 11
26.133494370891871
 21
43.700397893096572
 31
0.0
  0
LINE
  5
E0C
  8
0
 10
28.13349437089164
 20
52.355097893096627
 30
0.0
 11
26.13349437089164
 21
53.509807893096422
 31
0.0
  0
LINE
  5
E0D
  8
0
 10
26.13349437089164
 20
53.509807893096422
 30
0.0
 11
24.13349437089164
 21
52.355097893096627
 31
0.0
  0
LINE
  5
E0E
  8
0
 10
24.13349437089164
 20
52.355097893096627
 30
0.0
 11
24.13349437089164
 21
50.045697893096531
 31
0.0
  0
LINE
  5
E0F
  8
0
 10
24.13349437089164
 20
50.045697893096531
 30
0.0
 11
26.13349437089164
 21
48.890997893096483
 31
0.0
  0
LINE
  5
E10
  8
0
 10
26.13349437089164
 20
48.890997893096483
 30
0.0
 11
28.13349437089164
 21
50.045697893096531
 31
0.0
  0
LINE
  5
E11
  8
0
 10
28.13349437089164
 20
50.045697893096531
 30
0.0
 11
28.13349437089164
 21
52.355097893096627
 31
0.0
  0
LINE
  5
E12
  8
1
 10
26.133494370891871
 20
33.700397893096579
 30
0.0
 11
26.133494370891871
 21
12.700397893096349
 31
0.0
  0
LINE
  5
E13
  8
0
 10
30.133494370891871
 20
27.200397893096468
 30
0.0
 11
22.13349437089164
 21
27.200397893096579
 31
0.0
  0
LINE
  5
E14
  8
0
 10
22.133494370891871
 20
28.700397893096468
 30
0.0
 11
22.133494370891871
 21
27.200397893096579
 31
0.0
  0
LINE
  5
E15
  8
0
 10
28.133494370891871
 20
15.200397893096349
 30
0.0
 11
24.133494370891871
 21
15.200397893096349
 31
0.0
  0
LINE
  5
E16
  8
0
 10
23.133494370891871
 20
27.200397893096579
 30
0.0
 11
23.133494370891871
 21
16.200397893096351
 31
0.0
  0
LINE
  5
E17
  8
3
 10
23.674994370891682
 20
26.20039789309681
 30
0.0
 11
23.674994370891682
 21
15.65889789309653
 31
0.0
  0
LINE
  5
E18
  8
3
 10
28.591994370892049
 20
26.20039789309681
 30
0.0
 11
28.591994370892049
 21
15.65889789309653
 31
0.0
  0
LINE
  5
E19
  8
0
 10
29.133494370891871
 20
27.200397893096579
 30
0.0
 11
29.133494370891871
 21
16.200397893096351
 31
0.0
  0
LINE
  5
E1A
  8
0
 10
29.133494370891871
 20
16.200397893096351
 30
0.0
 11
28.133494370891871
 21
15.200397893096349
 31
0.0
  0
LINE
  5
E1B
  8
0
 10
24.133494370891871
 20
15.200397893096349
 30
0.0
 11
23.133494370891871
 21
16.200397893096351
 31
0.0
  0
LINE
  5
E1C
  8
0
 10
23.133494370891871
 20
16.200397893096351
 30
0.0
 11
29.133494370891871
 21
16.200397893096351
 31
0.0
  0
LINE
  5
E1D
  8
0
 10
23.133494370891871
 20
26.200397893096579
 30
0.0
 11
29.133494370891871
 21
26.200397893096579
 31
0.0
  0
LINE
  5
E1E
  8
0
 10
30.13349437089164
 20
28.700397893096468
 30
0.0
 11
30.133494370891871
 21
27.200397893096351
 31
0.0
  0
LINE
  5
E1F
  8
3
 10
23.13349437089164
 20
27.138303405395622
 30
0.0
 11
23.674994370891682
 21
26.20039789309681
 31
0.0
  0
LINE
  5
E20
  8
3
 10
28.591994370892049
 20
26.20039789309681
 30
0.0
 11
29.133494370891871
 21
27.138303405394709
 31
0.0
  0
TEXT
  5
ECB
  8
0
 62
     3
 10
0.0
 20
0.0
 30
0.0
 40
5.0
  1
MBFCS06-BT
  7
STANDARD1
  0
ENDSEC
  0
EOF
