  0
SECTION
  2
HEADER
  9
$ACADVER
  1
AC1009
  9
$INSBASE
 10
0.0
 20
0.0
 30
0.0
  9
$EXTMIN
 10
0.0
 20
-2.960436562073669
 30
0.0
  9
$EXTMAX
 10
613.39999999999998
 20
87.299999999999869
 30
0.0
  9
$LIMMIN
 10
0.0
 20
0.0
  9
$LIMMAX
 10
12.0
 20
9.0
  9
$ORTHOMODE
 70
     1
  9
$REGENMODE
 70
     1
  9
$FILLMODE
 70
     1
  9
$QTEXTMODE
 70
     0
  9
$MIRRTEXT
 70
     0
  9
$DRAGMODE
 70
     2
  9
$LTSCALE
 40
1.0
  9
$OSMODE
 70
  3071
  9
$ATTMODE
 70
     1
  9
$TEXTSIZE
 40
0.2
  9
$TRACEWID
 40
0.05
  9
$TEXTSTYLE
  7
STANDARD
  9
$CLAYER
  8
0
  9
$CELTYPE
  6
BYLAYER
  9
$CECOLOR
 62
   256
  9
$DIMSCALE
 40
1.0
  9
$DIMASZ
 40
1.0
  9
$DIMEXO
 40
2.54
  9
$DIMDLI
 40
0.38
  9
$DIMRND
 40
0.0
  9
$DIMDLE
 40
0.0
  9
$DIMEXE
 40
2.54
  9
$DIMTP
 40
0.0
  9
$DIMTM
 40
0.0
  9
$DIMTXT
 40
3.2000000000000002
  9
$DIMCEN
 40
0.09
  9
$DIMTSZ
 40
0.0
  9
$DIMTOL
 70
     0
  9
$DIMLIM
 70
     0
  9
$DIMTIH
 70
     0
  9
$DIMTOH
 70
     0
  9
$DIMSE1
 70
     0
  9
$DIMSE2
 70
     0
  9
$DIMTAD
 70
     1
  9
$DIMZIN
 70
     8
  9
$DIMBLK
  1

  9
$DIMASO
 70
     1
  9
$DIMSHO
 70
     0
  9
$DIMPOST
  1

  9
$DIMAPOST
  1

  9
$DIMALT
 70
     0
  9
$DIMALTD
 70
     2
  9
$DIMALTF
 40
25.399999999999999
  9
$DIMLFAC
 40
1.0
  9
$DIMTOFL
 70
     0
  9
$DIMTVP
 40
1.0
  9
$DIMTIX
 70
     0
  9
$DIMSOXD
 70
     0
  9
$DIMSAH
 70
     0
  9
$DIMBLK1
  1

  9
$DIMBLK2
  1

  9
$DIMSTYLE
  2
STANDARD
  9
$DIMCLRD
 70
     0
  9
$DIMCLRE
 70
     0
  9
$DIMCLRT
 70
     0
  9
$DIMTFAC
 40
1.0
  9
$DIMGAP
 40
1.6000000000000001
  9
$LUNITS
 70
     2
  9
$LUPREC
 70
     4
  9
$SKETCHINC
 40
0.1
  9
$FILLETRAD
 40
0.2
  9
$AUNITS
 70
     0
  9
$AUPREC
 70
     0
  9
$MENU
  1
.
  9
$ELEVATION
 40
0.0
  9
$PELEVATION
 40
0.0
  9
$THICKNESS
 40
0.0
  9
$LIMCHECK
 70
     0
  9
$BLIPMODE
 70
     0
  9
$CHAMFERA
 40
0.5
  9
$CHAMFERB
 40
0.5
  9
$SKPOLY
 70
     0
  9
$TDCREATE
 40
2453173.4709223039
  9
$TDUPDATE
 40
2456597.6347156591
  9
$TDINDWG
 40
1.2300509491
  9
$TDUSRTIMER
 40
1.2300509491
  9
$USRTIMER
 70
     1
  9
$ANGBASE
 50
0.0
  9
$ANGDIR
 70
     0
  9
$PDMODE
 70
     0
  9
$PDSIZE
 40
0.0
  9
$PLINEWID
 40
0.0
  9
$COORDS
 70
     1
  9
$SPLFRAME
 70
     0
  9
$SPLINETYPE
 70
     6
  9
$SPLINESEGS
 70
     8
  9
$ATTDIA
 70
     0
  9
$ATTREQ
 70
     1
  9
$HANDLING
 70
     1
  9
$HANDSEED
  5
3B2
  9
$SURFTAB1
 70
     6
  9
$SURFTAB2
 70
     6
  9
$SURFTYPE
 70
     6
  9
$SURFU
 70
     6
  9
$SURFV
 70
     6
  9
$UCSNAME
  2

  9
$UCSORG
 10
0.0
 20
0.0
 30
0.0
  9
$UCSXDIR
 10
1.0
 20
0.0
 30
0.0
  9
$UCSYDIR
 10
0.0
 20
1.0
 30
0.0
  9
$PUCSNAME
  2

  9
$PUCSORG
 10
0.0
 20
0.0
 30
0.0
  9
$PUCSXDIR
 10
1.0
 20
0.0
 30
0.0
  9
$PUCSYDIR
 10
0.0
 20
1.0
 30
0.0
  9
$USERI1
 70
     0
  9
$USERI2
 70
     0
  9
$USERI3
 70
     0
  9
$USERI4
 70
     0
  9
$USERI5
 70
     0
  9
$USERR1
 40
0.0
  9
$USERR2
 40
0.0
  9
$USERR3
 40
0.0
  9
$USERR4
 40
0.0
  9
$USERR5
 40
0.0
  9
$WORLDVIEW
 70
     1
  9
$SHADEDGE
 70
     3
  9
$SHADEDIF
 70
    70
  9
$TILEMODE
 70
     1
  9
$MAXACTVP
 70
    64
  9
$PLIMCHECK
 70
     0
  9
$PEXTMIN
 10
1.0000000000000000E+020
 20
1.0000000000000000E+020
 30
1.0000000000000000E+020
  9
$PEXTMAX
 10
-1.0000000000000000E+020
 20
-1.0000000000000000E+020
 30
-1.0000000000000000E+020
  9
$PLIMMIN
 10
0.0
 20
0.0
  9
$PLIMMAX
 10
12.0
 20
9.0
  9
$UNITMODE
 70
     0
  9
$VISRETAIN
 70
     1
  9
$PLINEGEN
 70
     0
  9
$PSLTSCALE
 70
     1
  0
ENDSEC
  0
SECTION
  2
TABLES
  0
TABLE
  2
VPORT
 70
     1
  0
VPORT
  2
*ACTIVE
 70
     0
 10
0.0
 20
0.0
 11
1.0
 21
1.0
 12
306.70000142818333
 22
42.738037677716768
 13
0.0
 23
0.0
 14
1.0
 24
1.0
 15
0.0
 25
0.0
 16
0.0
 26
0.0
 36
1.0
 17
0.0
 27
0.0
 37
0.0
 40
267.46495033407439
 41
2.304913294797688
 42
50.0
 43
0.0
 44
0.0
 50
0.0
 51
0.0
 71
     0
 72
   100
 73
     1
 74
     1
 75
     0
 76
     0
 77
     0
 78
     0
  0
ENDTAB
  0
TABLE
  2
LTYPE
 70
     4
  0
LTYPE
  2
CONTINUOUS
 70
     0
  3
Solid line
 72
    65
 73
     0
 40
0.0
  0
LTYPE
  2
CENTER
 70
     0
  3
Center ____ _ ____ _ ____ _ ____ _ ____ _ ____
 72
    65
 73
     4
 40
12.0
 49
7.5
 49
-1.5
 49
1.5
 49
-1.5
  0
LTYPE
  2
PHANTOM
 70
     0
  3
Phantom ______  __  __  ______  __  __  ______
 72
    65
 73
     6
 40
15.0
 49
7.5
 49
-1.5
 49
1.5
 49
-1.5
 49
1.5
 49
-1.5
  0
LTYPE
  2
PHANTOM2
 70
     0
  3
___ _ _ ___ _ _ ___ _ _ ___ _ _
 72
    65
 73
     6
 40
1.25
 49
0.625
 49
-0.125
 49
0.125
 49
-0.125
 49
0.125
 49
-0.125
  0
ENDTAB
  0
TABLE
  2
LAYER
 70
     4
  0
LAYER
  2
0
 70
     0
 62
     7
  6
CONTINUOUS
  0
LAYER
  2
1
 70
     0
 62
     1
  6
CENTER
  0
LAYER
  2
5
 70
     0
 62
     3
  6
PHANTOM
  0
LAYER
  2
DEFPOINTS
 70
     0
 62
     7
  6
CONTINUOUS
  0
ENDTAB
  0
TABLE
  2
STYLE
 70
     2
  0
STYLE
  2
STANDARD
 70
     0
 40
0.0
 41
1.0
 50
0.0
 71
     0
 42
0.2
  3
simplex.shx
  4
bigfont.shx
  0
STYLE
  2
STANDARD1
 70
     0
 40
0.0
 41
1.0
 50
0.0
 71
     0
 42
3.0
  3
txt
  4

  0
ENDTAB
  0
TABLE
  2
VIEW
 70
     0
  0
ENDTAB
  0
TABLE
  2
UCS
 70
     0
  0
ENDTAB
  0
TABLE
  2
APPID
 70
     6
  0
APPID
  2
ACAD
 70
     0
  0
APPID
  2
ACAD_DSTYLE_DIMJAG
 70
     0
  0
APPID
  2
ACAD_DSTYLE_DIMTALN
 70
     0
  0
APPID
  2
ACAD_EXEMPT_FROM_CAD_STANDARDS
 70
     0
  0
APPID
  2
ACAD_MLEADERVER
 70
     0
  0
APPID
  2
ACAD_NAV_VCDISPLAY
 70
     0
  0
ENDTAB
  0
TABLE
  2
DIMSTYLE
 70
     1
  0
DIMSTYLE
  2
STANDARD
 70
     0
  3

  4

  5

  6

  7

 40
1.0
 41
0.18
 42
0.0625
 43
0.38
 44
0.18
 45
0.0
 46
0.0
 47
0.0
 48
0.0
140
0.18
141
0.09
142
0.0
143
25.399999999999999
144
1.0
145
0.0
146
1.0
147
0.09
 71
     0
 72
     0
 73
     1
 74
     1
 75
     0
 76
     0
 77
     0
 78
     0
170
     0
171
     2
172
     0
173
     0
174
     0
175
     0
176
     0
177
     0
178
     0
  0
ENDTAB
  0
ENDSEC
  0
SECTION
  2
BLOCKS
  0
BLOCK
  8
0
  2
$MODEL_SPACE
 70
     0
 10
0.0
 20
0.0
 30
0.0
  3
$MODEL_SPACE
  1

  0
ENDBLK
  5
9
  8
0
  0
BLOCK
 67
     1
  8
0
  2
$PAPER_SPACE
 70
     0
 10
0.0
 20
0.0
 30
0.0
  3
$PAPER_SPACE
  1

  0
ENDBLK
  5
E
 67
     1
  8
0
  0
ENDSEC
  0
SECTION
  2
ENTITIES
  0
LINE
  5
30
  8
0
 10
102.40000000000001
 20
86.240048534084366
 30
0.0
 11
610.39999999999998
 21
86.240048534084366
 31
0.0
  0
LINE
  5
31
  8
0
 10
102.40000000000001
 20
63.559951465915539
 30
0.0
 11
610.39999999999998
 21
63.559951465915532
 31
0.0
  0
LINE
  5
33
  8
0
 10
102.40000000000001
 20
87.299999999999869
 30
0.0
 11
102.40000000000001
 21
62.499999999999993
 31
0.0
  0
LINE
  5
34
  8
0
 10
102.40000000000001
 20
87.299999999999869
 30
0.0
 11
610.39999999999998
 21
87.299999999999869
 31
0.0
  0
LINE
  5
35
  8
0
 10
102.40000000000001
 20
62.499999999999993
 30
0.0
 11
610.39999999999998
 21
62.499999999999972
 31
0.0
  0
LINE
  5
42
  8
0
 10
102.40000000000001
 20
52.499999999999957
 30
0.0
 11
102.39999999999991
 21
27.099999999999952
 31
0.0
  0
LINE
  5
43
  8
0
 10
102.39999999999991
 20
52.499999999999993
 30
0.0
 11
610.39999999999998
 21
52.5
 31
0.0
  0
LINE
  5
44
  8
0
 10
102.40000000000001
 20
39.799999999999997
 30
0.0
 11
610.39999999999998
 21
39.799999999999997
 31
0.0
  0
LINE
  5
45
  8
0
 10
102.40000000000001
 20
27.099999999999952
 30
0.0
 11
610.39999999999998
 21
27.099999999999952
 31
0.0
  0
ARC
  5
47
  8
5
 10
68.479781680284646
 20
40.850244002378297
 30
0.0
 40
1.0
 50
155.40020299999989
 51
267.39998000000128
  0
ARC
  5
4A
  8
5
 10
68.675962244569462
 20
39.439891806613389
 30
0.0
 40
0.4000015300000001
 50
357.40001999999993
 51
87.40000100000141
  0
LINE
  5
4B
  8
5
 10
68.434418692155361
 20
39.851273432587561
 30
0.0
 11
68.694107485184134
 21
39.839481033500249
 31
0.0
  0
LINE
  5
4C
  8
5
 10
72.440246322722814
 20
39.669369864305963
 30
0.0
 11
71.291432165404672
 21
39.721537209928613
 31
0.0
  0
LINE
  5
4D
  8
5
 10
68.888420549210252
 20
35.300876408834483
 30
0.0
 11
69.075627579483069
 21
39.423495341422502
 31
0.0
  0
LINE
  5
4E
  8
5
 10
70.690278936667085
 20
35.300876408834483
 30
0.0
 11
70.873698742236684
 21
39.340094177264007
 31
0.0
  0
ARC
  5
4F
  8
5
 10
71.273286970152924
 20
39.321948982012309
 30
0.0
 40
0.4
 50
87.400000000000006
 51
177.39999999999989
  0
ARC
  5
50
  8
5
 10
72.46065966738098
 20
40.118906620711812
 30
0.0
 40
0.45
 50
267.39999999999998
 51
357.39999999999992
  0
ARC
  5
51
  8
5
 10
72.891510542813293
 20
51.811397931341041
 30
0.0
 40
0.5500006100000001
 50
357.40001999999993
 51
155.40021699999949
  0
LINE
  5
52
  8
5
 10
72.910196423786772
 20
40.098493276053603
 30
0.0
 11
73.440943357227695
 21
51.786448333232947
 31
0.0
  0
LINE
  5
53
  8
5
 10
72.391429261072119
 20
52.040350727027082
 30
0.0
 11
67.570544096352762
 21
41.266521573195853
 31
0.0
  0
ARC
  5
54
  8
0
 10
48.149999000000093
 20
51.949999389999959
 30
0.0
 40
0.5500006100000001
 50
21.999783000000448
 51
179.99997999999999
  0
LINE
  5
55
  8
0
 10
48.65995146591564
 20
52.156031313514397
 30
0.0
 11
52.987140781799098
 21
41.174603308384121
 31
0.0
  0
ARC
  5
56
  8
0
 10
48.050000000000132
 20
40.25
 30
0.0
 40
0.45
 50
180.0
 51
270.0
  0
ARC
  5
57
  8
0
 10
49.1999980000001
 20
39.399999999999977
 30
0.0
 40
0.4
 50
0.0
 51
90.0
  0
LINE
  5
58
  8
0
 10
48.050000000000132
 20
39.800000000000011
 30
0.0
 11
49.1999980000001
 21
39.800000000000011
 31
0.0
  0
LINE
  5
59
  8
0
 10
47.600000000000129
 20
40.25
 30
0.0
 11
47.600000000000072
 21
51.949999389999959
 31
0.0
  0
LINE
  5
5A
  8
0
 10
52.05995560000008
 20
39.800000000000011
 30
0.0
 11
51.799999200000059
 21
39.800000000000011
 31
0.0
  0
ARC
  5
5B
  8
0
 10
51.799999200000059
 20
39.39999899999998
 30
0.0
 40
0.4000015300000001
 50
89.999998999998624
 51
179.99997999999999
  0
ARC
  5
5C
  8
0
 10
52.05995560000008
 20
40.799999999999997
 30
0.0
 40
1.0
 50
270.0000199999987
 51
21.999796999999749
  0
LINE
  5
5D
  8
0
 10
49.599998000000021
 20
27.550000000000011
 30
0.0
 11
49.599998000000092
 21
39.399999999999977
 31
0.0
  0
LINE
  5
5E
  8
0
 10
51.400001500000087
 20
31.20000339000001
 30
0.0
 11
51.40000150000003
 21
39.401749427669017
 31
0.0
  0
ARC
  5
86
  8
0
 10
52.200001500000099
 20
31.20000339000001
 30
0.0
 40
0.8
 50
180.0
 51
270.0
  0
ARC
  5
87
  8
0
 10
67.799998500000015
 20
31.20000339000001
 30
0.0
 40
0.8
 50
270.0
 51
0.0
  0
ARC
  5
88
  8
0
 10
71.85000100000002
 20
51.949999389999959
 30
0.0
 40
0.5500006100000001
 50
0.0000199999999773
 51
158.00021699999951
  0
ARC
  5
89
  8
0
 10
69.950002000000097
 20
27.550000000000011
 30
0.0
 40
0.45
 50
270.0
 51
0.0
  0
LINE
  5
8A
  8
0
 10
68.599998500000027
 20
31.20000339000001
 30
0.0
 11
68.599998500000083
 21
39.401749427669017
 31
0.0
  0
LINE
  5
8B
  8
0
 10
70.400002000000086
 20
27.550000000000011
 30
0.0
 11
70.400002000000029
 21
39.399999999999977
 31
0.0
  0
ARC
  5
8C
  8
0
 10
67.940044400000033
 20
40.799999999999997
 30
0.0
 40
1.0
 50
158.0002030000002
 51
269.99998000000119
  0
ARC
  5
8D
  8
0
 10
68.200000800000055
 20
39.39999899999998
 30
0.0
 40
0.4000015300000001
 50
0.0000199999999773
 51
90.000001000001362
  0
LINE
  5
8E
  8
0
 10
67.940044400000033
 20
39.800000000000011
 30
0.0
 11
68.200000800000055
 21
39.800000000000011
 31
0.0
  0
LINE
  5
8F
  8
0
 10
72.399999999999977
 20
40.25
 30
0.0
 11
72.400000000000034
 21
51.949999389999959
 31
0.0
  0
LINE
  5
90
  8
0
 10
71.949999999999989
 20
39.800000000000011
 30
0.0
 11
70.800002000000006
 21
39.800000000000011
 31
0.0
  0
ARC
  5
91
  8
0
 10
70.800002000000006
 20
39.399999999999977
 30
0.0
 40
0.4
 50
90.0
 51
180.0
  0
ARC
  5
92
  8
0
 10
71.949999999999989
 20
40.25
 30
0.0
 40
0.45
 50
270.0
 51
0.0
  0
LINE
  5
93
  8
0
 10
71.340048534084474
 20
52.156031313514397
 30
0.0
 11
67.012859218201015
 21
41.174603308384121
 31
0.0
  0
ARC
  5
94
  8
0
 10
50.049998000000009
 20
27.550000000000011
 30
0.0
 40
0.45
 50
180.0
 51
270.0
  0
LINE
  5
95
  8
5
 10
47.608570738927988
 20
52.040350727027082
 30
0.0
 11
52.429455903647352
 21
41.266521573195853
 31
0.0
  0
ARC
  5
96
  8
5
 10
47.539340332619133
 20
40.118906620711812
 30
0.0
 40
0.45
 50
182.60000000000011
 51
272.59999999999991
  0
ARC
  5
97
  8
5
 10
48.72671302984719
 20
39.321948982012309
 30
0.0
 40
0.4
 50
2.600000000000108
 51
92.600000000000009
  0
LINE
  5
98
  8
1
 10
60.000000000000043
 20
55.499999999999979
 30
0.0
 11
60.0
 21
24.099999999999952
 31
0.0
  0
LINE
  5
99
  8
0
 10
50.049998000000009
 20
27.099999999999969
 30
0.0
 11
69.95000200000004
 21
27.099999999999969
 31
0.0
  0
LINE
  5
9A
  8
5
 10
49.309721063333029
 20
35.300876408834483
 30
0.0
 11
49.12630125776343
 21
39.340094177264007
 31
0.0
  0
LINE
  5
9B
  8
0
 10
52.200001500000099
 20
30.400003389999998
 30
0.0
 11
67.799998500000015
 21
30.400003389999998
 31
0.0
  0
LINE
  5
9C
  8
5
 10
51.111579450789861
 20
35.300876408834483
 30
0.0
 11
50.924372420517052
 21
39.423495341422502
 31
0.0
  0
LINE
  5
9D
  8
5
 10
47.559753677277278
 20
39.669369864305963
 30
0.0
 11
48.708567834595442
 21
39.721537209928613
 31
0.0
  0
LINE
  5
9E
  8
5
 10
47.089803576213342
 20
40.098493276053603
 30
0.0
 11
46.559056642772411
 21
51.786448333232947
 31
0.0
  0
LINE
  5
9F
  8
5
 10
51.565581307844752
 20
39.851273432587561
 30
0.0
 11
51.30589251481598
 21
39.839481033500249
 31
0.0
  0
LINE
  5
A3
  8
1
 10
99.400000000000006
 20
74.899999999999963
 30
0.0
 11
613.39999999999998
 21
74.899999999999935
 31
0.0
  0
ARC
  5
A4
  8
5
 10
47.108489457186799
 20
51.811397931341041
 30
0.0
 40
0.5500006100000001
 50
24.59978300000051
 51
182.5999800000001
  0
ARC
  5
A5
  8
5
 10
51.324037755430652
 20
39.439891806613389
 30
0.0
 40
0.4000015300000001
 50
92.599998999998562
 51
182.5999800000001
  0
ARC
  5
A6
  8
5
 10
51.520218319715468
 20
40.850244002378297
 30
0.0
 40
1.0
 50
272.60001999999872
 51
24.599797000000049
  0
LINE
  5
1AB
  8
0
 10
610.39999999999998
 20
81.840044399999925
 30
0.0
 11
102.40000000000001
 21
81.840044399999925
 31
0.0
  0
LINE
  5
1AC
  8
0
 10
610.39999999999998
 20
67.959955599999972
 30
0.0
 11
102.40000000000001
 21
67.959955599999986
 31
0.0
  0
LINE
  5
1B6
  8
0
 10
610.39999999999998
 20
87.299999999999869
 30
0.0
 11
610.39999999999998
 21
62.499999999999972
 31
0.0
  0
LINE
  5
1B9
  8
0
 10
610.39999999999998
 20
52.499999999999837
 30
0.0
 11
610.39999999999986
 21
27.099999999999842
 31
0.0
  0
TEXT
  5
350
  8
0
 62
     3
 10
0.0
 20
0.0
 30
0.0
 40
10.0
  1
MBDE08LB
  7
STANDARD1
  0
ENDSEC
  0
EOF
