  0
SECTION
  2
HEADER
  9
$ACADVER
  1
AC1009
  9
$INSBASE
 10
0.0
 20
0.0
 30
0.0
  9
$EXTMIN
 10
0.0
 20
-1.4802182810368341
 30
0.0
  9
$EXTMAX
 10
58.229877216916783
 20
63.067546816647443
 30
0.0
  9
$LIMMIN
 10
0.0
 20
0.0
  9
$LIMMAX
 10
187.5
 20
135.0
  9
$ORTHOMODE
 70
     1
  9
$REGENMODE
 70
     1
  9
$FILLMODE
 70
     1
  9
$QTEXTMODE
 70
     0
  9
$MIRRTEXT
 70
     0
  9
$DRAGMODE
 70
     2
  9
$LTSCALE
 40
5.0
  9
$OSMODE
 70
  3071
  9
$ATTMODE
 70
     1
  9
$TEXTSIZE
 40
0.06
  9
$TRACEWID
 40
0.05
  9
$TEXTSTYLE
  7
STANDARD
  9
$CLAYER
  8
0
  9
$CELTYPE
  6
BYLAYER
  9
$CECOLOR
 62
   256
  9
$DIMSCALE
 40
0.5
  9
$DIMASZ
 40
3.0
  9
$DIMEXO
 40
2.0
  9
$DIMDLI
 40
10.0
  9
$DIMRND
 40
0.0
  9
$DIMDLE
 40
0.0
  9
$DIMEXE
 40
2.0
  9
$DIMTP
 40
0.0
  9
$DIMTM
 40
0.0
  9
$DIMTXT
 40
3.0
  9
$DIMCEN
 40
0.0
  9
$DIMTSZ
 40
0.0
  9
$DIMTOL
 70
     0
  9
$DIMLIM
 70
     0
  9
$DIMTIH
 70
     0
  9
$DIMTOH
 70
     0
  9
$DIMSE1
 70
     0
  9
$DIMSE2
 70
     0
  9
$DIMTAD
 70
     1
  9
$DIMZIN
 70
     0
  9
$DIMBLK
  1

  9
$DIMASO
 70
     0
  9
$DIMSHO
 70
     0
  9
$DIMPOST
  1

  9
$DIMAPOST
  1

  9
$DIMALT
 70
     0
  9
$DIMALTD
 70
     2
  9
$DIMALTF
 40
25.399999999999999
  9
$DIMLFAC
 40
1.0
  9
$DIMTOFL
 70
     1
  9
$DIMTVP
 40
1.6000000000000001
  9
$DIMTIX
 70
     1
  9
$DIMSOXD
 70
     0
  9
$DIMSAH
 70
     0
  9
$DIMBLK1
  1

  9
$DIMBLK2
  1

  9
$DIMSTYLE
  2
STANDARD
  9
$DIMCLRD
 70
     0
  9
$DIMCLRE
 70
     0
  9
$DIMCLRT
 70
     0
  9
$DIMTFAC
 40
1.0
  9
$DIMGAP
 40
0.09
  9
$LUNITS
 70
     2
  9
$LUPREC
 70
     4
  9
$SKETCHINC
 40
0.1
  9
$FILLETRAD
 40
0.4
  9
$AUNITS
 70
     0
  9
$AUPREC
 70
     4
  9
$MENU
  1
E:\r13\win\SUPPORT\ACAD
  9
$ELEVATION
 40
0.0
  9
$PELEVATION
 40
0.0
  9
$THICKNESS
 40
0.0
  9
$LIMCHECK
 70
     0
  9
$BLIPMODE
 70
     0
  9
$CHAMFERA
 40
0.0
  9
$CHAMFERB
 40
0.0
  9
$SKPOLY
 70
     0
  9
$TDCREATE
 40
2449840.5914699072
  9
$TDUPDATE
 40
2456597.6343570952
  9
$TDINDWG
 40
0.0647384838
  9
$TDUSRTIMER
 40
0.0647384838
  9
$USRTIMER
 70
     1
  9
$ANGBASE
 50
0.0
  9
$ANGDIR
 70
     0
  9
$PDMODE
 70
     0
  9
$PDSIZE
 40
0.0
  9
$PLINEWID
 40
0.0
  9
$COORDS
 70
     1
  9
$SPLFRAME
 70
     0
  9
$SPLINETYPE
 70
     6
  9
$SPLINESEGS
 70
     8
  9
$ATTDIA
 70
     0
  9
$ATTREQ
 70
     1
  9
$HANDLING
 70
     1
  9
$HANDSEED
  5
5DB
  9
$SURFTAB1
 70
     6
  9
$SURFTAB2
 70
     6
  9
$SURFTYPE
 70
     6
  9
$SURFU
 70
     6
  9
$SURFV
 70
     6
  9
$UCSNAME
  2

  9
$UCSORG
 10
0.0
 20
0.0
 30
0.0
  9
$UCSXDIR
 10
1.0
 20
0.0
 30
0.0
  9
$UCSYDIR
 10
0.0
 20
1.0
 30
0.0
  9
$PUCSNAME
  2

  9
$PUCSORG
 10
0.0
 20
0.0
 30
0.0
  9
$PUCSXDIR
 10
1.0
 20
0.0
 30
0.0
  9
$PUCSYDIR
 10
0.0
 20
1.0
 30
0.0
  9
$USERI1
 70
     3
  9
$USERI2
 70
     1
  9
$USERI3
 70
     0
  9
$USERI4
 70
     0
  9
$USERI5
 70
     0
  9
$USERR1
 40
0.5
  9
$USERR2
 40
3.0
  9
$USERR3
 40
3.0
  9
$USERR4
 40
3.0
  9
$USERR5
 40
10.0
  9
$WORLDVIEW
 70
     1
  9
$SHADEDGE
 70
     3
  9
$SHADEDIF
 70
    70
  9
$TILEMODE
 70
     1
  9
$MAXACTVP
 70
    16
  9
$PLIMCHECK
 70
     0
  9
$PEXTMIN
 10
1.0000000000000000E+020
 20
1.0000000000000000E+020
 30
1.0000000000000000E+020
  9
$PEXTMAX
 10
-1.0000000000000000E+020
 20
-1.0000000000000000E+020
 30
-1.0000000000000000E+020
  9
$PLIMMIN
 10
0.0
 20
0.0
  9
$PLIMMAX
 10
12.0
 20
9.0
  9
$UNITMODE
 70
     0
  9
$VISRETAIN
 70
     0
  9
$PLINEGEN
 70
     0
  9
$PSLTSCALE
 70
     0
  0
ENDSEC
  0
SECTION
  2
TABLES
  0
TABLE
  2
VPORT
 70
     1
  0
VPORT
  2
*ACTIVE
 70
     0
 10
0.0
 20
0.0
 11
1.0
 21
1.0
 12
93.747139195326156
 22
67.05183146954721
 13
0.0
 23
0.0
 14
5.0
 24
5.0
 15
10.0
 25
10.0
 16
0.0
 26
0.0
 36
1.0
 17
0.0
 27
0.0
 37
0.0
 40
138.6470298934976
 41
2.304913294797688
 42
50.0
 43
0.0
 44
0.0
 50
0.0
 51
0.0
 71
     0
 72
   100
 73
     1
 74
     0
 75
     0
 76
     0
 77
     0
 78
     0
  0
ENDTAB
  0
TABLE
  2
LTYPE
 70
     4
  0
LTYPE
  2
CONTINUOUS
 70
     0
  3
Solid Line
 72
    65
 73
     0
 40
0.0
  0
LTYPE
  2
CENTER
 70
     0
  3
____ _ ____ _ ____ _ ____ _ ____ _ ____ _ ____
 72
    65
 73
     4
 40
2.0
 49
1.25
 49
-0.25
 49
0.25
 49
-0.25
  0
LTYPE
  2
HIDDEN
 70
     0
  3
_ _ _ _ _ _ _ _ _ _ _ _ _ _ _ _ _ _ _ _ _ _ _
 72
    65
 73
     2
 40
0.375
 49
0.25
 49
-0.125
  0
LTYPE
  2
PHANTOM2
 70
     0
  3
___ _ _ ___ _ _ ___ _ _ ___ _ _
 72
    65
 73
     6
 40
1.25
 49
0.625
 49
-0.125
 49
0.125
 49
-0.125
 49
0.125
 49
-0.125
  0
ENDTAB
  0
TABLE
  2
LAYER
 70
     3
  0
LAYER
  2
0
 70
     0
 62
     7
  6
CONTINUOUS
  0
LAYER
  2
1
 70
     0
 62
     1
  6
CENTER
  0
LAYER
  2
2
 70
     0
 62
     2
  6
HIDDEN
  0
ENDTAB
  0
TABLE
  2
STYLE
 70
     2
  0
STYLE
  2
STANDARD
 70
     0
 40
0.0
 41
1.0
 50
0.0
 71
     0
 42
0.06
  3
TXT
  4
BIGFONT
  0
STYLE
  2
STANDARD1
 70
     0
 40
0.0
 41
1.0
 50
0.0
 71
     0
 42
3.0
  3
txt
  4

  0
ENDTAB
  0
TABLE
  2
VIEW
 70
     0
  0
ENDTAB
  0
TABLE
  2
UCS
 70
     0
  0
ENDTAB
  0
TABLE
  2
APPID
 70
     3
  0
APPID
  2
ACAD
 70
     0
  0
APPID
  2
ACAD_MLEADERVER
 70
     0
  0
APPID
  2
ACAD_NAV_VCDISPLAY
 70
     0
  0
ENDTAB
  0
TABLE
  2
DIMSTYLE
 70
     1
  0
DIMSTYLE
  2
STANDARD
 70
     0
  3

  4

  5

  6

  7

 40
1.0
 41
0.18
 42
0.0625
 43
0.38
 44
0.18
 45
0.0
 46
0.0
 47
0.0
 48
0.0
140
0.18
141
0.09
142
0.0
143
25.399999999999999
144
1.0
145
0.0
146
1.0
147
0.09
 71
     0
 72
     0
 73
     1
 74
     1
 75
     0
 76
     0
 77
     0
 78
     0
170
     0
171
     2
172
     0
173
     0
174
     0
175
     0
176
     0
177
     0
178
     0
  0
ENDTAB
  0
ENDSEC
  0
SECTION
  2
BLOCKS
  0
BLOCK
  8
0
  2
$MODEL_SPACE
 70
     0
 10
0.0
 20
0.0
 30
0.0
  3
$MODEL_SPACE
  1

  0
ENDBLK
  5
E6
  8
0
  0
BLOCK
 67
     1
  8
0
  2
$PAPER_SPACE
 70
     0
 10
0.0
 20
0.0
 30
0.0
  3
$PAPER_SPACE
  1

  0
ENDBLK
  5
E4
 67
     1
  8
0
  0
ENDSEC
  0
SECTION
  2
ENTITIES
  0
LINE
  5
7D
  8
2
 10
16.845355475476499
 20
8.6080121418361948
 30
0.0
 11
17.545355475476491
 21
7.908012141836199
 31
0.0
  0
LINE
  5
7E
  8
2
 10
17.195355475476489
 20
16.908012141836199
 30
0.0
 11
17.195355475476489
 21
8.2580121418362005
 31
0.0
  0
LINE
  5
7F
  8
2
 10
16.845355475476499
 20
8.6080121418361948
 30
0.0
 11
16.845355475476499
 21
16.908012141836199
 31
0.0
  0
LINE
  5
80
  8
2
 10
13.545355475476491
 20
8.6080121418361948
 30
0.0
 11
13.545355475476491
 21
16.908012141836199
 31
0.0
  0
LINE
  5
81
  8
2
 10
13.1953554754765
 20
16.908012141836199
 30
0.0
 11
13.1953554754765
 21
8.2580121418362005
 31
0.0
  0
LINE
  5
82
  8
2
 10
13.545355475476491
 20
8.6080121418361948
 30
0.0
 11
16.845355475476499
 21
8.6080121418361948
 31
0.0
  0
LINE
  5
83
  8
2
 10
13.545355475476491
 20
8.6080121418361948
 30
0.0
 11
12.8453554754765
 21
7.908012141836199
 31
0.0
  0
LINE
  5
85
  8
2
 10
17.195355475476489
 20
16.908012141836199
 30
0.0
 11
13.1953554754765
 21
16.908012141836199
 31
0.0
  0
LINE
  5
389
  8
0
 10
18.195355475476511
 20
31.921801884793311
 30
0.0
 11
12.19535547547653
 21
31.921801884793311
 31
0.0
  0
LINE
  5
38C
  8
0
 10
12.120960597897939
 20
32.101407007214661
 30
0.0
 11
18.269750353055102
 21
32.101407007214661
 31
0.0
  0
LINE
  5
38D
  8
0
 10
10.19535547547658
 20
34.027012129636127
 30
0.0
 11
20.195355475476401
 21
34.027012129636127
 31
0.0
  0
LINE
  5
38F
  8
0
 10
10.449355475476519
 20
31.408012141836071
 30
0.0
 11
19.941355475476431
 21
31.408012141836071
 31
0.0
  0
LINE
  5
392
  8
0
 10
20.195355475476401
 20
31.15401214183613
 30
0.0
 11
10.195355475476569
 21
31.15401214183613
 31
0.0
  0
LINE
  5
394
  8
0
 10
19.433355475476379
 20
7.9080121418361973
 30
0.0
 11
10.957355475476421
 21
7.9080121418361946
 31
0.0
  0
LINE
  5
395
  8
0
 10
10.195355475476569
 20
8.6700121418362102
 30
0.0
 11
20.195355475476401
 21
8.6700121418362102
 31
0.0
  0
ARC
  5
397
  8
0
 10
17.042272553965802
 20
34.038064040831529
 30
0.0
 40
1.3361866673987439
 50
16.073399599875071
 51
47.390605174212112
  0
ARC
  5
398
  8
0
 10
13.825681338457001
 20
34.169581082645237
 30
0.0
 40
1.230870388382957
 50
129.74555482160321
 51
168.83066538006781
  0
ARC
  5
399
  8
0
 10
16.086835188809221
 20
34.49724598167839
 30
0.0
 40
1.567432358908903
 50
152.94988011633211
 51
183.26361061622421
  0
ARC
  5
39A
  8
0
 10
15.42716895199392
 20
34.420985264412451
 30
0.0
 40
1.132047563356223
 50
359.34338258889329
 51
43.098510766312423
  0
POLYLINE
  5
39B
  8
0
 66
     1
 10
0.0
 20
0.0
 30
0.0
 70
   128
  0
VERTEX
  5
572
  8
0
 10
19.51623682825679
 20
34.408012129635843
 30
0.0
  0
VERTEX
  5
573
  8
0
 10
19.678968451387089
 20
34.393746024821667
 30
0.0
  0
VERTEX
  5
574
  8
0
 10
19.819086949915949
 20
34.357314901803647
 30
0.0
  0
VERTEX
  5
575
  8
0
 10
19.93898396342631
 20
34.30494071699195
 30
0.0
  0
VERTEX
  5
576
  8
0
 10
20.013502674521579
 20
34.260556411129528
 30
0.0
  0
VERTEX
  5
577
  8
0
 10
20.069423172682189
 20
34.224088870636479
 30
0.0
  0
VERTEX
  5
578
  8
0
 10
20.092497668563549
 20
34.215618960715567
 30
0.0
  0
VERTEX
  5
579
  8
0
 10
20.102395098863251
 20
34.226094622809121
 30
0.0
  0
VERTEX
  5
57A
  8
0
 10
20.096921287883379
 20
34.248837547054109
 30
0.0
  0
SEQEND
  5
57B
  8
0
  0
LINE
  5
39C
  8
0
 10
19.49427897128967
 20
34.408012129635949
 30
0.0
 11
19.516236828256758
 21
34.408012129635949
 31
0.0
  0
POLYLINE
  5
39D
  8
0
 66
     1
 10
0.0
 20
0.0
 30
0.0
 70
   128
  0
VERTEX
  5
57C
  8
0
 10
18.380008013751691
 20
34.40801212963585
 30
0.0
  0
VERTEX
  5
57D
  8
0
 10
18.591812301054269
 20
34.393746024821667
 30
0.0
  0
VERTEX
  5
57E
  8
0
 10
18.787776725226461
 20
34.357314901803647
 30
0.0
  0
VERTEX
  5
57F
  8
0
 10
18.972886267917531
 20
34.30494071699195
 30
0.0
  0
VERTEX
  5
580
  8
0
 10
19.10418164188733
 20
34.260556411129528
 30
0.0
  0
VERTEX
  5
581
  8
0
 10
19.224456693326299
 20
34.224088870636479
 30
0.0
  0
VERTEX
  5
582
  8
0
 10
19.29437676496859
 20
34.215618960715567
 30
0.0
  0
VERTEX
  5
583
  8
0
 10
19.355173370075288
 20
34.226094622809121
 30
0.0
  0
VERTEX
  5
584
  8
0
 10
19.423490060566039
 20
34.265815026295293
 30
0.0
  0
VERTEX
  5
585
  8
0
 10
19.469200970829132
 20
34.314054938615982
 30
0.0
  0
VERTEX
  5
586
  8
0
 10
19.49866264933932
 20
34.371584896390459
 30
0.0
  0
VERTEX
  5
587
  8
0
 10
19.494711303977549
 20
34.393001519664267
 30
0.0
  0
SEQEND
  5
588
  8
0
  0
LINE
  5
39E
  8
0
 10
18.31000012282939
 20
34.408012129635956
 30
0.0
 11
18.380008013751659
 21
34.408012129635956
 31
0.0
  0
ARC
  5
39F
  8
0
 10
17.46150991482952
 20
36.718292017074823
 30
0.0
 40
2.461164113052134
 50
249.83336818501081
 51
290.1666318149899
  0
LINE
  5
3A0
  8
0
 10
16.521624957878899
 20
34.408012129635956
 30
0.0
 11
16.61301970682965
 21
34.408012129635956
 31
0.0
  0
ARC
  5
3A1
  8
0
 10
15.543435285131929
 20
37.71710007902594
 30
0.0
 40
3.4506402438774111
 50
253.53195003661401
 51
286.46804996338727
  0
LINE
  5
3A2
  8
0
 10
14.470565856310991
 20
34.408012129635956
 30
0.0
 11
14.565245612384979
 21
34.408012129635956
 31
0.0
  0
ARC
  5
3A3
  8
0
 10
13.556419180216629
 20
37.246926085200101
 30
0.0
 40
2.9824648518483681
 50
252.1511418773195
 51
287.84885812268141
  0
LINE
  5
3A4
  8
0
 10
12.56306022778012
 20
34.408012129635956
 30
0.0
 11
12.64227250412246
 21
34.408012129635956
 31
0.0
  0
POLYLINE
  5
3A5
  8
0
 66
     1
 10
0.0
 20
0.0
 30
0.0
 70
   128
  0
VERTEX
  5
589
  8
0
 10
11.22496878983592
 20
34.40801212963585
 30
0.0
  0
VERTEX
  5
58A
  8
0
 10
11.24097228968291
 20
34.393746024821681
 30
0.0
  0
VERTEX
  5
58B
  8
0
 10
11.27924457217595
 20
34.357314901803662
 30
0.0
  0
VERTEX
  5
58C
  8
0
 10
11.34339429850438
 20
34.304940716991972
 30
0.0
  0
VERTEX
  5
58D
  8
0
 10
11.41253836347088
 20
34.260556411129549
 30
0.0
  0
VERTEX
  5
58E
  8
0
 10
11.503614298538119
 20
34.224088870636493
 30
0.0
  0
VERTEX
  5
58F
  8
0
 10
11.577757992508889
 20
34.215618960715588
 30
0.0
  0
VERTEX
  5
590
  8
0
 10
11.66507036544685
 20
34.226094622809129
 30
0.0
  0
VERTEX
  5
591
  8
0
 10
11.809653875983869
 20
34.2658150262953
 30
0.0
  0
VERTEX
  5
592
  8
0
 10
11.969051473304869
 20
34.314054938616003
 30
0.0
  0
VERTEX
  5
593
  8
0
 10
12.205573660421161
 20
34.37158489639048
 30
0.0
  0
VERTEX
  5
594
  8
0
 10
12.463174882336761
 20
34.404934912017112
 30
0.0
  0
VERTEX
  5
595
  8
0
 10
12.563060227780211
 20
34.40801212963585
 30
0.0
  0
SEQEND
  5
596
  8
0
  0
LINE
  5
3A6
  8
0
 10
11.17691295603808
 20
34.408012129635956
 30
0.0
 11
11.224968789835939
 21
34.408012129635956
 31
0.0
  0
POLYLINE
  5
3A7
  8
0
 66
     1
 10
0.0
 20
0.0
 30
0.0
 70
   128
  0
VERTEX
  5
597
  8
0
 10
10.427216299897781
 20
34.308416610717153
 30
0.0
  0
VERTEX
  5
598
  8
0
 10
10.425163090841851
 20
34.304940716991972
 30
0.0
  0
VERTEX
  5
599
  8
0
 10
10.422180387265749
 20
34.260556411129549
 30
0.0
  0
VERTEX
  5
59A
  8
0
 10
10.44169018286418
 20
34.224088870636493
 30
0.0
  0
VERTEX
  5
59B
  8
0
 10
10.470031449643029
 20
34.215618960715588
 30
0.0
  0
VERTEX
  5
59C
  8
0
 10
10.51299350160518
 20
34.226094622809129
 30
0.0
  0
VERTEX
  5
59D
  8
0
 10
10.5985366871344
 20
34.2658150262953
 30
0.0
  0
VERTEX
  5
59E
  8
0
 10
10.70602036653513
 20
34.314054938616003
 30
0.0
  0
VERTEX
  5
59F
  8
0
 10
10.88258475330273
 20
34.37158489639048
 30
0.0
  0
VERTEX
  5
5A0
  8
0
 10
11.09190325622937
 20
34.404934912017112
 30
0.0
  0
VERTEX
  5
5A1
  8
0
 10
11.17691295603815
 20
34.40801212963585
 30
0.0
  0
SEQEND
  5
5A2
  8
0
  0
LINE
  5
3A8
  8
0
 10
10.419436806204789
 20
34.3731589499112
 30
0.0
 11
10.464961795785269
 21
34.385855792842833
 31
0.0
  0
LINE
  5
3A9
  8
0
 10
10.19535547547658
 20
33.008012129636128
 30
0.0
 11
20.195355475476401
 21
33.008012129636128
 31
0.0
  0
LINE
  5
3AB
  8
0
 10
10.449355475476519
 20
31.408012141836071
 30
0.0
 11
10.195355475476569
 21
31.15401214183613
 31
0.0
  0
LINE
  5
3AC
  8
0
 10
20.195355475476401
 20
31.15401214183612
 30
0.0
 11
19.941355475476449
 21
31.40801214183606
 31
0.0
  0
LINE
  5
3AD
  8
0
 10
20.195355475476401
 20
8.6700121418361942
 30
0.0
 11
20.195355475476401
 21
31.15401214183612
 31
0.0
  0
LINE
  5
3AE
  8
0
 10
10.195355475476569
 20
31.15401214183613
 30
0.0
 11
10.195355475476569
 21
8.6700121418362102
 31
0.0
  0
LINE
  5
3AF
  8
0
 10
19.433355475476361
 20
7.9080121418361813
 30
0.0
 11
20.195355475476401
 21
8.6700121418361942
 31
0.0
  0
LINE
  5
3B0
  8
0
 10
10.195355475476569
 20
8.6700121418362102
 30
0.0
 11
10.957355475476421
 21
7.9080121418361946
 31
0.0
  0
LINE
  5
3B1
  8
0
 10
18.195355475476511
 20
31.408012141836071
 30
0.0
 11
18.195355475476511
 21
31.921801884793311
 31
0.0
  0
LINE
  5
3B2
  8
0
 10
12.19535547547647
 20
31.921801884793311
 30
0.0
 11
12.19535547547647
 21
31.408012141836071
 31
0.0
  0
ARC
  5
3B3
  8
0
 10
18.449355475476452
 20
31.9218018847933
 30
0.0
 40
0.254000000000004
 50
135.00000000000239
 51
180.0000000000008
  0
ARC
  5
3B4
  8
0
 10
11.94135547547652
 20
31.9218018847933
 30
0.0
 40
0.254000000000004
 50
0.0
 51
44.999999999998252
  0
LINE
  5
3B5
  8
0
 10
18.269750353055102
 20
32.101407007214661
 30
0.0
 11
19.176355475476381
 21
33.008012129636107
 31
0.0
  0
LINE
  5
3B6
  8
0
 10
11.21435547547642
 20
33.008012129636128
 30
0.0
 11
12.120960597897881
 21
32.101407007214661
 31
0.0
  0
ARC
  5
3B7
  8
0
 10
14.932190273302689
 20
33.820512129636093
 30
0.0
 40
1.5874999999999899
 50
85.727281220359586
 51
107.9017596571112
  0
ARC
  5
3B8
  8
0
 10
16.434470728672519
 20
33.820512129636093
 30
0.0
 40
1.5874999999999919
 50
81.410355671674012
 51
107.9017596571106
  0
ARC
  5
3B9
  8
0
 10
13.482032913732811
 20
33.820512129636093
 30
0.0
 40
1.587499999999985
 50
81.410355671670246
 51
104.2707510247442
  0
ARC
  5
3BA
  8
0
 10
17.69132921139564
 20
33.820512129636093
 30
0.0
 40
1.5875000000000119
 50
84.067428040521548
 51
104.2707510247437
  0
ARC
  5
3BB
  8
0
 10
12.37122010003854
 20
33.820512129636093
 30
0.0
 40
1.5875000000000019
 50
84.067428040529336
 51
97.862693181186003
  0
ARC
  5
3BC
  8
0
 10
18.453829484610779
 20
33.820512129636093
 30
0.0
 40
1.5874999999999799
 50
87.885991266126112
 51
97.862693181190892
  0
ARC
  5
3BD
  8
0
 10
11.81976193319708
 20
33.820512129636093
 30
0.0
 40
1.5874999999999859
 50
87.885991265930571
 51
162.6486751176175
  0
ARC
  5
3BE
  8
0
 10
18.57094901775589
 20
33.820512129636093
 30
0.0
 40
1.5874999999999919
 50
15.6788724383253
 51
100.0022942611008
  0
ARC
  5
3BF
  8
0
 10
15.195355475476489
 20
33.026762129636111
 30
0.0
 40
2.3812499999999961
 50
86.511609275880005
 51
106.6880900359352
  0
ARC
  5
3C0
  8
0
 10
11.93688146634201
 20
33.820512129636093
 30
0.0
 40
1.5874999999999879
 50
76.104159759805455
 51
162.09288146464019
  0
ARC
  5
3C1
  8
0
 10
18.019490850914419
 20
33.820512129636093
 30
0.0
 40
1.5874999999999759
 50
21.20827132240402
 51
110.47889321694289
  0
ARC
  5
3C2
  8
0
 10
12.699381739557341
 20
33.820512129636093
 30
0.0
 40
1.587499999999977
 50
66.680320528980772
 51
158.27952652658689
  0
ARC
  5
3C3
  8
0
 10
16.90867803722017
 20
33.820512129636093
 30
0.0
 40
1.5874999999999859
 50
49.157876802113407
 51
117.1771043272697
  0
ARC
  5
3C4
  8
0
 10
13.95624022228046
 20
33.820512129636093
 30
0.0
 40
1.5874999999999799
 50
61.760436851840197
 51
125.3089783840751
  0
ARC
  5
3C5
  8
0
 10
15.45852067765027
 20
33.820512129636093
 30
0.0
 40
1.587499999999995
 50
59.937600641391853
 51
118.9183122160342
  0
ARC
  5
3C6
  8
0
 10
19.81435547547639
 20
34.02701212963612
 30
0.0
 40
0.3810000000000004
 50
0.0
 51
44.4775969437665
  0
ARC
  5
3C7
  8
0
 10
10.576355475476401
 20
34.027012129636127
 30
0.0
 40
0.3810000000000004
 50
114.39544189367049
 51
180.0000000000008
  0
LINE
  5
3C8
  8
0
 10
20.195355475476401
 20
33.008012129636107
 30
0.0
 11
20.195355475476401
 21
34.02701212963612
 31
0.0
  0
LINE
  5
3C9
  8
0
 10
10.19535547547658
 20
34.027012129636127
 30
0.0
 11
10.19535547547658
 21
33.008012129636128
 31
0.0
  0
CIRCLE
  5
3CA
  8
0
 10
15.1953554754765
 20
55.067546816647457
 30
0.0
 40
4.999999999999976
  0
ARC
  5
3CB
  8
0
 10
15.1953554754765
 20
55.067546816647457
 30
0.0
 40
4.6189999999999589
 50
29.543561292331141
 51
30.730865710254371
  0
ARC
  5
3CC
  8
0
 10
15.1953554754765
 20
55.067546816647457
 30
0.0
 40
4.6189999999999714
 50
3.8292755780461309
 51
5.0165799959684501
  0
ARC
  5
3CD
  8
0
 10
15.1953554754765
 20
55.067546816647457
 30
0.0
 40
4.6189999999999838
 50
338.1149898637604
 51
339.30229428166979
  0
ARC
  5
3CE
  8
0
 10
15.1953554754765
 20
55.067546816647457
 30
0.0
 40
4.6189999999999696
 50
312.40070414947462
 51
313.58800856746018
  0
ARC
  5
3CF
  8
0
 10
15.1953554754765
 20
55.067546816647457
 30
0.0
 40
4.618999999999958
 50
286.6864184351889
 51
287.87372285305662
  0
ARC
  5
3D0
  8
0
 10
15.1953554754765
 20
55.067546816647457
 30
0.0
 40
4.6189999999999918
 50
260.97213272090391
 51
262.15943713878141
  0
ARC
  5
3D1
  8
0
 10
15.1953554754765
 20
55.067546816647457
 30
0.0
 40
4.6189999999999811
 50
235.25784700661839
 51
236.44515142460369
  0
ARC
  5
3D2
  8
0
 10
15.1953554754765
 20
55.067546816647457
 30
0.0
 40
4.6189999999999802
 50
209.54356129233261
 51
210.73086571032491
  0
ARC
  5
3D3
  8
0
 10
15.1953554754765
 20
55.067546816647457
 30
0.0
 40
4.6189999999999714
 50
183.82927557804689
 51
185.0165799959145
  0
ARC
  5
3D4
  8
0
 10
15.1953554754765
 20
55.067546816647457
 30
0.0
 40
4.6189999999999642
 50
158.1149898637608
 51
159.30229428167291
  0
ARC
  5
3D5
  8
0
 10
15.1953554754765
 20
55.067546816647457
 30
0.0
 40
4.6189999999999518
 50
132.4007041494751
 51
133.5880085674593
  0
ARC
  5
3D6
  8
0
 10
15.1953554754765
 20
55.067546816647457
 30
0.0
 40
4.6189999999999687
 50
106.6864184351894
 51
107.8737228530569
  0
ARC
  5
3D7
  8
0
 10
15.1953554754765
 20
55.067546816647457
 30
0.0
 40
4.6189999999999518
 50
80.972132720902266
 51
82.159437138780206
  0
ARC
  5
3D8
  8
0
 10
15.1953554754765
 20
55.067546816647457
 30
0.0
 40
4.6189999999999607
 50
55.257847006617048
 51
56.445151424602017
  0
ARC
  5
3D9
  8
0
 10
12.699381739557341
 20
52.740473255368798
 30
0.0
 40
1.47478812037526
 50
24.86144037538434
 51
40.742531564144251
  0
ARC
  5
3DA
  8
0
 10
12.699381739557341
 20
52.740473255368798
 30
0.0
 40
1.4747881203752511
 50
45.246181153013701
 51
61.127272341772851
  0
ARC
  5
3DB
  8
0
 10
12.699381739557341
 20
52.740473255368798
 30
0.0
 40
1.4747881203837909
 50
179.1471546610988
 51
181.2923985350391
  0
ARC
  5
3DC
  8
0
 10
12.5705738200816
 20
52.620381645606102
 30
0.0
 40
1.3484035136378461
 50
176.30797868690689
 51
269.68073403003848
  0
ARC
  5
3DD
  8
0
 10
12.699381739557341
 20
52.740473255368798
 30
0.0
 40
1.474788120375248
 50
264.69631418153148
 51
266.84155805605911
  0
ARC
  5
3DE
  8
0
 10
11.819761933197089
 20
55.568071029170113
 30
0.0
 40
1.4747881203752531
 50
333.43286894681188
 51
349.3139601355727
  0
ARC
  5
3DF
  8
0
 10
11.819761933197089
 20
55.568071029170113
 30
0.0
 40
1.4747881203752571
 50
353.8176097244413
 51
9.6987009132020123
  0
ARC
  5
3E0
  8
0
 10
11.819761933197089
 20
55.568071029170113
 30
0.0
 40
1.474788120386969
 50
127.7185832325263
 51
129.86382710624869
  0
ARC
  5
3E1
  8
0
 10
11.64556010771947
 20
55.593901221833008
 30
0.0
 40
1.348403513644238
 50
124.87940725838661
 51
218.252162601333
  0
ARC
  5
3E2
  8
0
 10
11.819761933197089
 20
55.568071029170113
 30
0.0
 40
1.4747881203752551
 50
213.26774275295989
 51
215.41298662748781
  0
ARC
  5
3E3
  8
0
 10
12.371220100038551
 20
56.983118697626999
 30
0.0
 40
1.474788120375232
 50
307.71858323252701
 51
323.59967442128669
  0
ARC
  5
3E4
  8
0
 10
12.371220100038551
 20
56.983118697626999
 30
0.0
 40
1.474788120375246
 50
328.10332401015518
 51
343.98441519891651
  0
ARC
  5
3E5
  8
0
 10
12.371220100038551
 20
56.983118697626999
 30
0.0
 40
1.4747881203841
 50
102.0042975182415
 51
104.1495413921601
  0
ARC
  5
3E6
  8
0
 10
12.22547697911995
 20
57.081974236468866
 30
0.0
 40
1.3484035136384711
 50
99.165121544054131
 51
192.5378768871656
  0
ARC
  5
3E7
  8
0
 10
12.371220100038551
 20
56.983118697626999
 30
0.0
 40
1.47478812037525
 50
187.55345703867371
 51
189.69870091320121
  0
LINE
  5
3E8
  8
0
 10
13.273471333259399
 20
55.816524204175508
 30
0.0
 11
10.917510699976059
 21
56.73466552262142
 31
0.0
  0
ARC
  5
3E9
  8
0
 10
13.482032913732811
 20
58.01876386210845
 30
0.0
 40
1.474788120375228
 50
282.00429751824072
 51
297.88538870700103
  0
ARC
  5
3EA
  8
0
 10
13.482032913732811
 20
58.01876386210845
 30
0.0
 40
1.4747881203752471
 50
302.38903829586963
 51
318.27012948463022
  0
ARC
  5
3EB
  8
0
 10
13.482032913732811
 20
58.01876386210845
 30
0.0
 40
1.4747881203887321
 50
76.290011803955053
 51
78.435255677556398
  0
ARC
  5
3EC
  8
0
 10
13.393614709907339
 20
58.17106519527325
 30
0.0
 40
1.3484035136476851
 50
73.450835829840756
 51
166.82359117269189
  0
ARC
  5
3ED
  8
0
 10
13.482032913732811
 20
58.01876386210845
 30
0.0
 40
1.4747881203752491
 50
161.83917132438779
 51
163.98441519891651
  0
LINE
  5
3EE
  8
0
 10
13.788766805038851
 20
56.576226403349082
 30
0.0
 11
12.06448620873252
 21
58.42565615638636
 31
0.0
  0
ARC
  5
3EF
  8
0
 10
14.9321902733027
 20
58.469884296434607
 30
0.0
 40
1.474788120375244
 50
256.29001180395522
 51
272.17110299271422
  0
ARC
  5
3F0
  8
0
 10
14.9321902733027
 20
58.469884296434607
 30
0.0
 40
1.474788120375244
 50
276.67475258158379
 51
292.5558437703441
  0
ARC
  5
3F1
  8
0
 10
14.9321902733027
 20
58.469884296434607
 30
0.0
 40
1.4747881203883271
 50
50.575726089669601
 51
52.720969963297009
  0
ARC
  5
3F2
  8
0
 10
14.91860929620591
 20
58.645466277038622
 30
0.0
 40
1.3484035136469279
 50
47.736550115548702
 51
141.10930545842021
  0
ARC
  5
3F3
  8
0
 10
14.9321902733027
 20
58.469884296434607
 30
0.0
 40
1.4747881203752711
 50
136.12488561010181
 51
138.2701294846303
  0
LINE
  5
3F4
  8
0
 10
14.582654413676259
 20
57.03711610763532
 30
0.0
 11
13.83156877335926
 21
59.451532050907737
 31
0.0
  0
ARC
  5
3F5
  8
0
 10
16.43447072867253
 20
58.24713006595811
 30
0.0
 40
1.4747881203752571
 50
230.5757260896697
 51
246.4568172784295
  0
ARC
  5
3F6
  8
0
 10
16.43447072867253
 20
58.24713006595811
 30
0.0
 40
1.4747881203752691
 50
250.960466867299
 51
266.84155805605872
  0
ARC
  5
3F7
  8
0
 10
16.43447072867253
 20
58.24713006595811
 30
0.0
 40
1.47478812038405
 50
24.861440375383431
 51
27.006684249305358
  0
ARC
  5
3F8
  8
0
 10
16.498416857378949
 20
58.411216529380063
 30
0.0
 40
1.3484035136383721
 50
22.022264401194889
 51
115.3950197443108
  0
ARC
  5
3F9
  8
0
 10
16.43447072867253
 20
58.24713006595811
 30
0.0
 40
1.4747881203752691
 50
110.4105998958163
 51
112.55584377034479
  0
LINE
  5
3FA
  8
0
 10
15.497894981888701
 20
57.107908458659423
 30
0.0
 11
15.868766020086531
 21
59.609105903733301
 31
0.0
  0
ARC
  5
3FB
  8
0
 10
18.453829484610779
 20
56.081205231398513
 30
0.0
 40
1.4747881203752551
 50
179.147154661098
 51
195.02824584985859
  0
ARC
  5
3FC
  8
0
 10
18.453829484610779
 20
56.081205231398513
 30
0.0
 40
1.4747881203752491
 50
199.53189543872779
 51
215.4129866274865
  0
ARC
  5
3FD
  8
0
 10
18.453829484610779
 20
56.081205231398513
 30
0.0
 40
1.4747881203864981
 50
333.43286894681279
 51
335.57811282056429
  0
ARC
  5
3FE
  8
0
 10
18.621987206673388
 20
56.133516371357281
 30
0.0
 40
1.3484035136432839
 50
330.59369297266068
 51
63.966448315638267
  0
ARC
  5
3FF
  8
0
 10
18.453829484610779
 20
56.081205231398513
 30
0.0
 40
1.474788120375252
 50
58.982028467245293
 51
61.127272341772489
  0
ARC
  5
400
  8
0
 10
16.90867803722017
 20
52.116329771186301
 30
0.0
 40
1.474788120375272
 50
102.0042975182411
 51
117.8853887070013
  0
ARC
  5
401
  8
0
 10
16.90867803722017
 20
52.116329771186301
 30
0.0
 40
1.474788120375264
 50
122.38903829587019
 51
138.2701294846307
  0
ARC
  5
402
  8
0
 10
16.90867803722017
 20
52.116329771186301
 30
0.0
 40
1.474788120388685
 50
256.29001180395602
 51
258.43525567755722
  0
ARC
  5
403
  8
0
 10
16.997096241045629
 20
51.964028438021678
 30
0.0
 40
1.348403513647658
 50
253.45083582983989
 51
346.82359117269192
  0
ARC
  5
404
  8
0
 10
16.90867803722017
 20
52.116329771186301
 30
0.0
 40
1.47478812037526
 50
341.8391713243887
 51
343.9844151989156
  0
LINE
  5
405
  8
0
 10
13.55826293745592
 20
56.107944827966811
 30
0.0
 11
13.623318670416269
 21
56.203856758316562
 31
0.0
  0
ARC
  5
406
  8
0
 10
15.1953554754765
 20
55.067546816647457
 30
0.0
 40
1.939716474127064
 50
147.563400753878
 51
169.85388339185181
  0
LINE
  5
407
  8
0
 10
13.268974285522839
 20
55.294605203396038
 30
0.0
 11
13.28597284863268
 21
55.409245491369333
 31
0.0
  0
ARC
  5
408
  8
0
 10
15.1953554754765
 20
55.067546816647457
 30
0.0
 40
1.93971647412707
 50
173.27768646816369
 51
195.5681691061379
  0
ARC
  5
409
  8
0
 10
15.1953554754765
 20
55.067546816647457
 30
0.0
 40
1.939716474127074
 50
198.9919721824503
 51
221.2824548204232
  0
LINE
  5
40A
  8
0
 10
13.81675505392958
 20
53.703009943671603
 30
0.0
 11
13.73772409837785
 21
53.787777005901098
 31
0.0
  0
ARC
  5
40B
  8
0
 10
15.1953554754765
 20
55.067546816647457
 30
0.0
 40
1.9397164741270621
 50
224.70625789673531
 51
246.99674053470869
  0
ARC
  5
40C
  8
0
 10
15.1953554754765
 20
55.067546816647457
 30
0.0
 40
1.939716474127074
 50
250.4205436110214
 51
272.71102624899368
  0
ARC
  5
40D
  8
0
 10
15.1953554754765
 20
55.067546816647457
 30
0.0
 40
1.939716474127082
 50
276.1348293253061
 51
298.42531196327951
  0
LINE
  5
40E
  8
0
 10
16.218913106786609
 20
53.419872766543243
 30
0.0
 11
16.118685289744722
 21
53.361685727905581
 31
0.0
  0
ARC
  5
40F
  8
0
 10
15.1953554754765
 20
55.067546816647457
 30
0.0
 40
1.9397164741270829
 50
301.84911503959148
 51
324.13959767756552
  0
ARC
  5
410
  8
0
 10
15.1953554754765
 20
55.067546816647457
 30
0.0
 40
1.9397164741270789
 50
327.56340075387709
 51
349.85388339185022
  0
ARC
  5
411
  8
0
 10
15.1953554754765
 20
55.067546816647457
 30
0.0
 40
1.9397164741270789
 50
353.27768646816298
 51
15.56816910613531
  0
LINE
  5
412
  8
0
 10
17.02948189717792
 20
55.698799752653663
 30
0.0
 11
17.063907277816469
 21
55.5881370220606
 31
0.0
  0
ARC
  5
413
  8
0
 10
15.1953554754765
 20
55.067546816647457
 30
0.0
 40
1.9397164741270629
 50
18.991972182447711
 51
41.282454820420867
  0
ARC
  5
414
  8
0
 10
15.1953554754765
 20
55.067546816647457
 30
0.0
 40
1.9397164741270709
 50
44.706257896733128
 51
66.996740534707072
  0
LINE
  5
415
  8
0
 10
15.845381175956931
 20
56.895104363953259
 30
0.0
 11
15.953364656423609
 21
56.853022126361743
 31
0.0
  0
ARC
  5
416
  8
0
 10
15.1953554754765
 20
55.067546816647457
 30
0.0
 40
1.9397164741270581
 50
70.420543611019554
 51
92.711026248994116
  0
LINE
  5
417
  8
0
 10
14.988060892868249
 20
56.996154852517222
 30
0.0
 11
15.10360944561312
 21
57.00509234282336
 31
0.0
  0
ARC
  5
418
  8
0
 10
15.1953554754765
 20
55.067546816647457
 30
0.0
 40
1.9397164741270589
 50
96.134829325306157
 51
118.42531196328019
  0
LINE
  5
419
  8
0
 10
14.171797844166379
 20
56.715220866751501
 30
0.0
 11
14.27202566120827
 21
56.77340790538917
 31
0.0
  0
ARC
  5
41A
  8
0
 10
15.1953554754765
 20
55.067546816647457
 30
0.0
 40
1.939716474127078
 50
121.84911503959169
 51
144.13959767756629
  0
ARC
  5
41B
  8
0
 10
13.95624022228046
 20
51.887963567336818
 30
0.0
 40
1.4747881203752491
 50
50.575726089669033
 51
66.456817278429156
  0
LINE
  5
41C
  8
0
 10
14.545329774996061
 20
53.239989269341493
 30
0.0
 11
14.43734629452938
 21
53.282071506933008
 31
0.0
  0
ARC
  5
41D
  8
0
 10
13.95624022228046
 20
51.887963567336818
 30
0.0
 40
1.474788120375262
 50
70.960466867298933
 51
86.841558056058631
  0
LINE
  5
41E
  8
0
 10
14.03749706050028
 20
53.360511470205402
 30
0.0
 11
12.618124901337531
 21
51.267925352500399
 31
0.0
  0
ARC
  5
41F
  8
0
 10
13.95624022228046
 20
51.887963567336818
 30
0.0
 40
1.47478812038406
 50
204.8614403753852
 51
207.00668424930711
  0
ARC
  5
420
  8
0
 10
13.892294093574041
 20
51.723877103914873
 30
0.0
 40
1.348403513638406
 50
202.02226440119799
 51
295.39501974430988
  0
ARC
  5
421
  8
0
 10
13.95624022228046
 20
51.887963567336818
 30
0.0
 40
1.4747881203752511
 50
290.41059989581538
 51
292.55584377034438
  0
ARC
  5
422
  8
0
 10
15.458520677650281
 20
51.665209336860308
 30
0.0
 40
1.4747881203752411
 50
76.290011803955053
 51
92.171102992715447
  0
LINE
  5
423
  8
0
 10
15.40265005808474
 20
53.1389387807777
 30
0.0
 11
15.287101505339869
 21
53.130001290471569
 31
0.0
  0
ARC
  5
424
  8
0
 10
15.458520677650281
 20
51.665209336860308
 30
0.0
 40
1.474788120375248
 50
96.67475258158548
 51
112.55584377034489
  0
LINE
  5
425
  8
0
 10
14.892815969064291
 20
53.027185174635513
 30
0.0
 11
14.52194493086645
 21
50.525987729561621
 31
0.0
  0
ARC
  5
426
  8
0
 10
15.458520677650281
 20
51.665209336860308
 30
0.0
 40
1.4747881203883451
 50
230.57572608966959
 51
232.7209699632983
  0
ARC
  5
427
  8
0
 10
15.47210165474708
 20
51.489627356256122
 30
0.0
 40
1.3484035136469401
 50
227.73655011555169
 51
321.10930545842109
  0
ARC
  5
428
  8
0
 10
15.458520677650281
 20
51.665209336860308
 30
0.0
 40
1.474788120375256
 50
316.12488561010252
 51
318.27012948463022
  0
LINE
  5
429
  8
0
 10
15.80805653727672
 20
53.097977525659608
 30
0.0
 11
16.559142177593731
 21
50.683561582387192
 31
0.0
  0
ARC
  5
42A
  8
0
 10
11.936881466342021
 20
54.053888401896401
 30
0.0
 40
1.474788120375264
 50
359.14715466109629
 51
15.028245849857869
  0
LINE
  5
42B
  8
0
 10
13.36122905377507
 20
54.436293880641273
 30
0.0
 11
13.326803673136521
 21
54.546956611234329
 31
0.0
  0
ARC
  5
42C
  8
0
 10
11.936881466342021
 20
54.053888401896401
 30
0.0
 40
1.474788120375244
 50
19.531895438725972
 51
35.41298662748639
  0
LINE
  5
42D
  8
0
 10
13.13882858620835
 20
54.908477847797272
 30
0.0
 11
10.617814813330771
 21
54.713481583269257
 31
0.0
  0
ARC
  5
42E
  8
0
 10
11.936881466342021
 20
54.053888401896401
 30
0.0
 40
1.474788120388695
 50
153.43286894681319
 51
155.57811282041411
  0
ARC
  5
42F
  8
0
 10
11.768723744283379
 20
54.00157726194071
 30
0.0
 40
1.3484035136477319
 50
150.5936929726995
 51
243.9664483155473
  0
ARC
  5
430
  8
0
 10
11.936881466342021
 20
54.053888401896401
 30
0.0
 40
1.4747881203752911
 50
238.98202846724601
 51
241.12727234177419
  0
LINE
  5
431
  8
0
 10
13.411506211224021
 20
54.031937051552688
 30
0.0
 11
11.224756994675531
 21
52.762424605712532
 31
0.0
  0
ARC
  5
432
  8
0
 10
18.5709490177559
 20
54.567022604124801
 30
0.0
 40
1.474788120375266
 50
153.4328689468127
 51
169.31396013557259
  0
LINE
  5
433
  8
0
 10
17.121736665430149
 20
54.84048842989889
 30
0.0
 11
17.104738102320312
 21
54.725848141925603
 31
0.0
  0
ARC
  5
434
  8
0
 10
18.5709490177559
 20
54.567022604124801
 30
0.0
 40
1.474788120375248
 50
173.8176097244426
 51
189.698700913202
  0
ARC
  5
435
  8
0
 10
18.5709490177559
 20
54.567022604124801
 30
0.0
 40
1.4747881203870541
 50
307.71858323252701
 51
309.86382710624213
  0
ARC
  5
436
  8
0
 10
18.745150843233152
 20
54.541192411461907
 30
0.0
 40
1.348403513644445
 50
304.87940725838888
 51
38.252162601327733
  0
ARC
  5
437
  8
0
 10
18.5709490177559
 20
54.567022604124801
 30
0.0
 40
1.474788120375262
 50
33.267742752959968
 51
35.41298662748639
  0
LINE
  5
438
  8
0
 10
19.772896137622219
 20
55.421612050025672
 30
0.0
 11
17.251882364744642
 21
55.226615785497657
 31
0.0
  0
ARC
  5
439
  8
0
 10
18.01949085091443
 20
53.15197493566793
 30
0.0
 40
1.4747881203752491
 50
127.71858323252781
 51
143.5996744212882
  0
LINE
  5
43A
  8
0
 10
16.832448013497071
 20
54.027148805328117
 30
0.0
 11
16.767392280536718
 21
53.931236874978367
 31
0.0
  0
ARC
  5
43B
  8
0
 10
18.01949085091443
 20
53.15197493566793
 30
0.0
 40
1.47478812037526
 50
148.1033240101568
 51
163.98441519891651
  0
LINE
  5
43C
  8
0
 10
16.601944145914139
 20
53.558867229945847
 30
0.0
 11
18.326224742220461
 21
51.709437476908377
 31
0.0
  0
ARC
  5
43D
  8
0
 10
18.01949085091443
 20
53.15197493566793
 30
0.0
 40
1.47478812038405
 50
282.00429751824032
 51
284.14954139216269
  0
ARC
  5
43E
  8
0
 10
18.16523397183321
 20
53.053119396825878
 30
0.0
 40
1.348403513638357
 50
279.165121544052
 51
12.537876887168171
  0
ARC
  5
43F
  8
0
 10
18.01949085091443
 20
53.15197493566793
 30
0.0
 40
1.4747881203752431
 50
7.553457038672879
 51
9.6987009132012112
  0
LINE
  5
440
  8
0
 10
17.117239617693588
 20
54.318569429119421
 30
0.0
 11
19.47320025097692
 21
53.400428110673332
 31
0.0
  0
ARC
  5
441
  8
0
 10
17.69132921139564
 20
57.394620377925953
 30
0.0
 40
1.4747881203752571
 50
204.86144037538381
 51
220.74253156414451
  0
LINE
  5
442
  8
0
 10
16.573955897023421
 20
56.432083689623148
 30
0.0
 11
16.652986852574958
 21
56.347316627393653
 31
0.0
  0
ARC
  5
443
  8
0
 10
17.69132921139564
 20
57.394620377925953
 30
0.0
 40
1.474788120375252
 50
225.24618115301311
 51
241.12727234177331
  0
LINE
  5
444
  8
0
 10
16.979204739728971
 20
56.10315658174224
 30
0.0
 11
19.165953956277459
 21
57.372669027582219
 31
0.0
  0
ARC
  5
445
  8
0
 10
17.69132921139564
 20
57.394620377925953
 30
0.0
 40
1.4747881203865021
 50
359.14715466109709
 51
1.292398534850153
  0
ARC
  5
446
  8
0
 10
17.82013713086851
 20
57.514711987683242
 30
0.0
 40
1.3484035136433301
 50
356.30797868694901
 51
89.68073402992205
  0
ARC
  5
447
  8
0
 10
17.69132921139564
 20
57.394620377925953
 30
0.0
 40
1.474788120375252
 50
84.696314181530624
 51
86.841558056058247
  0
LINE
  5
448
  8
0
 10
16.35321389045254
 20
56.774582163089541
 30
0.0
 11
17.772586049615459
 21
58.86716828079453
 31
0.0
  0
LINE
  5
451
  8
1
 10
15.1953554754765
 20
4.9080121418362017
 30
0.0
 11
15.1953554754765
 21
38.408012129636113
 31
0.0
  0
LINE
  5
452
  8
1
 10
7.195355475476517
 20
55.067546816647457
 30
0.0
 11
23.195355475476479
 21
55.067546816647457
 31
0.0
  0
LINE
  5
45E
  8
1
 10
15.1953554754765
 20
47.067546816647479
 30
0.0
 11
15.1953554754765
 21
63.067546816647443
 31
0.0
  0
TEXT
  5
51B
  8
0
 62
     3
 10
0.0
 20
0.0
 30
0.0
 40
5.0
  1
MBBU-1025-80UR
  7
STANDARD1
  0
ENDSEC
  0
EOF
