  0
SECTION
  2
HEADER
  9
$ACADVER
  1
AC1009
  9
$INSBASE
 10
0.0
 20
0.0
 30
0.0
  9
$EXTMIN
 10
0.0
 20
-2.960436562073669
 30
0.0
  9
$EXTMAX
 10
325.00009707800513
 20
192.4633158941711
 30
0.0
  9
$LIMMIN
 10
0.0
 20
0.0
  9
$LIMMAX
 10
12.0
 20
9.0
  9
$ORTHOMODE
 70
     1
  9
$REGENMODE
 70
     1
  9
$FILLMODE
 70
     1
  9
$QTEXTMODE
 70
     0
  9
$MIRRTEXT
 70
     0
  9
$DRAGMODE
 70
     2
  9
$LTSCALE
 40
1.0
  9
$OSMODE
 70
    37
  9
$ATTMODE
 70
     1
  9
$TEXTSIZE
 40
0.2
  9
$TRACEWID
 40
0.05
  9
$TEXTSTYLE
  7
STANDARD
  9
$CLAYER
  8
0
  9
$CELTYPE
  6
BYLAYER
  9
$CECOLOR
 62
   256
  9
$DIMSCALE
 40
1.0
  9
$DIMASZ
 40
1.0
  9
$DIMEXO
 40
2.54
  9
$DIMDLI
 40
0.38
  9
$DIMRND
 40
0.0
  9
$DIMDLE
 40
0.0
  9
$DIMEXE
 40
2.54
  9
$DIMTP
 40
0.0
  9
$DIMTM
 40
0.0
  9
$DIMTXT
 40
3.2000000000000002
  9
$DIMCEN
 40
0.09
  9
$DIMTSZ
 40
0.0
  9
$DIMTOL
 70
     0
  9
$DIMLIM
 70
     0
  9
$DIMTIH
 70
     0
  9
$DIMTOH
 70
     0
  9
$DIMSE1
 70
     0
  9
$DIMSE2
 70
     0
  9
$DIMTAD
 70
     1
  9
$DIMZIN
 70
     0
  9
$DIMBLK
  1

  9
$DIMASO
 70
     1
  9
$DIMSHO
 70
     0
  9
$DIMPOST
  1

  9
$DIMAPOST
  1

  9
$DIMALT
 70
     0
  9
$DIMALTD
 70
     2
  9
$DIMALTF
 40
25.399999999999999
  9
$DIMLFAC
 40
1.0
  9
$DIMTOFL
 70
     0
  9
$DIMTVP
 40
1.0
  9
$DIMTIX
 70
     0
  9
$DIMSOXD
 70
     0
  9
$DIMSAH
 70
     0
  9
$DIMBLK1
  1

  9
$DIMBLK2
  1

  9
$DIMSTYLE
  2
STANDARD
  9
$DIMCLRD
 70
     0
  9
$DIMCLRE
 70
     0
  9
$DIMCLRT
 70
     0
  9
$DIMTFAC
 40
1.0
  9
$DIMGAP
 40
1.6000000000000001
  9
$LUNITS
 70
     2
  9
$LUPREC
 70
     1
  9
$SKETCHINC
 40
0.1
  9
$FILLETRAD
 40
0.5
  9
$AUNITS
 70
     0
  9
$AUPREC
 70
     0
  9
$MENU
  1
.
  9
$ELEVATION
 40
0.0
  9
$PELEVATION
 40
0.0
  9
$THICKNESS
 40
0.0
  9
$LIMCHECK
 70
     0
  9
$BLIPMODE
 70
     0
  9
$CHAMFERA
 40
0.2
  9
$CHAMFERB
 40
0.2
  9
$SKPOLY
 70
     0
  9
$TDCREATE
 40
2453173.4709223039
  9
$TDUPDATE
 40
2458877.4203722221
  9
$TDINDWG
 40
2.0123863772999999
  9
$TDUSRTIMER
 40
2.0123863772999999
  9
$USRTIMER
 70
     1
  9
$ANGBASE
 50
0.0
  9
$ANGDIR
 70
     0
  9
$PDMODE
 70
     0
  9
$PDSIZE
 40
0.0
  9
$PLINEWID
 40
0.0
  9
$COORDS
 70
     1
  9
$SPLFRAME
 70
     0
  9
$SPLINETYPE
 70
     6
  9
$SPLINESEGS
 70
     8
  9
$ATTDIA
 70
     0
  9
$ATTREQ
 70
     1
  9
$HANDLING
 70
     1
  9
$HANDSEED
  5
551
  9
$SURFTAB1
 70
     6
  9
$SURFTAB2
 70
     6
  9
$SURFTYPE
 70
     6
  9
$SURFU
 70
     6
  9
$SURFV
 70
     6
  9
$UCSNAME
  2

  9
$UCSORG
 10
0.0
 20
0.0
 30
0.0
  9
$UCSXDIR
 10
1.0
 20
0.0
 30
0.0
  9
$UCSYDIR
 10
0.0
 20
1.0
 30
0.0
  9
$PUCSNAME
  2

  9
$PUCSORG
 10
0.0
 20
0.0
 30
0.0
  9
$PUCSXDIR
 10
1.0
 20
0.0
 30
0.0
  9
$PUCSYDIR
 10
0.0
 20
1.0
 30
0.0
  9
$USERI1
 70
     0
  9
$USERI2
 70
     0
  9
$USERI3
 70
     0
  9
$USERI4
 70
     0
  9
$USERI5
 70
     0
  9
$USERR1
 40
0.0
  9
$USERR2
 40
0.0
  9
$USERR3
 40
0.0
  9
$USERR4
 40
0.0
  9
$USERR5
 40
0.0
  9
$WORLDVIEW
 70
     1
  9
$SHADEDGE
 70
     3
  9
$SHADEDIF
 70
    70
  9
$TILEMODE
 70
     1
  9
$MAXACTVP
 70
    64
  9
$PLIMCHECK
 70
     0
  9
$PEXTMIN
 10
1.0000000000000000E+020
 20
1.0000000000000000E+020
 30
1.0000000000000000E+020
  9
$PEXTMAX
 10
-1.0000000000000000E+020
 20
-1.0000000000000000E+020
 30
-1.0000000000000000E+020
  9
$PLIMMIN
 10
0.0
 20
0.0
  9
$PLIMMAX
 10
12.0
 20
9.0
  9
$UNITMODE
 70
     0
  9
$VISRETAIN
 70
     1
  9
$PLINEGEN
 70
     0
  9
$PSLTSCALE
 70
     1
  0
ENDSEC
  0
SECTION
  2
TABLES
  0
TABLE
  2
VPORT
 70
     1
  0
VPORT
  2
*ACTIVE
 70
     0
 10
0.0
 20
0.0
 11
1.0
 21
1.0
 12
362.34662576687123
 22
150.0
 13
0.0
 23
0.0
 14
1.0
 24
1.0
 15
0.0
 25
0.0
 16
0.0
 26
0.0
 36
1.0
 17
0.0
 27
0.0
 37
0.0
 40
300.0
 41
2.415644171779141
 42
50.0
 43
0.0
 44
0.0
 50
0.0
 51
0.0
 71
     0
 72
   100
 73
     1
 74
     1
 75
     0
 76
     0
 77
     0
 78
     0
  0
ENDTAB
  0
TABLE
  2
LTYPE
 70
     4
  0
LTYPE
  2
CONTINUOUS
 70
     0
  3
Solid line
 72
    65
 73
     0
 40
0.0
  0
LTYPE
  2
CENTER
 70
     0
  3
Center ____ _ ____ _ ____ _ ____ _ ____ _ ____
 72
    65
 73
     4
 40
12.0
 49
7.5
 49
-1.5
 49
1.5
 49
-1.5
  0
LTYPE
  2
HIDDEN
 70
     0
  3
Hidden __ __ __ __ __ __ __ __ __ __ __ __ __ _
 72
    65
 73
     2
 40
4.5
 49
3.0
 49
-1.5
  0
LTYPE
  2
PHANTOM2
 70
     0
  3
___ _ _ ___ _ _ ___ _ _ ___ _ _
 72
    65
 73
     6
 40
1.25
 49
0.625
 49
-0.125
 49
0.125
 49
-0.125
 49
0.125
 49
-0.125
  0
ENDTAB
  0
TABLE
  2
LAYER
 70
     6
  0
LAYER
  2
0
 70
     0
 62
     7
  6
CONTINUOUS
  0
LAYER
  2
1
 70
     0
 62
     1
  6
CENTER
  0
LAYER
  2
2
 70
     0
 62
     2
  6
HIDDEN
  0
LAYER
  2
3
 70
     0
 62
     3
  6
CONTINUOUS
  0
LAYER
  2
5
 70
     0
 62
     3
  6
PHANTOM2
  0
LAYER
  2
DEFPOINTS
 70
     0
 62
     7
  6
CONTINUOUS
  0
ENDTAB
  0
TABLE
  2
STYLE
 70
     2
  0
STYLE
  2
STANDARD
 70
     0
 40
0.0
 41
1.0
 50
0.0
 71
     0
 42
0.2
  3
simplex.shx
  4
bigfont.shx
  0
STYLE
  2
STANDARD1
 70
     0
 40
0.0
 41
1.0
 50
0.0
 71
     0
 42
3.0
  3
txt
  4

  0
ENDTAB
  0
TABLE
  2
VIEW
 70
     0
  0
ENDTAB
  0
TABLE
  2
UCS
 70
     0
  0
ENDTAB
  0
TABLE
  2
APPID
 70
     6
  0
APPID
  2
ACAD
 70
     0
  0
APPID
  2
ACAD_MLEADERVER
 70
     0
  0
APPID
  2
ACAD_NAV_VCDISPLAY
 70
     0
  0
APPID
  2
ACAD_EXEMPT_FROM_CAD_STANDARDS
 70
     0
  0
APPID
  2
ACAD_DSTYLE_DIMJAG
 70
     0
  0
APPID
  2
ACAD_DSTYLE_DIMTALN
 70
     0
  0
ENDTAB
  0
TABLE
  2
DIMSTYLE
 70
     1
  0
DIMSTYLE
  2
STANDARD
 70
     0
  3

  4

  5

  6

  7

 40
1.0
 41
0.18
 42
0.0625
 43
0.38
 44
0.18
 45
0.0
 46
0.0
 47
0.0
 48
0.0
140
0.18
141
0.09
142
0.0
143
25.399999999999999
144
1.0
145
0.0
146
1.0
147
0.09
 71
     0
 72
     0
 73
     1
 74
     1
 75
     0
 76
     0
 77
     0
 78
     0
170
     0
171
     2
172
     0
173
     0
174
     0
175
     0
176
     0
177
     0
178
     0
  0
ENDTAB
  0
ENDSEC
  0
SECTION
  2
BLOCKS
  0
BLOCK
  8
0
  2
$MODEL_SPACE
 70
     0
 10
0.0
 20
0.0
 30
0.0
  3
$MODEL_SPACE
  1

  0
ENDBLK
  5
9
  8
0
  0
BLOCK
 67
     1
  8
0
  2
$PAPER_SPACE
 70
     0
 10
0.0
 20
0.0
 30
0.0
  3
$PAPER_SPACE
  1

  0
ENDBLK
  5
E
 67
     1
  8
0
  0
ENDSEC
  0
SECTION
  2
ENTITIES
  0
LINE
  5
268
  8
0
 10
286.90009707800499
 20
91.199999999999989
 30
0.0
 11
325.00009707800513
 21
91.199999999999989
 31
0.0
  0
LINE
  5
269
  8
3
 10
88.099999999999909
 20
86.744366814120895
 30
0.0
 11
50.0
 21
86.744366814120895
 31
0.0
  0
LINE
  5
26A
  8
3
 10
88.099999999999909
 20
87.794468814120876
 30
0.0
 11
50.0
 21
87.794468814120876
 31
0.0
  0
LINE
  5
26B
  8
3
 10
88.099999999999909
 20
88.844368814120898
 30
0.0
 11
50.0
 21
88.844368814120898
 31
0.0
  0
LINE
  5
26C
  8
3
 10
88.099999999999909
 20
89.894367814120855
 30
0.0
 11
50.0
 21
89.894367814120855
 31
0.0
  0
LINE
  5
26D
  8
3
 10
88.100000000000023
 20
90.944367814120895
 30
0.0
 11
50.0
 21
90.944367814120895
 31
0.0
  0
LINE
  5
26E
  8
3
 10
88.100000000000023
 20
91.994366814120895
 30
0.0
 11
50.0
 21
91.994366814120895
 31
0.0
  0
LINE
  5
26F
  8
3
 10
88.099999999999909
 20
93.044468814120876
 30
0.0
 11
50.0
 21
93.044468814120876
 31
0.0
  0
LINE
  5
270
  8
3
 10
88.099999999999909
 20
94.094368814120912
 30
0.0
 11
50.0
 21
94.094368814120912
 31
0.0
  0
LINE
  5
271
  8
3
 10
88.099999999999909
 20
95.144467814120901
 30
0.0
 11
50.0
 21
95.144467814120901
 31
0.0
  0
LINE
  5
272
  8
3
 10
88.099999999999909
 20
96.194466814120915
 30
0.0
 11
50.0
 21
96.194466814120915
 31
0.0
  0
LINE
  5
273
  8
3
 10
88.099999999999909
 20
97.244469814120933
 30
0.0
 11
50.0
 21
97.244469814120933
 31
0.0
  0
LINE
  5
274
  8
0
 10
88.100000000000023
 20
98.838629418816083
 30
0.0
 11
50.0
 21
98.838629418816083
 31
0.0
  0
LINE
  5
275
  8
0
 10
88.099999999999909
 20
85.785568814120879
 30
0.0
 11
50.0
 21
85.785568814120879
 31
0.0
  0
LINE
  5
276
  8
0
 10
88.100000000000023
 20
50.0
 30
0.0
 11
50.0
 21
50.0
 31
0.0
  0
LINE
  5
277
  8
0
 10
50.0
 20
50.0
 30
0.0
 11
50.0
 21
104.363315894171
 31
0.0
  0
LINE
  5
278
  8
0
 10
88.100000000000023
 20
104.363315894171
 30
0.0
 11
50.000000000000099
 21
104.363315894171
 31
0.0
  0
LINE
  5
279
  8
0
 10
88.100000000000023
 20
50.0
 30
0.0
 11
88.100000000000023
 21
104.363315894171
 31
0.0
  0
LINE
  5
27A
  8
1
 10
69.050000000000068
 20
114.363315894171
 30
0.0
 11
69.050000000000068
 21
40.0
 31
0.0
  0
LINE
  5
27B
  8
1
 10
305.950097078005
 20
114.363315894171
 30
0.0
 11
305.950097078005
 21
40.0
 31
0.0
  0
LINE
  5
27C
  8
0
 10
286.90009707800499
 20
50.0
 30
0.0
 11
286.90009707800499
 21
104.363315894171
 31
0.0
  0
LINE
  5
27D
  8
0
 10
286.9000970780051
 20
92.245108300672257
 30
0.0
 11
325.00009707800501
 21
92.245108300672257
 31
0.0
  0
LINE
  5
27E
  8
0
 10
286.90009707800499
 20
104.363315894171
 30
0.0
 11
325.0000970780049
 21
104.363315894171
 31
0.0
  0
LINE
  5
27F
  8
0
 10
325.00009707800501
 20
50.0
 30
0.0
 11
325.00009707800501
 21
104.363315894171
 31
0.0
  0
LINE
  5
280
  8
0
 10
286.90009707800499
 20
50.0
 30
0.0
 11
325.00009707800501
 21
50.0
 31
0.0
  0
LINE
  5
281
  8
2
 10
178.20010007800499
 20
71.800000000000011
 30
0.0
 11
236.90009707800479
 21
71.600003000000015
 31
0.0
  0
LINE
  5
282
  8
0
 10
171.40714090066101
 20
154.363315894171
 30
0.0
 11
171.40714090066109
 21
192.46331589417099
 31
0.0
  0
LINE
  5
283
  8
0
 10
175.81784293654459
 20
154.363315894171
 30
0.0
 11
175.81784293654459
 21
192.46331589417099
 31
0.0
  0
LINE
  5
284
  8
1
 10
157.72659625513131
 20
87.73520666649307
 30
0.0
 11
154.4272808794596
 21
106.446553973725
 31
0.0
  0
LINE
  5
285
  8
1
 10
161.7050318938737
 20
57.973913854043211
 30
0.0
 11
153.19627118819449
 21
106.2294937516413
 31
0.0
  0
LINE
  5
287
  8
1
 10
155.29552029824831
 20
158.31902290597279
 30
0.0
 11
155.29552029824831
 21
188.5076088823692
 31
0.0
  0
CIRCLE
  5
288
  8
0
 10
155.29552029824831
 20
173.41331589417101
 30
0.0
 40
10.094292988198189
  0
LINE
  5
289
  8
1
 10
154.06451060698311
 20
161.48512589417101
 30
0.0
 11
154.06451060698299
 21
185.3415258941709
 31
0.0
  0
LINE
  5
28A
  8
2
 10
145.20124229941931
 20
99.742621387577856
 30
0.0
 11
146.76407589842159
 21
90.879351610468049
 31
0.0
  0
LINE
  5
28B
  8
2
 10
165.3898012361694
 20
103.30240902975009
 30
0.0
 11
166.95263483517181
 21
94.439139252640246
 31
0.0
  0
LINE
  5
28C
  8
2
 10
162.78703981424971
 20
91.67377923597536
 30
0.0
 11
163.5275134245498
 21
93.708213759976729
 31
0.0
  0
LINE
  5
28D
  8
2
 10
149.16222455132581
 20
89.271356697953365
 30
0.0
 11
147.77058937635451
 21
90.929842917305848
 31
0.0
  0
LINE
  5
28E
  8
2
 10
148.09617015869009
 20
89.083382545628922
 30
0.0
 11
163.8530942068854
 21
91.861753388299803
 31
0.0
  0
LINE
  5
28F
  8
2
 10
168.36794682622559
 20
66.256751809982518
 30
0.0
 11
152.6110227780303
 21
63.478380967311438
 31
0.0
  0
LINE
  5
290
  8
2
 10
166.74562767553499
 20
63.939839948624147
 30
0.0
 11
168.36794682622559
 21
66.256751809982518
 31
0.0
  0
LINE
  5
291
  8
2
 10
152.6110227780303
 20
63.478380967311438
 30
0.0
 11
154.92793463938861
 21
61.856061816620873
 31
0.0
  0
LINE
  5
292
  8
2
 10
147.7488738033563
 20
91.052998051653333
 30
0.0
 11
152.6110227780303
 21
63.478380967311438
 31
0.0
  0
LINE
  5
293
  8
2
 10
149.16222455132581
 20
89.271356697953365
 30
0.0
 11
153.86505132299041
 21
62.600300727000267
 31
0.0
  0
LINE
  5
294
  8
2
 10
162.78703981424971
 20
91.673779235975459
 30
0.0
 11
167.48986658591431
 21
65.002723265022382
 31
0.0
  0
LINE
  5
295
  8
2
 10
163.50579785155159
 20
93.831368894324214
 30
0.0
 11
168.36794682622559
 21
66.256751809982518
 31
0.0
  0
LINE
  5
296
  8
2
 10
154.92793463938861
 20
61.856061816620873
 30
0.0
 11
166.74562767553499
 21
63.939839948624147
 31
0.0
  0
LINE
  5
297
  8
2
 10
146.7640758984214
 20
90.879351610467907
 30
0.0
 11
166.95263483517181
 21
94.439139252640246
 31
0.0
  0
LINE
  5
298
  8
2
 10
145.20124229941899
 20
99.742621387577785
 30
0.0
 11
165.38980123616929
 21
103.30240902975009
 31
0.0
  0
LINE
  5
299
  8
0
 10
148.06451060698311
 20
176.87742589417101
 30
0.0
 11
154.06451060698311
 21
180.3415258941709
 31
0.0
  0
LINE
  5
29A
  8
0
 10
154.06451060698311
 20
180.3415258941709
 30
0.0
 11
160.06451060698311
 21
176.87742589417101
 31
0.0
  0
LINE
  5
29B
  8
0
 10
160.06451060698311
 20
176.87742589417101
 30
0.0
 11
160.06451060698311
 21
169.94921589417089
 31
0.0
  0
LINE
  5
29C
  8
0
 10
160.06451060698311
 20
169.94921589417089
 30
0.0
 11
154.06451060698311
 21
166.48512589417101
 31
0.0
  0
LINE
  5
29D
  8
0
 10
154.06451060698311
 20
166.48512589417101
 30
0.0
 11
148.06451060698311
 21
169.94921589417089
 31
0.0
  0
LINE
  5
29E
  8
0
 10
148.06451060698311
 20
169.94921589417089
 30
0.0
 11
148.06451060698311
 21
176.87742589417101
 31
0.0
  0
LINE
  5
29F
  8
0
 10
175.81784293654459
 20
92.245108300672257
 30
0.0
 11
171.40714090066109
 21
104.363315894171
 31
0.0
  0
LINE
  5
2A0
  8
0
 10
175.81784293654459
 20
92.245108300672214
 30
0.0
 11
139.1839009013535
 21
85.785568901390974
 31
0.0
  0
LINE
  5
2A1
  8
0
 10
139.39999899999981
 20
96.194466814120915
 30
0.0
 11
138.09999999999999
 21
95.144467814120901
 31
0.0
  0
LINE
  5
2A2
  8
0
 10
138.09999999999999
 20
95.144467814120901
 30
0.0
 11
139.39999899999981
 21
94.094368814120912
 31
0.0
  0
LINE
  5
2A3
  8
0
 10
138.10006086146839
 20
97.244420651967957
 30
0.0
 11
139.39999899999981
 21
96.194367814120895
 31
0.0
  0
LINE
  5
2A4
  8
0
 10
140.07384646239549
 20
98.838629418816083
 30
0.0
 11
138.10006086146839
 21
97.244415971522457
 31
0.0
  0
LINE
  5
2A5
  8
0
 10
139.39999899999981
 20
89.894367814120855
 30
0.0
 11
138.10006086146839
 21
88.84441797145179
 31
0.0
  0
LINE
  5
2A6
  8
0
 10
138.10006086146839
 20
88.844418656790012
 30
0.0
 11
139.39999899999981
 21
87.794468814120876
 31
0.0
  0
LINE
  5
2A7
  8
0
 10
138.09999999999999
 20
93.044468814120876
 30
0.0
 11
139.39999899999989
 21
91.994366814120895
 31
0.0
  0
LINE
  5
2A8
  8
0
 10
139.39999899999989
 20
91.994366814120895
 30
0.0
 11
138.09999999999991
 21
90.944367814120895
 31
0.0
  0
LINE
  5
2A9
  8
0
 10
138.09999999999991
 20
90.944367814120895
 30
0.0
 11
139.39999899999989
 21
89.894467814120887
 31
0.0
  0
LINE
  5
2AA
  8
0
 10
138.10006086146839
 20
86.744415971451744
 30
0.0
 11
139.18390099999999
 21
85.785568814120879
 31
0.0
  0
LINE
  5
2AB
  8
0
 10
139.39999899999981
 20
87.794365814120894
 30
0.0
 11
138.10006086146839
 21
86.744415971451772
 31
0.0
  0
LINE
  5
2AC
  8
0
 10
139.39999899999989
 20
94.09446781412089
 30
0.0
 11
138.09999999999999
 21
93.044468814120876
 31
0.0
  0
LINE
  5
2AD
  8
0
 10
171.40714090066109
 20
104.363315894171
 30
0.0
 11
140.07384646239549
 21
98.838629418816083
 31
0.0
  0
LINE
  5
2AE
  8
0
 10
236.90009707800499
 20
181.96331589417099
 30
0.0
 11
236.9000970780049
 21
192.46331589417099
 31
0.0
  0
LINE
  5
2AF
  8
0
 10
236.9000970780049
 20
154.363315894171
 30
0.0
 11
236.90009707800499
 21
164.96331589417099
 31
0.0
  0
LINE
  5
2B0
  8
0
 10
236.90009707800479
 20
50.0
 30
0.0
 11
236.90009707800479
 21
91.199999999999989
 31
0.0
  0
LINE
  5
2B2
  8
2
 10
178.20010007800499
 20
91.199999999999989
 30
0.0
 11
178.20010007800499
 21
71.800000000000011
 31
0.0
  0
LINE
  5
2B4
  8
0
 10
138.09999999999999
 20
154.363315894171
 30
0.0
 11
138.09999999999999
 21
192.4633158941711
 31
0.0
  0
ARC
  5
2B5
  8
0
 10
190.60010007800491
 20
173.46331589417099
 30
0.0
 40
8.5
 50
90.0
 51
270.0
  0
LINE
  5
2B6
  8
1
 10
190.60010007800491
 20
190.863315894171
 30
0.0
 11
190.60010007800491
 21
156.06331589417101
 31
0.0
  0
ARC
  5
2B7
  8
0
 10
190.60010007800491
 20
173.46331589417099
 30
0.0
 40
12.4
 50
90.0
 51
270.0
  0
LINE
  5
2B8
  8
2
 10
182.1000960780047
 20
71.786712307668211
 30
0.0
 11
182.1000960780047
 21
50.100002000000018
 31
0.0
  0
LINE
  5
2B9
  8
1
 10
190.60009607800461
 20
96.199999999999989
 30
0.0
 11
190.6000960780047
 21
45.0
 31
0.0
  0
LINE
  5
2BA
  8
0
 10
140.40009707800479
 20
50.0
 30
0.0
 11
140.40009707800479
 21
86.0
 31
0.0
  0
LINE
  5
2BB
  8
0
 10
140.40009707800479
 20
50.0
 30
0.0
 11
236.90009707800479
 21
50.0
 31
0.0
  0
LINE
  5
2BC
  8
1
 10
128.09999999999991
 20
173.41331589417089
 30
0.0
 11
246.90009707800471
 21
173.4133158941714
 31
0.0
  0
LINE
  5
2BD
  8
0
 10
236.90009707800479
 20
192.46331589417099
 30
0.0
 11
138.09999999999999
 21
192.4633158941709
 31
0.0
  0
LINE
  5
2BE
  8
0
 10
236.90009707800479
 20
154.363315894171
 30
0.0
 11
138.09999999999999
 21
154.363315894171
 31
0.0
  0
LINE
  5
2BF
  8
0
 10
169.89076254001691
 20
91.199999999999989
 30
0.0
 11
236.90009707800479
 21
91.199999999999989
 31
0.0
  0
LINE
  5
2C0
  8
0
 10
190.60010007800491
 20
161.06331589417101
 30
0.0
 11
236.9000970780049
 21
161.06331589417101
 31
0.0
  0
LINE
  5
2C1
  8
0
 10
236.9000970780049
 20
164.96331589417099
 30
0.0
 11
190.60010007800491
 21
164.96331589417099
 31
0.0
  0
LINE
  5
2C2
  8
0
 10
236.9000970780049
 20
181.96331589417099
 30
0.0
 11
190.60010007800491
 21
181.96331589417099
 31
0.0
  0
LINE
  5
2C3
  8
0
 10
190.60010007800491
 20
185.863315894171
 30
0.0
 11
236.9000970780049
 21
185.863315894171
 31
0.0
  0
TEXT
  5
375
  8
0
 62
     3
 10
0.0
 20
0.0
 30
0.0
 40
10.0
  1
MBATC16A
  7
STANDARD1
  0
LINE
  5
421
  8
5
 10
139.1839009013535
 20
85.785568901390974
 30
0.0
 11
136.68390090135361
 21
85.344752336176938
 31
0.0
  0
LINE
  5
422
  8
5
 10
136.89999899999981
 20
95.753650248906879
 30
0.0
 11
135.59999999999999
 21
94.703651248906866
 31
0.0
  0
LINE
  5
423
  8
5
 10
135.59999999999999
 20
94.703651248906866
 30
0.0
 11
136.89999899999981
 21
93.653552248906877
 31
0.0
  0
LINE
  5
424
  8
5
 10
135.60006086146839
 20
96.803604086753893
 30
0.0
 11
136.89999899999981
 21
95.753551248906845
 31
0.0
  0
LINE
  5
425
  8
5
 10
137.57384646239549
 20
98.397812853602048
 30
0.0
 11
135.60006086146839
 21
96.803599406308436
 31
0.0
  0
LINE
  5
426
  8
5
 10
136.89999899999981
 20
89.453551248906834
 30
0.0
 11
135.60006086146839
 21
88.403601406237755
 31
0.0
  0
LINE
  5
427
  8
5
 10
135.60006086146839
 20
88.403602091575976
 30
0.0
 11
136.89999899999981
 21
87.353652248906826
 31
0.0
  0
LINE
  5
428
  8
5
 10
135.59999999999999
 20
92.60365224890684
 30
0.0
 11
136.89999900000001
 21
91.553550248906859
 31
0.0
  0
LINE
  5
429
  8
5
 10
136.89999900000001
 20
91.553550248906859
 30
0.0
 11
135.59999999999991
 21
90.503551248906874
 31
0.0
  0
LINE
  5
42A
  8
5
 10
135.59999999999991
 20
90.503551248906874
 30
0.0
 11
136.89999900000001
 21
89.453651248906866
 31
0.0
  0
LINE
  5
42B
  8
5
 10
135.60006086146839
 20
86.303599406237723
 30
0.0
 11
136.68390099999999
 21
85.344752248906858
 31
0.0
  0
LINE
  5
42C
  8
5
 10
136.89999899999981
 20
87.353549248906873
 30
0.0
 11
135.60006086146839
 21
86.303599406237737
 31
0.0
  0
LINE
  5
42D
  8
5
 10
136.89999900000001
 20
93.653651248906854
 30
0.0
 11
135.59999999999999
 21
92.60365224890684
 31
0.0
  0
LINE
  5
42E
  8
5
 10
140.0738202255979
 20
98.838608227529903
 30
0.0
 11
137.57384646239549
 21
98.397812853602048
 31
0.0
  0
LINE
  5
4E7
  8
0
 10
293.60009707800452
 20
91.199999999999989
 30
0.0
 11
293.60009707800452
 21
71.600003000000015
 31
0.0
  0
LINE
  5
4E8
  8
0
 10
297.5000970780045
 20
71.600003000000015
 30
0.0
 11
297.5000970780045
 21
50.0
 31
0.0
  0
LINE
  5
4E9
  8
0
 10
314.5000970780045
 20
71.600003000000015
 30
0.0
 11
314.5000970780045
 21
50.0
 31
0.0
  0
LINE
  5
4EA
  8
0
 10
318.40009707800448
 20
91.199999999999989
 30
0.0
 11
318.40009707800448
 21
71.600003000000015
 31
0.0
  0
LINE
  5
4EC
  8
0
 10
293.60009707800452
 20
71.600003000000015
 30
0.0
 11
318.40009707800448
 21
71.600003000000015
 31
0.0
  0
ENDSEC
  0
EOF
