  0
SECTION
  2
HEADER
  9
$ACADVER
  1
AC1009
  9
$INSBASE
 10
0.0
 20
0.0
 30
0.0
  9
$EXTMIN
 10
0.0
 20
-2.960436562073669
 30
0.0
  9
$EXTMAX
 10
170.00298497530139
 20
73.985074125911254
 30
0.0
  9
$LIMMIN
 10
0.0
 20
0.0
  9
$LIMMAX
 10
375.0
 20
270.0
  9
$ORTHOMODE
 70
     1
  9
$REGENMODE
 70
     1
  9
$FILLMODE
 70
     1
  9
$QTEXTMODE
 70
     0
  9
$MIRRTEXT
 70
     0
  9
$DRAGMODE
 70
     2
  9
$LTSCALE
 40
10.0
  9
$OSMODE
 70
    37
  9
$ATTMODE
 70
     1
  9
$TEXTSIZE
 40
4.000000000000048
  9
$TRACEWID
 40
0.05
  9
$TEXTSTYLE
  7
STANDARD
  9
$CLAYER
  8
0
  9
$CELTYPE
  6
BYLAYER
  9
$CECOLOR
 62
   256
  9
$DIMSCALE
 40
1.0
  9
$DIMASZ
 40
3.0
  9
$DIMEXO
 40
2.0
  9
$DIMDLI
 40
0.38
  9
$DIMRND
 40
0.0
  9
$DIMDLE
 40
0.0
  9
$DIMEXE
 40
2.0
  9
$DIMTP
 40
0.0
  9
$DIMTM
 40
0.0
  9
$DIMTXT
 40
3.2000000000000002
  9
$DIMCEN
 40
0.0
  9
$DIMTSZ
 40
0.0
  9
$DIMTOL
 70
     0
  9
$DIMLIM
 70
     0
  9
$DIMTIH
 70
     0
  9
$DIMTOH
 70
     0
  9
$DIMSE1
 70
     0
  9
$DIMSE2
 70
     0
  9
$DIMTAD
 70
     1
  9
$DIMZIN
 70
     0
  9
$DIMBLK
  1

  9
$DIMASO
 70
     0
  9
$DIMSHO
 70
     0
  9
$DIMPOST
  1

  9
$DIMAPOST
  1

  9
$DIMALT
 70
     0
  9
$DIMALTD
 70
     2
  9
$DIMALTF
 40
25.399999999999999
  9
$DIMLFAC
 40
1.0
  9
$DIMTOFL
 70
     0
  9
$DIMTVP
 40
1.6000000000000001
  9
$DIMTIX
 70
     1
  9
$DIMSOXD
 70
     0
  9
$DIMSAH
 70
     0
  9
$DIMBLK1
  1

  9
$DIMBLK2
  1

  9
$DIMSTYLE
  2
STANDARD
  9
$DIMCLRD
 70
     4
  9
$DIMCLRE
 70
     4
  9
$DIMCLRT
 70
     4
  9
$DIMTFAC
 40
1.0
  9
$DIMGAP
 40
0.09
  9
$LUNITS
 70
     2
  9
$LUPREC
 70
     2
  9
$SKETCHINC
 40
0.1
  9
$FILLETRAD
 40
22.0
  9
$AUNITS
 70
     0
  9
$AUPREC
 70
     0
  9
$MENU
  1
E:\r13\win\SUPPORT\ACAD
  9
$ELEVATION
 40
0.0
  9
$PELEVATION
 40
0.0
  9
$THICKNESS
 40
0.0
  9
$LIMCHECK
 70
     0
  9
$BLIPMODE
 70
     0
  9
$CHAMFERA
 40
1.1999999999999991
  9
$CHAMFERB
 40
1.1999999999999991
  9
$SKPOLY
 70
     0
  9
$TDCREATE
 40
2449954.6020138888
  9
$TDUPDATE
 40
2457534.6167862732
  9
$TDINDWG
 40
0.3233223032
  9
$TDUSRTIMER
 40
0.3233223032
  9
$USRTIMER
 70
     1
  9
$ANGBASE
 50
0.0
  9
$ANGDIR
 70
     0
  9
$PDMODE
 70
     0
  9
$PDSIZE
 40
0.0
  9
$PLINEWID
 40
0.0
  9
$COORDS
 70
     1
  9
$SPLFRAME
 70
     0
  9
$SPLINETYPE
 70
     6
  9
$SPLINESEGS
 70
     8
  9
$ATTDIA
 70
     0
  9
$ATTREQ
 70
     1
  9
$HANDLING
 70
     1
  9
$HANDSEED
  5
36BE
  9
$SURFTAB1
 70
     6
  9
$SURFTAB2
 70
     6
  9
$SURFTYPE
 70
     6
  9
$SURFU
 70
     6
  9
$SURFV
 70
     6
  9
$UCSNAME
  2

  9
$UCSORG
 10
0.0
 20
0.0
 30
0.0
  9
$UCSXDIR
 10
1.0
 20
0.0
 30
0.0
  9
$UCSYDIR
 10
0.0
 20
1.0
 30
0.0
  9
$PUCSNAME
  2

  9
$PUCSORG
 10
0.0
 20
0.0
 30
0.0
  9
$PUCSXDIR
 10
1.0
 20
0.0
 30
0.0
  9
$PUCSYDIR
 10
0.0
 20
1.0
 30
0.0
  9
$USERI1
 70
     0
  9
$USERI2
 70
     1
  9
$USERI3
 70
     0
  9
$USERI4
 70
     0
  9
$USERI5
 70
     0
  9
$USERR1
 40
0.0
  9
$USERR2
 40
0.0
  9
$USERR3
 40
0.0
  9
$USERR4
 40
0.0
  9
$USERR5
 40
0.0
  9
$WORLDVIEW
 70
     1
  9
$SHADEDGE
 70
     3
  9
$SHADEDIF
 70
    70
  9
$TILEMODE
 70
     1
  9
$MAXACTVP
 70
    16
  9
$PLIMCHECK
 70
     0
  9
$PEXTMIN
 10
1.0000000000000000E+020
 20
1.0000000000000000E+020
 30
1.0000000000000000E+020
  9
$PEXTMAX
 10
-1.0000000000000000E+020
 20
-1.0000000000000000E+020
 30
-1.0000000000000000E+020
  9
$PLIMMIN
 10
0.0
 20
0.0
  9
$PLIMMAX
 10
12.0
 20
9.0
  9
$UNITMODE
 70
     0
  9
$VISRETAIN
 70
     0
  9
$PLINEGEN
 70
     0
  9
$PSLTSCALE
 70
     0
  0
ENDSEC
  0
SECTION
  2
TABLES
  0
TABLE
  2
VPORT
 70
     1
  0
VPORT
  2
*ACTIVE
 70
     0
 10
0.0
 20
0.0
 11
1.0
 21
1.0
 12
88.87275625118933
 22
35.509101026814392
 13
0.0
 23
0.0
 14
10.0
 24
10.0
 15
10.0
 25
10.0
 16
0.0
 26
0.0
 36
1.0
 17
0.0
 27
0.0
 37
0.0
 40
130.6678599126632
 41
1.368715083798882
 42
50.0
 43
0.0
 44
0.0
 50
0.0
 51
0.0
 71
     0
 72
   500
 73
     1
 74
     0
 75
     0
 76
     0
 77
     0
 78
     2
  0
ENDTAB
  0
TABLE
  2
LTYPE
 70
     5
  0
LTYPE
  2
CONTINUOUS
 70
     0
  3
Solid Line
 72
    65
 73
     0
 40
0.0
  0
LTYPE
  2
CENTER
 70
     0
  3
____ _ ____ _ ____ _ ____ _ ____ _ ____ _ ____
 72
    65
 73
     4
 40
2.0
 49
1.25
 49
-0.25
 49
0.25
 49
-0.25
  0
LTYPE
  2
HIDDEN
 70
     0
  3
_ _ _ _ _ _ _ _ _ _ _ _ _ _ _ _ _ _ _ _ _ _ _
 72
    65
 73
     2
 40
0.375
 49
0.25
 49
-0.125
  0
LTYPE
  2
PHANTOM
 70
     0
  3
_____ _ _ _____ _ _ _____ _ _ _____ _ _ ____
 72
    65
 73
     6
 40
2.5
 49
1.25
 49
-0.25
 49
0.25
 49
-0.25
 49
0.25
 49
-0.25
  0
LTYPE
  2
PHANTOM2
 70
     0
  3
___ _ _ ___ _ _ ___ _ _ ___ _ _
 72
    65
 73
     6
 40
1.25
 49
0.625
 49
-0.125
 49
0.125
 49
-0.125
 49
0.125
 49
-0.125
  0
ENDTAB
  0
TABLE
  2
LAYER
 70
     5
  0
LAYER
  2
0
 70
     0
 62
     7
  6
CONTINUOUS
  0
LAYER
  2
1
 70
     0
 62
     1
  6
CENTER
  0
LAYER
  2
3
 70
     0
 62
     3
  6
CONTINUOUS
  0
LAYER
  2
2
 70
     0
 62
     2
  6
HIDDEN
  0
LAYER
  2
5
 70
     0
 62
     3
  6
PHANTOM
  0
ENDTAB
  0
TABLE
  2
STYLE
 70
     3
  0
STYLE
  2
STANDARD
 70
     0
 40
0.0
 41
1.0
 50
0.0
 71
     0
 42
4.000000000000048
  3
SIMPLEX
  4
BIGFONT
  0
STYLE
  2
SIM065
 70
     0
 40
0.0
 41
0.65
 50
0.0
 71
     0
 42
3.2000000000000002
  3
SIMPLEX
  4

  0
STYLE
  2
STANDARD1
 70
     0
 40
0.0
 41
1.0
 50
0.0
 71
     0
 42
3.0
  3
txt
  4

  0
ENDTAB
  0
TABLE
  2
VIEW
 70
     1
  0
VIEW
  2
ALL
 70
     0
 40
270.0
 10
220.78595317725751
 20
135.0
 41
441.57190635451502
 11
0.0
 21
0.0
 31
1.0
 12
0.0
 22
0.0
 32
0.0
 42
50.0
 43
0.0
 44
0.0
 50
0.0
 71
     0
  0
ENDTAB
  0
TABLE
  2
UCS
 70
     0
  0
ENDTAB
  0
TABLE
  2
APPID
 70
     4
  0
APPID
  2
ACAD
 70
     0
  0
APPID
  2
ACAD_EXEMPT_FROM_CAD_STANDARDS
 70
     0
  0
APPID
  2
ACAD_MLEADERVER
 70
     0
  0
APPID
  2
ACAD_NAV_VCDISPLAY
 70
     0
  0
ENDTAB
  0
TABLE
  2
DIMSTYLE
 70
     2
  0
DIMSTYLE
  2
STANDARD
 70
     0
  3

  4

  5

  6

  7

 40
1.0
 41
0.18
 42
0.0625
 43
0.38
 44
0.18
 45
0.0
 46
0.0
 47
0.0
 48
0.0
140
0.18
141
0.09
142
0.0
143
25.399999999999999
144
1.0
145
0.0
146
1.0
147
0.09
 71
     0
 72
     0
 73
     1
 74
     1
 75
     0
 76
     0
 77
     0
 78
     0
170
     0
171
     2
172
     0
173
     0
174
     0
175
     0
176
     0
177
     0
178
     0
  0
DIMSTYLE
  2
ISO-25
 70
     0
  3

  4

  5

  6

  7

 40
1.0
 41
2.5
 42
0.625
 43
3.75
 44
1.25
 45
0.0
 46
0.0
 47
0.0
 48
0.0
140
2.5
141
2.5
142
0.0
143
0.0393700787
144
1.0
145
0.0
146
1.0
147
0.625
 71
     0
 72
     0
 73
     0
 74
     0
 75
     0
 76
     0
 77
     1
 78
     8
170
     0
171
     3
172
     1
173
     0
174
     0
175
     0
176
     0
177
     0
178
     0
  0
ENDTAB
  0
ENDSEC
  0
SECTION
  2
BLOCKS
  0
BLOCK
  8
0
  2
$MODEL_SPACE
 70
     0
 10
0.0
 20
0.0
 30
0.0
  3
$MODEL_SPACE
  1

  0
ENDBLK
  5
1126
  8
0
  0
BLOCK
 67
     1
  8
0
  2
$PAPER_SPACE
 70
     0
 10
0.0
 20
0.0
 30
0.0
  3
$PAPER_SPACE
  1

  0
ENDBLK
  5
1124
 67
     1
  8
0
  0
ENDSEC
  0
SECTION
  2
ENTITIES
  0
TEXT
  5
1F1A
  8
0
 62
     3
 10
0.0
 20
0.0
 30
0.0
 40
10.0
  1
MAU5040-SH12-62
  7
STANDARD1
  0
LINE
  5
328D
  8
0
 10
113.5029849753014
 20
43.985074125911261
 30
0.0
 11
114.0029849753014
 21
43.485074125911261
 31
0.0
  0
LINE
  5
328E
  8
0
 10
114.0029849753014
 20
30.485074125911261
 30
0.0
 11
113.5029849753014
 21
29.985074125911261
 31
0.0
  0
LINE
  5
328F
  8
0
 10
52.50298497530143
 20
43.985074125911268
 30
0.0
 11
113.5029849753014
 21
43.985074125911261
 31
0.0
  0
LINE
  5
3290
  8
0
 10
113.5029849753014
 20
29.985074125911261
 30
0.0
 11
52.502984975301402
 21
29.985074125911261
 31
0.0
  0
LINE
  5
3291
  8
0
 10
52.502984975301402
 20
29.985074125911261
 30
0.0
 11
52.002984975301402
 21
30.485074125911261
 31
0.0
  0
LINE
  5
3292
  8
0
 10
52.002984975301402
 20
43.485074125911261
 30
0.0
 11
52.502984975301402
 21
43.985074125911261
 31
0.0
  0
LINE
  5
3298
  8
0
 10
114.0029849753014
 20
30.485074125911261
 30
0.0
 11
114.0029849753014
 21
43.485074125911211
 31
0.0
  0
LINE
  5
3299
  8
0
 10
52.002984975301402
 20
43.485074125911261
 30
0.0
 11
52.002984975301402
 21
30.485074125911261
 31
0.0
  0
LINE
  5
329E
  8
2
 10
77.002984975301402
 20
40.985074125911261
 30
0.0
 11
77.002984975301402
 21
32.985074125911261
 31
0.0
  0
LINE
  5
32A0
  8
2
 10
77.002984975301402
 20
40.985074125911261
 30
0.0
 11
79.312386052101417
 21
36.985074125911261
 31
0.0
  0
LINE
  5
32A1
  8
2
 10
79.312386052101417
 20
36.985074125911261
 30
0.0
 11
77.002984975301402
 21
32.985074125911261
 31
0.0
  0
LINE
  5
32A2
  8
2
 10
52.00298497530143
 20
40.98507412591124
 30
0.0
 11
77.002984975301402
 21
40.985074125911261
 31
0.0
  0
LINE
  5
32A3
  8
2
 10
77.002984975301402
 20
32.985074125911261
 30
0.0
 11
52.002984975301402
 21
32.985074125911247
 31
0.0
  0
LINE
  5
32A8
  8
0
 10
113.5029849753014
 20
73.985074125911254
 30
0.0
 11
114.0029849753014
 21
73.485074125911268
 31
0.0
  0
LINE
  5
32A9
  8
0
 10
114.0029849753014
 20
60.485074125911282
 30
0.0
 11
113.5029849753014
 21
59.985074125911268
 31
0.0
  0
LINE
  5
32AA
  8
0
 10
52.502984975301423
 20
73.985074125911254
 30
0.0
 11
113.5029849753014
 21
73.985074125911254
 31
0.0
  0
LINE
  5
32AB
  8
0
 10
113.5029849753014
 20
59.985074125911268
 30
0.0
 11
52.502984975301423
 21
59.985074125911268
 31
0.0
  0
LINE
  5
32AC
  8
0
 10
52.502984975301423
 20
59.985074125911268
 30
0.0
 11
52.002984975301409
 21
60.485074125911282
 31
0.0
  0
LINE
  5
32AD
  8
0
 10
52.002984975301409
 20
73.485074125911268
 30
0.0
 11
52.502984975301423
 21
73.985074125911254
 31
0.0
  0
LINE
  5
32B2
  8
0
 10
114.0029849753014
 20
60.485074125911282
 30
0.0
 11
114.0029849753014
 21
73.485074125911268
 31
0.0
  0
LINE
  5
32B5
  8
0
 10
52.002984975301409
 20
73.485074125911268
 30
0.0
 11
52.002984975301409
 21
60.485074125911282
 31
0.0
  0
LINE
  5
32BB
  8
2
 10
77.002984975301416
 20
70.985074125911268
 30
0.0
 11
77.002984975301416
 21
62.985074125911268
 31
0.0
  0
LINE
  5
32BC
  8
2
 10
77.002984975301416
 20
70.985074125911268
 30
0.0
 11
79.312386052101431
 21
66.985074125911254
 31
0.0
  0
LINE
  5
32BD
  8
2
 10
79.312386052101431
 20
66.985074125911254
 30
0.0
 11
77.002984975301416
 21
62.985074125911268
 31
0.0
  0
LINE
  5
32BE
  8
2
 10
52.002984975301409
 20
70.98507412591124
 30
0.0
 11
77.002984975301416
 21
70.985074125911268
 31
0.0
  0
LINE
  5
32BF
  8
2
 10
77.002984975301416
 20
62.985074125911268
 30
0.0
 11
52.002984975301409
 21
62.985074125911268
 31
0.0
  0
CIRCLE
  5
32C2
  8
0
 10
158.00298497530139
 20
36.985074125911261
 30
0.0
 40
7.0
  0
CIRCLE
  5
32C5
  8
0
 10
28.002984975301391
 20
36.985074125911268
 30
0.0
 40
7.0
  0
CIRCLE
  5
32C6
  8
0
 10
28.002984975301391
 20
36.985074125911268
 30
0.0
 40
4.0
  0
LINE
  5
32D6
  8
1
 10
47.002984975301409
 20
66.985074125911254
 30
0.0
 11
139.00298497530139
 21
66.985074125911254
 31
0.0
  0
LINE
  5
32D7
  8
1
 10
47.002984975301402
 20
36.985074125911261
 30
0.0
 11
139.00298497530139
 21
36.985074125911247
 31
0.0
  0
LINE
  5
32D9
  8
1
 10
146.00298497530139
 20
36.985074125911261
 30
0.0
 11
170.00298497530139
 21
36.985074125911261
 31
0.0
  0
LINE
  5
32DA
  8
1
 10
158.00298497530139
 20
48.985074125911261
 30
0.0
 11
158.00298497530139
 21
24.985074125911261
 31
0.0
  0
LINE
  5
32DB
  8
1
 10
16.002984975301391
 20
36.985074125911268
 30
0.0
 11
40.002984975301381
 21
36.985074125911268
 31
0.0
  0
LINE
  5
32DC
  8
1
 10
28.002984975301391
 20
48.985074125911261
 30
0.0
 11
28.002984975301391
 21
24.985074125911272
 31
0.0
  0
LINE
  5
32DF
  8
2
 10
62.623984975301113
 20
40.985074125911261
 30
0.0
 11
62.623984975301113
 21
43.985074125911261
 31
0.0
  0
LINE
  5
32E0
  8
2
 10
63.002984975301374
 20
40.985074125911261
 30
0.0
 11
63.002984975301374
 21
43.985074125911261
 31
0.0
  0
LINE
  5
32E1
  8
2
 10
59.381984975301627
 20
40.985074125911261
 30
0.0
 11
59.381984975301627
 21
43.985074125911261
 31
0.0
  0
LINE
  5
32E2
  8
2
 10
59.002984975301374
 20
40.985074125911261
 30
0.0
 11
59.002984975301374
 21
43.985074125911261
 31
0.0
  0
CIRCLE
  5
32E3
  8
0
 10
61.002984975301374
 20
66.985074125911254
 30
0.0
 40
1.6209999999999991
  0
CIRCLE
  5
32E4
  8
3
 10
61.002984975301374
 20
66.985074125911254
 30
0.0
 40
2.0
  0
CIRCLE
  5
32E5
  8
0
 10
67.502984975301374
 20
66.985074125911254
 30
0.0
 40
1.6209999999999991
  0
CIRCLE
  5
32E6
  8
3
 10
67.502984975301374
 20
66.985074125911254
 30
0.0
 40
2.0
  0
LINE
  5
32E7
  8
2
 10
69.123984975301113
 20
40.985074125911261
 30
0.0
 11
69.123984975301113
 21
43.985074125911261
 31
0.0
  0
LINE
  5
32E8
  8
2
 10
69.502984975301374
 20
40.985074125911261
 30
0.0
 11
69.502984975301374
 21
43.985074125911261
 31
0.0
  0
LINE
  5
32E9
  8
2
 10
65.881984975301634
 20
40.985074125911261
 30
0.0
 11
65.881984975301634
 21
43.985074125911261
 31
0.0
  0
LINE
  5
32EA
  8
2
 10
65.502984975301374
 20
40.985074125911261
 30
0.0
 11
65.502984975301374
 21
43.985074125911261
 31
0.0
  0
LINE
  5
32EB
  8
1
 10
61.002984975301374
 20
71.485074125911254
 30
0.0
 11
61.002984975301374
 21
62.485074125911261
 31
0.0
  0
LINE
  5
32EC
  8
1
 10
67.502984975301374
 20
71.485074125911254
 30
0.0
 11
67.502984975301374
 21
62.485074125911261
 31
0.0
  0
LINE
  5
32ED
  8
1
 10
61.002984975301374
 20
46.485074125911247
 30
0.0
 11
61.002984975301374
 21
38.485074125911261
 31
0.0
  0
LINE
  5
32EE
  8
1
 10
67.502984975301374
 20
46.485074125911247
 30
0.0
 11
67.502984975301374
 21
38.485074125911261
 31
0.0
  0
LINE
  5
339F
  8
0
 10
133.50298497530139
 20
42.985074125911233
 30
0.0
 11
134.00298497530139
 21
42.485074125911233
 31
0.0
  0
LINE
  5
33A0
  8
0
 10
134.00298497530139
 20
31.48507412591124
 30
0.0
 11
133.50298497530139
 21
30.98507412591124
 31
0.0
  0
LINE
  5
33A1
  8
0
 10
128.00298497530139
 20
42.985074125911233
 30
0.0
 11
133.50298497530139
 21
42.985074125911233
 31
0.0
  0
LINE
  5
33A2
  8
0
 10
114.0029849753014
 20
42.985074125911233
 30
0.0
 11
116.0029849753014
 21
42.985074125911233
 31
0.0
  0
LINE
  5
33A3
  8
0
 10
133.50298497530139
 20
30.98507412591124
 30
0.0
 11
114.0029849753014
 21
30.98507412591124
 31
0.0
  0
LINE
  5
33AA
  8
0
 10
134.00298497530139
 20
31.48507412591124
 30
0.0
 11
134.00298497530139
 21
42.485074125911233
 31
0.0
  0
LINE
  5
33AC
  8
0
 10
128.00298497530139
 20
41.98507412591124
 30
0.0
 11
128.00298497530139
 21
42.985074125911233
 31
0.0
  0
LINE
  5
33AD
  8
0
 10
116.0029849753014
 20
41.98507412591124
 30
0.0
 11
128.00298497530139
 21
41.98507412591124
 31
0.0
  0
LINE
  5
33AE
  8
0
 10
116.0029849753014
 20
41.98507412591124
 30
0.0
 11
116.0029849753014
 21
42.985074125911233
 31
0.0
  0
LINE
  5
33B3
  8
0
 10
133.50298497530139
 20
72.985074125911268
 30
0.0
 11
134.00298497530139
 21
72.485074125911268
 31
0.0
  0
LINE
  5
33B4
  8
0
 10
134.00298497530139
 20
61.485074125911261
 30
0.0
 11
133.50298497530139
 21
60.985074125911268
 31
0.0
  0
LINE
  5
33B5
  8
0
 10
114.0029849753014
 20
72.985074125911268
 30
0.0
 11
133.50298497530139
 21
72.985074125911268
 31
0.0
  0
LINE
  5
33B6
  8
0
 10
133.50298497530139
 20
60.985074125911268
 30
0.0
 11
114.0029849753014
 21
60.985074125911268
 31
0.0
  0
LINE
  5
33BA
  8
0
 10
134.00298497530139
 20
61.485074125911261
 30
0.0
 11
134.00298497530139
 21
72.485074125911268
 31
0.0
  0
LINE
  5
33BB
  8
0
 10
116.0029849753014
 20
70.301698916311267
 30
0.0
 11
128.00298497530139
 21
70.301698916311267
 31
0.0
  0
LINE
  5
33BC
  8
0
 10
128.00298497530139
 20
63.668449335511269
 30
0.0
 11
128.00298497530139
 21
70.301698916311267
 31
0.0
  0
LINE
  5
33BD
  8
0
 10
116.0029849753014
 20
63.668449335511269
 30
0.0
 11
128.00298497530139
 21
63.668449335511269
 31
0.0
  0
LINE
  5
33BE
  8
0
 10
116.0029849753014
 20
63.668449335511269
 30
0.0
 11
116.0029849753014
 21
70.301698916311267
 31
0.0
  0
CIRCLE
  5
33C0
  8
0
 10
158.00298497530139
 20
36.985074125911247
 30
0.0
 40
6.0
  0
LINE
  5
33C1
  8
2
 10
161.31960976565679
 20
41.985074125911247
 30
0.0
 11
154.68636018494601
 21
41.985074125911247
 31
0.0
  0
LINE
  5
3407
  8
3
 10
116.0029849753014
 20
70.301698916311267
 30
0.0
 11
128.00298497530139
 21
63.668449335511269
 31
0.0
  0
LINE
  5
3408
  8
3
 10
116.0029849753014
 20
63.668449335511269
 30
0.0
 11
128.00298497530139
 21
70.301698916311267
 31
0.0
  0
ENDSEC
  0
EOF
