  0
SECTION
  2
HEADER
  9
$ACADVER
  1
AC1009
  9
$INSBASE
 10
0.0
 20
0.0
 30
0.0
  9
$EXTMIN
 10
0.0
 20
-2.960436562073669
 30
0.0
  9
$EXTMAX
 10
281.5462502382029
 20
372.40113003225213
 30
0.0
  9
$LIMMIN
 10
0.0
 20
0.0
  9
$LIMMAX
 10
375.0
 20
270.0
  9
$ORTHOMODE
 70
     0
  9
$REGENMODE
 70
     1
  9
$FILLMODE
 70
     1
  9
$QTEXTMODE
 70
     0
  9
$MIRRTEXT
 70
     0
  9
$DRAGMODE
 70
     2
  9
$LTSCALE
 40
6.0
  9
$OSMODE
 70
  3071
  9
$ATTMODE
 70
     1
  9
$TEXTSIZE
 40
0.2
  9
$TRACEWID
 40
0.05
  9
$TEXTSTYLE
  7
STANDARD
  9
$CLAYER
  8
0
  9
$CELTYPE
  6
BYLAYER
  9
$CECOLOR
 62
   256
  9
$DIMSCALE
 40
1.0
  9
$DIMASZ
 40
3.0
  9
$DIMEXO
 40
1.0
  9
$DIMDLI
 40
6.0
  9
$DIMRND
 40
0.0
  9
$DIMDLE
 40
0.0
  9
$DIMEXE
 40
1.0
  9
$DIMTP
 40
495.0
  9
$DIMTM
 40
0.0
  9
$DIMTXT
 40
3.0
  9
$DIMCEN
 40
0.0
  9
$DIMTSZ
 40
0.0
  9
$DIMTOL
 70
     0
  9
$DIMLIM
 70
     0
  9
$DIMTIH
 70
     0
  9
$DIMTOH
 70
     0
  9
$DIMSE1
 70
     0
  9
$DIMSE2
 70
     0
  9
$DIMTAD
 70
     1
  9
$DIMZIN
 70
     0
  9
$DIMBLK
  1

  9
$DIMASO
 70
     0
  9
$DIMSHO
 70
     0
  9
$DIMPOST
  1

  9
$DIMAPOST
  1

  9
$DIMALT
 70
     0
  9
$DIMALTD
 70
     2
  9
$DIMALTF
 40
25.399999999999999
  9
$DIMLFAC
 40
1.0
  9
$DIMTOFL
 70
     1
  9
$DIMTVP
 40
0.0
  9
$DIMTIX
 70
     1
  9
$DIMSOXD
 70
     0
  9
$DIMSAH
 70
     0
  9
$DIMBLK1
  1

  9
$DIMBLK2
  1

  9
$DIMSTYLE
  2
STANDARD
  9
$DIMCLRD
 70
     0
  9
$DIMCLRE
 70
     0
  9
$DIMCLRT
 70
     4
  9
$DIMTFAC
 40
1.0
  9
$DIMGAP
 40
1.0
  9
$LUNITS
 70
     2
  9
$LUPREC
 70
     4
  9
$SKETCHINC
 40
0.1
  9
$FILLETRAD
 40
2.0
  9
$AUNITS
 70
     0
  9
$AUPREC
 70
     0
  9
$MENU
  1
C:\R13\WIN\SUPPORT\ACAD-I
  9
$ELEVATION
 40
0.0
  9
$PELEVATION
 40
0.0
  9
$THICKNESS
 40
0.0
  9
$LIMCHECK
 70
     0
  9
$BLIPMODE
 70
     0
  9
$CHAMFERA
 40
0.0
  9
$CHAMFERB
 40
0.0
  9
$SKPOLY
 70
     0
  9
$TDCREATE
 40
2451962.4764139471
  9
$TDUPDATE
 40
2456597.617756262
  9
$TDINDWG
 40
0.1511118287
  9
$TDUSRTIMER
 40
2456555.0400149999
  9
$USRTIMER
 70
     1
  9
$ANGBASE
 50
0.0
  9
$ANGDIR
 70
     0
  9
$PDMODE
 70
     0
  9
$PDSIZE
 40
0.0
  9
$PLINEWID
 40
0.0
  9
$COORDS
 70
     1
  9
$SPLFRAME
 70
     0
  9
$SPLINETYPE
 70
     6
  9
$SPLINESEGS
 70
     8
  9
$ATTDIA
 70
     0
  9
$ATTREQ
 70
     1
  9
$HANDLING
 70
     1
  9
$HANDSEED
  5
78E8
  9
$SURFTAB1
 70
     6
  9
$SURFTAB2
 70
     6
  9
$SURFTYPE
 70
     6
  9
$SURFU
 70
     6
  9
$SURFV
 70
     6
  9
$UCSNAME
  2

  9
$UCSORG
 10
0.0
 20
0.0
 30
0.0
  9
$UCSXDIR
 10
1.0
 20
0.0
 30
0.0
  9
$UCSYDIR
 10
0.0
 20
1.0
 30
0.0
  9
$PUCSNAME
  2

  9
$PUCSORG
 10
0.0
 20
0.0
 30
0.0
  9
$PUCSXDIR
 10
1.0
 20
0.0
 30
0.0
  9
$PUCSYDIR
 10
0.0
 20
1.0
 30
0.0
  9
$USERI1
 70
     4
  9
$USERI2
 70
     1
  9
$USERI3
 70
     0
  9
$USERI4
 70
     0
  9
$USERI5
 70
     0
  9
$USERR1
 40
1.0
  9
$USERR2
 40
3.0
  9
$USERR3
 40
3.0
  9
$USERR4
 40
3.0
  9
$USERR5
 40
10.0
  9
$WORLDVIEW
 70
     1
  9
$SHADEDGE
 70
     3
  9
$SHADEDIF
 70
    70
  9
$TILEMODE
 70
     1
  9
$MAXACTVP
 70
    16
  9
$PLIMCHECK
 70
     0
  9
$PEXTMIN
 10
1.0000000000000000E+020
 20
1.0000000000000000E+020
 30
1.0000000000000000E+020
  9
$PEXTMAX
 10
-1.0000000000000000E+020
 20
-1.0000000000000000E+020
 30
-1.0000000000000000E+020
  9
$PLIMMIN
 10
0.0
 20
0.0
  9
$PLIMMAX
 10
12.0
 20
9.0
  9
$UNITMODE
 70
     0
  9
$VISRETAIN
 70
     0
  9
$PLINEGEN
 70
     0
  9
$PSLTSCALE
 70
     0
  0
ENDSEC
  0
SECTION
  2
TABLES
  0
TABLE
  2
VPORT
 70
     1
  0
VPORT
  2
*ACTIVE
 70
     0
 10
0.0
 20
0.0
 11
1.0
 21
1.0
 12
187.49427839065231
 22
185.53576627796801
 13
0.0
 23
0.0
 14
10.0
 24
10.0
 15
10.0
 25
10.0
 16
0.0
 26
0.0
 36
1.0
 17
0.0
 27
0.0
 37
0.0
 40
381.31864402169617
 41
2.304913294797688
 42
50.0
 43
0.0
 44
0.0
 50
0.0
 51
0.0
 71
    16
 72
   100
 73
     1
 74
     0
 75
     0
 76
     0
 77
     0
 78
     0
  0
ENDTAB
  0
TABLE
  2
LTYPE
 70
     4
  0
LTYPE
  2
CONTINUOUS
 70
     0
  3
Solid Line
 72
    65
 73
     0
 40
0.0
  0
LTYPE
  2
PHANTOM2
 70
     0
  3
___ _ _ ___ _ _ ___ _ _ ___ _ _
 72
    65
 73
     6
 40
1.25
 49
0.625
 49
-0.125
 49
0.125
 49
-0.125
 49
0.125
 49
-0.125
  0
LTYPE
  2
CENTER
 70
     0
  3
____ _ ____ _ ____ _ ____ _ ____ _ ____ _ ____
 72
    65
 73
     4
 40
2.0
 49
1.25
 49
-0.25
 49
0.25
 49
-0.25
  0
LTYPE
  2
HIDDEN
 70
     0
  3
_ _ _ _ _ _ _ _ _ _ _ _ _ _ _ _ _ _ _ _ _ _ _
 72
    65
 73
     2
 40
0.375
 49
0.25
 49
-0.125
  0
ENDTAB
  0
TABLE
  2
LAYER
 70
     5
  0
LAYER
  2
0
 70
     0
 62
     7
  6
CONTINUOUS
  0
LAYER
  2
1
 70
     0
 62
     1
  6
CENTER
  0
LAYER
  2
3
 70
     0
 62
     3
  6
CONTINUOUS
  0
LAYER
  2
2
 70
     0
 62
     2
  6
HIDDEN
  0
LAYER
  2
DEFPOINTS
 70
     0
 62
     7
  6
CONTINUOUS
  0
ENDTAB
  0
TABLE
  2
STYLE
 70
     3
  0
STYLE
  2
STANDARD
 70
     0
 40
0.0
 41
1.0
 50
0.0
 71
     0
 42
0.2
  3
SIMPLEX
  4
BIGFONT
  0
STYLE
  2
ANNOTATIVE
 70
     0
 40
0.0
 41
1.0
 50
0.0
 71
     0
 42
0.2
  3
txt
  4

  0
STYLE
  2
STANDARD1
 70
     0
 40
0.0
 41
1.0
 50
0.0
 71
     0
 42
3.0
  3
txt
  4

  0
ENDTAB
  0
TABLE
  2
VIEW
 70
     0
  0
ENDTAB
  0
TABLE
  2
UCS
 70
     0
  0
ENDTAB
  0
TABLE
  2
APPID
 70
    29
  0
APPID
  2
ACAD
 70
     0
  0
APPID
  2
ACADANNOTATIVE
 70
     0
  0
APPID
  2
GENIUS_GENOREF_13
 70
     0
  0
APPID
  2
GENIUS_GENOENT_13
 70
     0
  0
APPID
  2
GENIUS_GENBH_13
 70
     0
  0
APPID
  2
GENIUS_GENOBJ_13
 70
     0
  0
APPID
  2
GENIUS_GENODEF_13
 70
     0
  0
APPID
  2
GENIUS_GENOLIS_13
 70
     0
  0
APPID
  2
GENIUS_GENOBJ-NBEHI-BHF_13
 70
     0
  0
APPID
  2
GENIUS_GENOBJ-NBEHI-BHB_13
 70
     0
  0
APPID
  2
GENIUS_GENOBJ-F-PART_13
 70
     0
  0
APPID
  2
GENIUS_GEFSTDP_13
 70
     0
  0
APPID
  2
GENIUS_GENOBJ-N-RSSYM_13
 70
     0
  0
APPID
  2
GENIUS_GENSYMENT_13
 70
     0
  0
APPID
  2
GENIUS_GENOBJ-N-TIT_13
 70
     0
  0
APPID
  2
GENIUS_GENTITLE_13
 70
     0
  0
APPID
  2
GENIUS_GENZVEED_13
 70
     0
  0
APPID
  2
GENIUS_GENOBJ-N-LEADER_13
 70
     0
  0
APPID
  2
GENIUS_GENOBJ-N-FIL_13
 70
     0
  0
APPID
  2
GENIUS_GENOBJ-N-SEC_13
 70
     0
  0
APPID
  2
GENIUS_GENOBJ-N-CRS_13
 70
     0
  0
APPID
  2
GENIUS_GENOBJ-N-ZOO_13
 70
     0
  0
APPID
  2
GENIUS_GENZOO_13
 70
     0
  0
APPID
  2
GENIUS_GENOBJ-F-TOL_13
 70
     0
  0
APPID
  2
GENIUS_GENFIL_13
 70
     0
  0
APPID
  2
GENIUS_GENOBJ-N-CHA_13
 70
     0
  0
APPID
  2
ACAD_EXEMPT_FROM_CAD_STANDARDS
 70
     0
  0
APPID
  2
ACAD_MLEADERVER
 70
     0
  0
APPID
  2
ACAD_NAV_VCDISPLAY
 70
     0
  0
ENDTAB
  0
TABLE
  2
DIMSTYLE
 70
     2
  0
DIMSTYLE
  2
STANDARD
 70
     0
  3

  4

  5

  6

  7

 40
1.0
 41
0.18
 42
0.0625
 43
0.38
 44
0.18
 45
0.0
 46
0.0
 47
0.0
 48
0.0
140
0.18
141
0.09
142
0.0
143
25.399999999999999
144
1.0
145
0.0
146
1.0
147
0.09
 71
     0
 72
     0
 73
     1
 74
     1
 75
     0
 76
     0
 77
     0
 78
     0
170
     0
171
     2
172
     0
173
     0
174
     0
175
     0
176
     0
177
     0
178
     0
  0
DIMSTYLE
  2
ANNOTATIVE
 70
     0
  3

  4

  5

  6

  7

 40
1.0
 41
0.18
 42
0.0625
 43
0.38
 44
0.18
 45
0.0
 46
0.0
 47
0.0
 48
0.0
140
0.18
141
0.09
142
0.0
143
25.399999999999999
144
1.0
145
0.0
146
1.0
147
0.09
 71
     0
 72
     0
 73
     1
 74
     1
 75
     0
 76
     0
 77
     0
 78
     0
170
     0
171
     2
172
     0
173
     0
174
     0
175
     0
176
     0
177
     0
178
     0
  0
ENDTAB
  0
ENDSEC
  0
SECTION
  2
BLOCKS
  0
BLOCK
  8
0
  2
$MODEL_SPACE
 70
     0
 10
0.0
 20
0.0
 30
0.0
  3
$MODEL_SPACE
  1

  0
ENDBLK
  5
77F7
  8
0
  0
BLOCK
 67
     1
  8
0
  2
$PAPER_SPACE
 70
     0
 10
0.0
 20
0.0
 30
0.0
  3
$PAPER_SPACE
  1

  0
ENDBLK
  5
77F3
 67
     1
  8
0
  0
ENDSEC
  0
SECTION
  2
ENTITIES
  0
LINE
  5
73F0
  8
3
 10
248.46375023820269
 20
174.52604831408101
 30
0.0
 11
248.46375023820269
 21
241.81987317951791
 31
0.0
  0
LINE
  5
73F1
  8
0
 10
249.5462502382027
 20
174.52604831408291
 30
0.0
 11
249.5462502382027
 21
240.7373731795179
 31
0.0
  0
LINE
  5
73F2
  8
0
 10
233.5462502382027
 20
174.52604831405611
 30
0.0
 11
233.5462502382027
 21
240.73737317951841
 31
0.0
  0
LINE
  5
73F3
  8
3
 10
234.6287502382026
 20
174.5260483140579
 30
0.0
 11
234.6287502382026
 21
241.8198731795182
 31
0.0
  0
LINE
  5
73F4
  8
3
 10
234.6287502382026
 20
96.737373179518187
 30
0.0
 11
233.5462502382027
 21
94.862428180324855
 31
0.0
  0
LINE
  5
73F5
  8
0
 10
233.5462502382027
 20
240.73737317951841
 30
0.0
 11
235.5462502382027
 21
242.73737317951819
 31
0.0
  0
LINE
  5
73F6
  8
0
 10
233.5462502382027
 20
94.601526057355485
 30
0.0
 11
233.5462502382027
 21
161.52604831410949
 31
0.0
  0
LINE
  5
73F7
  8
3
 10
234.6287502382026
 20
96.737373179518187
 30
0.0
 11
234.6287502382026
 21
161.5260483141077
 31
0.0
  0
LINE
  5
73F8
  8
3
 10
248.46375023820269
 20
96.737373179518187
 30
0.0
 11
249.5462502382027
 21
94.862428180324855
 31
0.0
  0
LINE
  5
73F9
  8
0
 10
233.5462502382027
 20
96.737373179518187
 30
0.0
 11
249.5462502382027
 21
96.737373179518187
 31
0.0
  0
LINE
  5
73FA
  8
0
 10
249.5462502382027
 20
240.7373731795179
 30
0.0
 11
233.5462502382027
 21
240.7373731795181
 31
0.0
  0
LINE
  5
73FB
  8
0
 10
247.5462502382027
 20
242.7373731795179
 30
0.0
 11
249.5462502382027
 21
240.7373731795179
 31
0.0
  0
LINE
  5
73FC
  8
3
 10
248.46375023820269
 20
96.737373179518187
 30
0.0
 11
248.46375023820269
 21
161.52604831408479
 31
0.0
  0
LINE
  5
73FD
  8
0
 10
249.5462502382027
 20
94.601526057355045
 30
0.0
 11
249.5462502382027
 21
161.52604831408269
 31
0.0
  0
LINE
  5
73FE
  8
0
 10
235.5462502382027
 20
242.73737317951819
 30
0.0
 11
247.5462502382027
 21
242.7373731795179
 31
0.0
  0
LINE
  5
73FF
  8
0
 10
249.31095612055589
 20
88.737373179518144
 30
0.0
 11
233.78154435584941
 21
88.737373179518144
 31
0.0
  0
LINE
  5
7400
  8
0
 10
233.78154435584969
 20
94.737373179518372
 30
0.0
 11
249.3109561205558
 21
94.737373179517917
 31
0.0
  0
ARC
  5
7401
  8
0
 10
248.4744534684782
 20
90.512209659874443
 30
0.0
 40
4.0893163974808306
 50
64.384247467885544
 51
124.38424746800609
  0
LINE
  5
7402
  8
0
 10
250.78385454523661
 20
93.886994877539664
 30
0.0
 11
249.3109561205556
 21
94.737373179518372
 31
0.0
  0
LINE
  5
7403
  8
0
 10
250.78385454523661
 20
89.587751481496639
 30
0.0
 11
249.3109561205556
 21
88.737373179517931
 31
0.0
  0
ARC
  5
7404
  8
0
 10
248.4744534684782
 20
92.962536699161873
 30
0.0
 40
4.0893163974808306
 50
235.61575253199399
 51
295.61575253211453
  0
LINE
  5
7405
  8
0
 10
250.78385454523661
 20
93.886994877539664
 30
0.0
 11
250.78385454523661
 21
89.587751481496639
 31
0.0
  0
LINE
  5
7406
  8
0
 10
246.16505239172071
 20
93.886994877539664
 30
0.0
 11
246.16505239172
 21
89.587751481496184
 31
0.0
  0
LINE
  5
7407
  8
0
 10
236.9274480846847
 20
93.886994877539664
 30
0.0
 11
236.9274480846853
 21
89.587751481496184
 31
0.0
  0
LINE
  5
7408
  8
0
 10
232.30864593116871
 20
93.886994877539664
 30
0.0
 11
232.30864593116871
 21
89.587751481496639
 31
0.0
  0
ARC
  5
7409
  8
0
 10
241.54625023820211
 20
104.15868912188471
 30
0.0
 40
15.28546882020385
 50
252.4120462260301
 51
287.58795377396979
  0
ARC
  5
740A
  8
0
 10
234.6180470079272
 20
92.962536699161873
 30
0.0
 40
4.0893163974808306
 50
244.3842474678855
 51
304.38424746800621
  0
LINE
  5
740B
  8
0
 10
232.30864593116871
 20
89.587751481496639
 30
0.0
 11
233.78154435584969
 21
88.737373179517931
 31
0.0
  0
LINE
  5
740C
  8
0
 10
232.30864593116871
 20
93.886994877539664
 30
0.0
 11
233.78154435584969
 21
94.737373179518372
 31
0.0
  0
ARC
  5
740D
  8
0
 10
241.54625023820211
 20
79.316057237151313
 30
0.0
 40
15.28546882020385
 50
72.412046226030142
 51
107.5879537739699
  0
ARC
  5
740E
  8
0
 10
234.6180470079272
 20
90.512209659874443
 30
0.0
 40
4.0893163974808306
 50
55.61575253199382
 51
115.6157525321144
  0
LINE
  5
740F
  8
0
 10
253.0462502382027
 20
161.526048314077
 30
0.0
 11
230.04625023813639
 21
161.5260483141154
 31
0.0
  0
LINE
  5
7410
  8
0
 10
230.04625023813639
 20
174.5260483140502
 30
0.0
 11
253.0462502382027
 21
174.5260483140886
 31
0.0
  0
ARC
  5
7411
  8
0
 10
235.5462502382027
 20
156.90724616215181
 30
0.0
 40
17.330127017333279
 50
69.743841997644466
 51
110.25615800235551
  0
LINE
  5
7412
  8
0
 10
229.5462502381877
 20
174.2373731794851
 30
0.0
 11
230.0462502382027
 21
174.5260483140886
 31
0.0
  0
LINE
  5
7413
  8
0
 10
229.5462502381877
 20
161.81472344868041
 30
0.0
 11
230.0462502382027
 21
161.526048314077
 31
0.0
  0
ARC
  5
7414
  8
0
 10
235.5462502382027
 20
179.14485046601379
 30
0.0
 40
17.330127017333279
 50
249.74384199764449
 51
290.25615800235551
  0
LINE
  5
7415
  8
0
 10
229.5462502381877
 20
174.2373731794851
 30
0.0
 11
229.5462502382027
 21
161.8147234486718
 31
0.0
  0
LINE
  5
7416
  8
0
 10
241.5462502382027
 20
162.8865202185097
 30
0.0
 11
241.5462502382027
 21
173.1655764096559
 31
0.0
  0
LINE
  5
7417
  8
0
 10
253.54625023821771
 20
174.2373731794851
 30
0.0
 11
253.5462502382027
 21
161.8147234486718
 31
0.0
  0
ARC
  5
7418
  8
0
 10
247.5462502382027
 20
179.14485046601379
 30
0.0
 40
17.330127017333279
 50
249.74384199764449
 51
290.25615800235551
  0
LINE
  5
7419
  8
0
 10
253.54625023821771
 20
161.81472344868041
 30
0.0
 11
253.0462502382027
 21
161.526048314077
 31
0.0
  0
LINE
  5
741A
  8
0
 10
253.54625023821771
 20
174.2373731794851
 30
0.0
 11
253.0462502382027
 21
174.5260483140886
 31
0.0
  0
ARC
  5
741B
  8
0
 10
247.5462502382027
 20
156.90724616215181
 30
0.0
 40
17.330127017333279
 50
69.743841997644466
 51
110.25615800235551
  0
LINE
  5
741C
  8
0
 10
236.04625023820279
 20
85.73737317951813
 30
0.0
 11
236.04625023820279
 21
88.737373179517931
 31
0.0
  0
LINE
  5
741D
  8
0
 10
247.04625023820279
 20
85.73737317951813
 30
0.0
 11
247.04625023820279
 21
88.737373179517931
 31
0.0
  0
LINE
  5
741E
  8
1
 10
119.268463335017
 20
247.7373731795179
 30
0.0
 11
119.268463335017
 21
56.737373179517917
 31
0.0
  0
LINE
  5
741F
  8
0
 10
111.268463335017
 20
174.5260483140176
 30
0.0
 11
111.268463335017
 21
240.7373731795179
 31
0.0
  0
LINE
  5
7420
  8
3
 10
112.350963335017
 20
174.5260483140176
 30
0.0
 11
112.350963335017
 21
241.81987317951791
 31
0.0
  0
LINE
  5
7421
  8
0
 10
127.268463335017
 20
174.5260483140176
 30
0.0
 11
127.268463335017
 21
240.7373731795179
 31
0.0
  0
LINE
  5
7422
  8
3
 10
126.18596333501699
 20
174.5260483140176
 30
0.0
 11
126.18596333501699
 21
241.81987317951791
 31
0.0
  0
LINE
  5
7423
  8
0
 10
111.50375745266351
 20
88.737373179517704
 30
0.0
 11
127.03316921736941
 21
88.737373179517704
 31
0.0
  0
LINE
  5
7424
  8
0
 10
127.0331692173684
 20
94.737373179517704
 30
0.0
 11
111.5037574526645
 21
94.737373179517704
 31
0.0
  0
ARC
  5
7425
  8
0
 10
115.26846333501651
 20
83.048108044727655
 30
0.0
 40
11.55341801262729
 50
69.743841999608421
 51
110.25615800039159
  0
LINE
  5
7426
  8
0
 10
111.26846333501641
 20
94.601526057355045
 30
0.0
 11
111.5037574526645
 21
94.737373179517704
 31
0.0
  0
ARC
  5
7427
  8
0
 10
115.26846333501651
 20
100.4266383143073
 30
0.0
 40
11.55341801262729
 50
249.74384199960841
 51
290.25615800039151
  0
LINE
  5
7428
  8
0
 10
111.26846333501641
 20
88.873220301679893
 30
0.0
 11
111.5037574526645
 21
88.737373179517022
 31
0.0
  0
LINE
  5
7429
  8
0
 10
111.26846333501641
 20
94.601526057355045
 30
0.0
 11
111.26846333501651
 21
88.873220301679893
 31
0.0
  0
LINE
  5
742A
  8
0
 10
119.26846333501651
 20
93.886994877539024
 30
0.0
 11
119.26846333501651
 21
89.587751481495744
 31
0.0
  0
LINE
  5
742B
  8
0
 10
127.26846333501661
 20
94.601526057355045
 30
0.0
 11
127.26846333501651
 21
88.873220301679893
 31
0.0
  0
ARC
  5
742C
  8
0
 10
123.26846333501651
 20
100.4266383143073
 30
0.0
 40
11.55341801262729
 50
249.74384199960841
 51
290.25615800039151
  0
LINE
  5
742D
  8
0
 10
127.26846333501661
 20
88.873220301679893
 30
0.0
 11
127.0331692173685
 21
88.737373179517022
 31
0.0
  0
LINE
  5
742E
  8
0
 10
127.26846333501661
 20
94.601526057355045
 30
0.0
 11
127.0331692173685
 21
94.737373179517704
 31
0.0
  0
ARC
  5
742F
  8
0
 10
123.26846333501651
 20
83.048108044727655
 30
0.0
 40
11.55341801262729
 50
69.743841999608421
 51
110.25615800039159
  0
LINE
  5
7430
  8
0
 10
113.268463335017
 20
242.7373731795179
 30
0.0
 11
125.268463335017
 21
242.7373731795179
 31
0.0
  0
LINE
  5
7431
  8
0
 10
127.2684633350171
 20
94.601526057354604
 30
0.0
 11
127.2684633350171
 21
161.52604831408269
 31
0.0
  0
LINE
  5
7432
  8
3
 10
126.18596333501699
 20
96.737373179517917
 30
0.0
 11
126.18596333501699
 21
161.52604831408269
 31
0.0
  0
LINE
  5
7433
  8
3
 10
112.350963335017
 20
96.737373179517917
 30
0.0
 11
112.350963335017
 21
161.52604831408269
 31
0.0
  0
LINE
  5
7434
  8
0
 10
111.268463335017
 20
94.601526057355287
 30
0.0
 11
111.268463335017
 21
161.52604831408291
 31
0.0
  0
LINE
  5
7435
  8
0
 10
111.268463335017
 20
240.7373731795179
 30
0.0
 11
113.268463335017
 21
242.7373731795179
 31
0.0
  0
LINE
  5
7436
  8
0
 10
125.268463335017
 20
242.7373731795179
 30
0.0
 11
127.268463335017
 21
240.7373731795179
 31
0.0
  0
LINE
  5
7437
  8
0
 10
127.268463335017
 20
240.7373731795179
 30
0.0
 11
111.268463335017
 21
240.7373731795179
 31
0.0
  0
LINE
  5
7438
  8
0
 10
111.268463335017
 20
96.737373179517917
 30
0.0
 11
127.268463335017
 21
96.737373179517917
 31
0.0
  0
LINE
  5
7439
  8
3
 10
112.350963335017
 20
96.737373179517917
 30
0.0
 11
111.268463335017
 21
94.862428180324656
 31
0.0
  0
LINE
  5
743A
  8
3
 10
126.18596333501699
 20
96.737373179517917
 30
0.0
 11
127.268463335017
 21
94.862428180324656
 31
0.0
  0
LINE
  5
743B
  8
0
 10
130.7684633349088
 20
161.52604831408291
 30
0.0
 11
107.76846333512449
 21
161.52604831408291
 31
0.0
  0
LINE
  5
743C
  8
0
 10
107.7684633350167
 20
174.5260483140176
 30
0.0
 11
130.7684633349088
 21
174.5260483140176
 31
0.0
  0
ARC
  5
743D
  8
0
 10
129.66076818043021
 20
168.10339858373169
 30
0.0
 40
6.1339745957208196
 50
64.384247469854884
 51
124.3842474712113
  0
LINE
  5
743E
  8
0
 10
133.12486979558969
 20
173.16557640962341
 30
0.0
 11
130.7684633349088
 21
174.5260483140176
 31
0.0
  0
LINE
  5
743F
  8
0
 10
133.12486979558969
 20
162.8865202184771
 30
0.0
 11
130.7684633349088
 21
161.52604831408291
 31
0.0
  0
ARC
  5
7440
  8
0
 10
129.66076818043021
 20
167.9486980443686
 30
0.0
 40
6.1339745957208196
 50
235.6157525287887
 51
295.61575253014507
  0
LINE
  5
7441
  8
0
 10
133.1248697955678
 20
173.16557640962341
 30
0.0
 11
133.1248697955678
 21
162.8865202184644
 31
0.0
  0
LINE
  5
7442
  8
0
 10
126.19666656529211
 20
173.16557640962341
 30
0.0
 11
126.19666656529211
 21
162.8865202184771
 31
0.0
  0
LINE
  5
7443
  8
0
 10
112.3402601047414
 20
173.16557640962341
 30
0.0
 11
112.3402601047414
 21
162.8865202184771
 31
0.0
  0
LINE
  5
7444
  8
0
 10
105.41205687446551
 20
173.16557640962341
 30
0.0
 11
105.41205687446551
 21
162.8865202184644
 31
0.0
  0
ARC
  5
7445
  8
0
 10
119.2684633350167
 20
184.74292667678731
 30
0.0
 40
22.928203228139491
 50
252.4120462243142
 51
287.58795377568578
  0
ARC
  5
7446
  8
0
 10
108.8761584896032
 20
167.9486980443686
 30
0.0
 40
6.1339745957208196
 50
244.3842474698549
 51
304.38424747121132
  0
LINE
  5
7447
  8
0
 10
105.41205687444371
 20
162.8865202184771
 30
0.0
 11
107.76846333512449
 21
161.52604831408291
 31
0.0
  0
LINE
  5
7448
  8
0
 10
105.41205687444371
 20
173.16557640962341
 30
0.0
 11
107.76846333512449
 21
174.5260483140176
 31
0.0
  0
ARC
  5
7449
  8
0
 10
108.8761584896032
 20
168.10339858373169
 30
0.0
 40
6.1339745957208196
 50
55.61575252878869
 51
115.6157525301451
  0
ARC
  5
744A
  8
0
 10
119.2684633350167
 20
151.30916995131301
 30
0.0
 40
22.928203228139491
 50
72.412046224314139
 51
107.5879537756858
  0
LINE
  5
744D
  8
0
 10
124.76846333501641
 20
85.737373179517945
 30
0.0
 11
124.76846333501641
 21
88.737373179517704
 31
0.0
  0
LINE
  5
744E
  8
0
 10
113.76846333501641
 20
85.737373179517945
 30
0.0
 11
113.76846333501641
 21
88.737373179517704
 31
0.0
  0
LINE
  5
744F
  8
0
 10
124.76846333501641
 20
85.737373179517945
 30
0.0
 11
113.76846333501641
 21
85.737373179517945
 31
0.0
  0
CIRCLE
  5
7450
  8
3
 10
119.268463335017
 20
326.6868443179664
 30
0.0
 40
6.9175000000000004
  0
CIRCLE
  5
7451
  8
0
 10
119.268463335017
 20
326.6868443179664
 30
0.0
 40
8.0
  0
CIRCLE
  5
7452
  8
0
 10
119.268463335017
 20
326.6868443179664
 30
0.0
 40
11.5
  0
LINE
  5
7453
  8
0
 10
133.12486979556809
 20
326.6868443179664
 30
0.0
 11
126.1966665652925
 21
338.68684431796618
 31
0.0
  0
LINE
  5
7454
  8
0
 10
126.1966665652925
 20
314.6868443179664
 30
0.0
 11
133.12486979556809
 21
326.6868443179664
 31
0.0
  0
LINE
  5
7455
  8
0
 10
112.3402601047415
 20
314.6868443179664
 30
0.0
 11
126.1966665652925
 21
314.6868443179664
 31
0.0
  0
LINE
  5
7456
  8
0
 10
105.4120568744659
 20
326.6868443179664
 30
0.0
 11
112.3402601047415
 21
314.6868443179664
 31
0.0
  0
LINE
  5
7457
  8
0
 10
112.3402601047415
 20
338.68684431796618
 30
0.0
 11
105.4120568744659
 21
326.6868443179664
 31
0.0
  0
LINE
  5
7458
  8
0
 10
126.1966665652925
 20
338.68684431796618
 30
0.0
 11
112.3402601047415
 21
338.68684431796618
 31
0.0
  0
LINE
  5
7468
  8
0
 10
159.26846333501709
 20
61.737373179517917
 30
0.0
 11
79.268463335016989
 21
61.737373179517917
 31
0.0
  0
LINE
  5
7469
  8
0
 10
159.26846333501709
 20
61.737373179517917
 30
0.0
 11
159.26846333501709
 21
70.582077847807682
 31
0.0
  0
CIRCLE
  5
746B
  8
0
 10
119.268463335017
 20
326.6868443179664
 30
0.0
 40
40.00000000000005
  0
LINE
  5
746C
  8
1
 10
119.268463335017
 20
372.40113003225213
 30
0.0
 11
119.268463335017
 21
280.97255860368051
 31
0.0
  0
LINE
  5
746D
  8
1
 10
164.98274904930281
 20
326.6868443179664
 30
0.0
 11
73.554177620731252
 21
326.6868443179664
 31
0.0
  0
LINE
  5
746E
  8
0
 10
152.768463335017
 20
73.768876946052501
 30
0.0
 11
85.768463335017046
 21
73.768876946052501
 31
0.0
  0
LINE
  5
746F
  8
0
 10
146.768463335017
 20
78.139901908117864
 30
0.0
 11
91.768463335016975
 21
78.139901908117864
 31
0.0
  0
LINE
  5
7470
  8
0
 10
140.1189063860927
 20
81.036111777778046
 30
0.0
 11
98.41802028394136
 21
81.036111777778046
 31
0.0
  0
LINE
  5
7471
  8
0
 10
133.268463335017
 20
85.737373179517945
 30
0.0
 11
105.268463335017
 21
85.737373179517945
 31
0.0
  0
LINE
  5
7472
  8
0
 10
152.768463335017
 20
73.768876946052501
 30
0.0
 11
152.768463335017
 21
74.610264026799882
 31
0.0
  0
LINE
  5
7473
  8
0
 10
152.768463335017
 20
73.768876946052501
 30
0.0
 11
158.627442414326
 21
71.515423454010573
 31
0.0
  0
LINE
  5
7474
  8
0
 10
146.768463335017
 20
78.139901908117864
 30
0.0
 11
152.2039395174051
 21
75.510464279284292
 31
0.0
  0
LINE
  5
7475
  8
0
 10
140.1189063860927
 20
81.036111777778046
 30
0.0
 11
145.99656244848509
 21
79.659123358391852
 31
0.0
  0
LINE
  5
7476
  8
0
 10
134.268463335017
 20
84.139901908117864
 30
0.0
 11
104.268463335017
 21
84.139901908117864
 31
0.0
  0
LINE
  5
7477
  8
0
 10
134.268463335017
 20
84.139901908117864
 30
0.0
 11
139.4286268848071
 21
82.459041623326684
 31
0.0
  0
LINE
  5
7478
  8
0
 10
134.268463335017
 20
84.737373179517903
 30
0.0
 11
134.268463335017
 21
84.139901908117864
 31
0.0
  0
LINE
  5
7479
  8
0
 10
146.768463335017
 20
78.139901908117864
 30
0.0
 11
146.768463335017
 21
78.685485440870593
 31
0.0
  0
LINE
  5
747A
  8
0
 10
140.1189063860927
 20
81.036111777778046
 30
0.0
 11
140.1189063860927
 21
81.508213977180375
 31
0.0
  0
ARC
  5
747B
  8
0
 10
133.268463335017
 20
84.737373179517903
 30
0.0
 40
1.0
 50
359.99999999999892
 51
90.0
  0
ARC
  5
747C
  8
0
 10
139.1189063860927
 20
81.508213977180375
 30
0.0
 40
1.0
 50
0.0
 51
71.957612741641853
  0
ARC
  5
747D
  8
0
 10
145.768463335017
 20
78.685485440870593
 30
0.0
 40
1.0
 50
0.0
 51
76.814815600247044
  0
ARC
  5
747E
  8
0
 10
158.26846333501709
 20
70.582077847807682
 30
0.0
 40
1.0
 50
0.0
 51
68.962488974578235
  0
ARC
  5
747F
  8
0
 10
151.768463335017
 20
74.610264026799882
 30
0.0
 40
1.0
 50
0.0
 51
64.18440202834887
  0
ARC
  5
7481
  8
0
 10
86.768463335017017
 20
74.610264026799882
 30
0.0
 40
1.0
 50
115.8155979716511
 51
180.0
  0
ARC
  5
7482
  8
0
 10
80.268463335016918
 20
70.582077847807682
 30
0.0
 40
1.0
 50
111.03751102542169
 51
180.0
  0
ARC
  5
7483
  8
0
 10
92.768463335017046
 20
78.685485440870593
 30
0.0
 40
1.0
 50
103.1851843997529
 51
180.0
  0
ARC
  5
7484
  8
0
 10
99.418020283941345
 20
81.508213977180375
 30
0.0
 40
1.0
 50
108.0423872583581
 51
180.0
  0
ARC
  5
7485
  8
0
 10
105.268463335017
 20
84.737373179517903
 30
0.0
 40
1.0
 50
90.0
 51
180.00000000000099
  0
LINE
  5
7486
  8
0
 10
98.41802028394136
 20
81.036111777778046
 30
0.0
 11
98.41802028394136
 21
81.508213977180375
 31
0.0
  0
LINE
  5
7487
  8
0
 10
91.768463335016975
 20
78.139901908117864
 30
0.0
 11
91.768463335016975
 21
78.685485440870593
 31
0.0
  0
LINE
  5
7488
  8
0
 10
104.268463335017
 20
84.737373179517903
 30
0.0
 11
104.268463335017
 21
84.139901908117864
 31
0.0
  0
LINE
  5
7489
  8
0
 10
104.268463335017
 20
84.139901908117864
 30
0.0
 11
99.108299785226976
 21
82.459041623326684
 31
0.0
  0
LINE
  5
748A
  8
0
 10
98.41802028394136
 20
81.036111777778046
 30
0.0
 11
92.540364221548913
 21
79.659123358391852
 31
0.0
  0
LINE
  5
748B
  8
0
 10
91.768463335017046
 20
78.139901908117864
 30
0.0
 11
86.332987152628945
 21
75.510464279284292
 31
0.0
  0
LINE
  5
748C
  8
0
 10
85.768463335017046
 20
73.768876946052501
 30
0.0
 11
79.909484255708065
 21
71.515423454010573
 31
0.0
  0
LINE
  5
748D
  8
0
 10
85.768463335017046
 20
73.768876946052501
 30
0.0
 11
85.768463335017046
 21
74.610264026799882
 31
0.0
  0
LINE
  5
748E
  8
0
 10
79.268463335016989
 20
61.737373179517917
 30
0.0
 11
79.268463335016932
 21
70.582077847807682
 31
0.0
  0
ARC
  5
7490
  8
0
 10
119.268463335017
 20
326.6868443179664
 30
0.0
 40
33.5
 50
195.75950956217591
 51
344.24049043782401
  0
ARC
  5
7491
  8
0
 10
119.268463335017
 20
326.6868443179664
 30
0.0
 40
27.5
 50
22.44635058144987
 51
157.55364941855009
  0
ARC
  5
7492
  8
0
 10
119.268463335017
 20
326.6868443179664
 30
0.0
 40
20.850443051075668
 50
30.237560746705888
 51
149.7624392532941
  0
LINE
  5
7493
  8
1
 10
241.5462502382027
 20
56.737373179517917
 30
0.0
 11
241.5462502382027
 21
247.7373731795179
 31
0.0
  0
LINE
  5
7495
  8
0
 10
201.54625023820259
 20
61.737373179517917
 30
0.0
 11
201.54625023820259
 21
70.582077847807682
 31
0.0
  0
LINE
  5
7496
  8
0
 10
208.0462502382027
 20
73.768876946052501
 30
0.0
 11
208.0462502382027
 21
74.610264026799882
 31
0.0
  0
LINE
  5
7497
  8
0
 10
208.0462502382027
 20
73.768876946052501
 30
0.0
 11
202.18727115889371
 21
71.515423454010573
 31
0.0
  0
LINE
  5
7498
  8
0
 10
214.0462502382027
 20
78.139901908117864
 30
0.0
 11
208.6107740558146
 21
75.510464279284292
 31
0.0
  0
LINE
  5
7499
  8
0
 10
220.695807187127
 20
81.036111777778046
 30
0.0
 11
214.81815112473461
 21
79.659123358391852
 31
0.0
  0
LINE
  5
749A
  8
0
 10
226.5462502382027
 20
84.139901908117864
 30
0.0
 11
221.3860866884126
 21
82.459041623326684
 31
0.0
  0
LINE
  5
749B
  8
0
 10
226.5462502382027
 20
84.737373179517903
 30
0.0
 11
226.5462502382027
 21
84.139901908117864
 31
0.0
  0
LINE
  5
749C
  8
0
 10
214.04625023820259
 20
78.139901908117864
 30
0.0
 11
214.04625023820259
 21
78.685485440870593
 31
0.0
  0
LINE
  5
749D
  8
0
 10
220.695807187127
 20
81.036111777778046
 30
0.0
 11
220.695807187127
 21
81.508213977180375
 31
0.0
  0
ARC
  5
749E
  8
0
 10
227.5462502382027
 20
84.737373179517903
 30
0.0
 40
1.0
 50
90.0
 51
180.00000000000099
  0
ARC
  5
749F
  8
0
 10
221.695807187127
 20
81.508213977180375
 30
0.0
 40
1.0
 50
108.0423872583581
 51
180.0
  0
ARC
  5
74A0
  8
0
 10
215.04625023820259
 20
78.685485440870593
 30
0.0
 40
1.0
 50
103.1851843997529
 51
180.0
  0
ARC
  5
74A1
  8
0
 10
202.54625023820259
 20
70.582077847807682
 30
0.0
 40
1.0
 50
111.03751102542169
 51
180.0
  0
ARC
  5
74A2
  8
0
 10
209.0462502382027
 20
74.610264026799882
 30
0.0
 40
1.0
 50
115.8155979716511
 51
180.0
  0
ARC
  5
74A4
  8
0
 10
274.04625023820267
 20
74.610264026799882
 30
0.0
 40
1.0
 50
0.0
 51
64.18440202834887
  0
ARC
  5
74A5
  8
0
 10
280.54625023820279
 20
70.582077847807682
 30
0.0
 40
1.0
 50
0.0
 51
68.962488974578235
  0
ARC
  5
74A6
  8
0
 10
268.04625023820267
 20
78.685485440870593
 30
0.0
 40
1.0
 50
0.0
 51
76.814815600247044
  0
ARC
  5
74A7
  8
0
 10
261.39669328927829
 20
81.508213977180375
 30
0.0
 40
1.0
 50
0.0
 51
71.957612741641853
  0
LINE
  5
74A8
  8
0
 10
262.3966932892784
 20
81.036111777778046
 30
0.0
 11
262.3966932892784
 21
81.508213977180375
 31
0.0
  0
LINE
  5
74A9
  8
0
 10
269.04625023820267
 20
78.139901908117864
 30
0.0
 11
269.04625023820267
 21
78.685485440870593
 31
0.0
  0
LINE
  5
74AA
  8
0
 10
256.54625023820267
 20
84.139901908117864
 30
0.0
 11
261.70641378799269
 21
82.459041623326684
 31
0.0
  0
LINE
  5
74AB
  8
0
 10
256.54625023820262
 20
84.139901908117864
 30
0.0
 11
252.0462502382027
 21
84.139901908117864
 31
0.0
  0
LINE
  5
74AC
  8
0
 10
262.3966932892784
 20
81.036111777778046
 30
0.0
 11
268.27434935167082
 21
79.659123358391852
 31
0.0
  0
LINE
  5
74AD
  8
0
 10
269.04625023820267
 20
78.139901908117864
 30
0.0
 11
274.4817264205908
 21
75.510464279284292
 31
0.0
  0
LINE
  5
74AE
  8
0
 10
275.04625023820267
 20
73.768876946052501
 30
0.0
 11
280.90522931751173
 21
71.515423454010573
 31
0.0
  0
LINE
  5
74AF
  8
0
 10
275.04625023820267
 20
73.768876946052501
 30
0.0
 11
275.04625023820267
 21
74.610264026799882
 31
0.0
  0
LINE
  5
74B0
  8
0
 10
255.54625023820259
 20
85.737373179517945
 30
0.0
 11
227.5462502382027
 21
85.737373179517945
 31
0.0
  0
LINE
  5
74B1
  8
0
 10
262.3966932892784
 20
81.036111777778046
 30
0.0
 11
252.0462502382027
 21
81.036111777778046
 31
0.0
  0
LINE
  5
74B2
  8
0
 10
269.04625023820267
 20
78.139901908117864
 30
0.0
 11
252.0462502382027
 21
78.139901908117807
 31
0.0
  0
LINE
  5
74B3
  8
0
 10
275.04625023820267
 20
73.768876946052501
 30
0.0
 11
250.64485653193469
 21
73.768876946052501
 31
0.0
  0
LINE
  5
74B5
  8
0
 10
281.54625023820267
 20
61.737373179517917
 30
0.0
 11
281.54625023820267
 21
70.582077847807682
 31
0.0
  0
LINE
  5
74B6
  8
0
 10
281.54625023820267
 20
61.737373179517917
 30
0.0
 11
201.54625023820259
 21
61.737373179517917
 31
0.0
  0
LINE
  5
74B7
  8
0
 10
156.768463335017
 20
84.737373179517903
 30
0.0
 11
134.26846333501689
 21
84.737373179517903
 31
0.0
  0
LINE
  5
74B8
  8
0
 10
81.768463335017017
 20
72.230415407590982
 30
0.0
 11
81.768463335017017
 21
84.737373179517903
 31
0.0
  0
LINE
  5
74B9
  8
0
 10
156.768463335017
 20
72.230415407590982
 30
0.0
 11
156.768463335017
 21
84.737373179517903
 31
0.0
  0
LINE
  5
74BA
  8
0
 10
104.268463335017
 20
84.737373179517903
 30
0.0
 11
81.768463335017017
 21
84.737373179517903
 31
0.0
  0
LINE
  5
74BB
  8
1
 10
146.268463335017
 20
85.737373179517945
 30
0.0
 11
146.268463335017
 21
60.737373179517917
 31
0.0
  0
LINE
  5
74BC
  8
1
 10
92.268463335016989
 20
85.737373179517945
 30
0.0
 11
92.268463335016989
 21
60.737373179517917
 31
0.0
  0
CIRCLE
  5
74C3
  8
2
 10
146.268463335017
 20
326.6868443179664
 30
0.0
 40
4.25
  0
LINE
  5
74C4
  8
0
 10
146.268463335017
 20
337.1868443179664
 30
0.0
 11
129.9806059778312
 21
337.1868443179664
 31
0.0
  0
LINE
  5
74C5
  8
0
 10
146.268463335017
 20
316.1868443179664
 30
0.0
 11
129.9806059778312
 21
316.1868443179664
 31
0.0
  0
ARC
  5
74C6
  8
0
 10
146.268463335017
 20
326.6868443179664
 30
0.0
 40
10.5
 50
270.0
 51
90.0
  0
ARC
  5
74C7
  8
0
 10
119.268463335017
 20
326.6868443179664
 30
0.0
 40
20.850443051075668
 50
210.2375607467059
 51
329.76243925329419
  0
ARC
  5
74C8
  8
0
 10
119.268463335017
 20
326.6868443179664
 30
0.0
 40
27.5
 50
202.44635058144991
 51
337.55364941855021
  0
ARC
  5
74C9
  8
0
 10
119.268463335017
 20
326.6868443179664
 30
0.0
 40
33.5
 50
15.759509562175911
 51
164.24049043782409
  0
CIRCLE
  5
74CA
  8
2
 10
92.268463335016989
 20
326.6868443179664
 30
0.0
 40
4.25
  0
ARC
  5
74CB
  8
0
 10
92.268463335016989
 20
326.6868443179664
 30
0.0
 40
10.5
 50
90.0
 51
270.0
  0
LINE
  5
74CC
  8
0
 10
108.5563206922028
 20
316.1868443179664
 30
0.0
 11
92.268463335016989
 21
316.1868443179664
 31
0.0
  0
LINE
  5
74CD
  8
0
 10
108.5563206922028
 20
337.1868443179664
 30
0.0
 11
92.268463335016989
 21
337.1868443179664
 31
0.0
  0
CIRCLE
  5
74CE
  8
0
 10
119.268463335017
 20
326.6868443179664
 30
0.0
 40
15.0
  0
LINE
  5
74CF
  8
1
 10
92.268463335016989
 20
333.93684431796618
 30
0.0
 11
92.268463335016989
 21
319.43684431796629
 31
0.0
  0
LINE
  5
74D0
  8
1
 10
146.268463335017
 20
333.93684431796618
 30
0.0
 11
146.268463335017
 21
319.43684431796629
 31
0.0
  0
LINE
  5
7624
  8
0
 10
231.0462502382027
 20
84.737373179517903
 30
0.0
 11
252.0462502382027
 21
84.737373179517903
 31
0.0
  0
POLYLINE
  5
7625
  8
0
 66
     1
 10
0.0
 20
0.0
 30
0.0
 70
   128
  0
VERTEX
  5
7899
  8
0
 10
250.64485653193469
 20
73.768876946052515
 30
0.0
  0
VERTEX
  5
789A
  8
0
 10
249.65005464369031
 20
73.331695272557468
 30
0.0
  0
VERTEX
  5
789B
  8
0
 10
248.42184584386689
 20
72.958912279657653
 30
0.0
  0
VERTEX
  5
789C
  8
0
 10
246.984435082564
 20
72.65747293667927
 30
0.0
  0
VERTEX
  5
789D
  8
0
 10
245.38214386787541
 20
72.432813053119617
 30
0.0
  0
VERTEX
  5
789E
  8
0
 10
243.70744689344181
 20
72.293087619294752
 30
0.0
  0
VERTEX
  5
789F
  8
0
 10
241.96889833661231
 20
72.23277213415966
 30
0.0
  0
VERTEX
  5
78A0
  8
0
 10
240.25715606530869
 20
72.252676995943986
 30
0.0
  0
VERTEX
  5
78A1
  8
0
 10
238.58192824203459
 20
72.34918541099465
 30
0.0
  0
VERTEX
  5
78A2
  8
0
 10
236.99654197152671
 20
72.520757029789152
 30
0.0
  0
VERTEX
  5
78A3
  8
0
 10
235.53645292303671
 20
72.763653441121363
 30
0.0
  0
VERTEX
  5
78A4
  8
0
 10
234.22202495632411
 20
73.080022427893013
 30
0.0
  0
VERTEX
  5
78A5
  8
0
 10
233.10733119194001
 20
73.460401714916699
 30
0.0
  0
VERTEX
  5
78A6
  8
0
 10
232.44764394447071
 20
73.768876946052515
 30
0.0
  0
SEQEND
  5
78A7
  8
0
  0
ARC
  5
7626
  8
0
 10
251.86648166451809
 20
74.637925235509087
 30
0.0
 40
1.2219382582710441
 50
134.43366307173741
 51
181.2971243796529
  0
LINE
  5
7627
  8
0
 10
250.64485653193469
 20
74.610264026799911
 30
0.0
 11
250.64485653193469
 21
73.768876946052515
 31
0.0
  0
LINE
  5
7628
  8
0
 10
232.44764394447071
 20
73.768876946052515
 30
0.0
 11
232.44764394447071
 21
74.610264026799911
 31
0.0
  0
ARC
  5
7629
  8
0
 10
231.24974552348681
 20
74.647576351792694
 30
0.0
 40
1.1984793851343281
 50
358.21591903933722
 51
46.053293509278397
  0
ARC
  5
762A
  8
0
 10
233.4896341078406
 20
77.508868006107534
 30
0.0
 40
2.4446930022312561
 50
181.87515281252641
 51
234.82990765753121
  0
LINE
  5
762B
  8
0
 10
231.0462502382027
 20
84.737373179517903
 30
0.0
 11
231.0462502382027
 21
77.42887337658901
 31
0.0
  0
LINE
  5
762C
  8
0
 10
252.0462502382027
 20
84.737373179517903
 30
0.0
 11
252.0462502382027
 21
77.42887337658901
 31
0.0
  0
ARC
  5
762D
  8
0
 10
249.49041441416469
 20
77.569550200326091
 30
0.0
 40
2.559704422032516
 50
306.44540145010711
 51
356.84953807984039
  0
LINE
  5
7635
  8
0
 10
231.0462502382027
 20
84.139901908117864
 30
0.0
 11
226.5462502382027
 21
84.139901908117864
 31
0.0
  0
LINE
  5
7638
  8
0
 10
231.0462502382027
 20
81.036111777778046
 30
0.0
 11
220.695807187127
 21
81.036111777778046
 31
0.0
  0
LINE
  5
7639
  8
0
 10
231.0462502382027
 20
78.139901908117807
 30
0.0
 11
214.04625023820259
 21
78.139901908117864
 31
0.0
  0
LINE
  5
763A
  8
0
 10
232.44764394447071
 20
73.768876946052501
 30
0.0
 11
208.0462502382027
 21
73.768876946052501
 31
0.0
  0
LINE
  5
763B
  8
0
 10
256.54625023820262
 20
84.737373179517903
 30
0.0
 11
256.54625023820262
 21
84.139901908117864
 31
0.0
  0
ARC
  5
763C
  8
0
 10
255.54625023820259
 20
84.737373179517903
 30
0.0
 40
1.0
 50
359.99999999999892
 51
90.0
  0
TEXT
  5
787C
  8
0
 62
     3
 10
0.0
 20
0.0
 30
0.0
 40
10.0
  1
LVF80S16C
  7
STANDARD1
  0
ENDSEC
  0
EOF
