  0
SECTION
  2
HEADER
  9
$ACADVER
  1
AC1009
  9
$INSBASE
 10
0.0
 20
0.0
 30
0.0
  9
$EXTMIN
 10
0.0
 20
-2.960436562073669
 30
0.0
  9
$EXTMAX
 10
283.6694653757346
 20
314.62051982002117
 30
0.0
  9
$LIMMIN
 10
0.0
 20
0.0
  9
$LIMMAX
 10
375.0
 20
270.0
  9
$ORTHOMODE
 70
     0
  9
$REGENMODE
 70
     1
  9
$FILLMODE
 70
     1
  9
$QTEXTMODE
 70
     0
  9
$MIRRTEXT
 70
     0
  9
$DRAGMODE
 70
     2
  9
$LTSCALE
 40
6.0
  9
$OSMODE
 70
  3071
  9
$ATTMODE
 70
     1
  9
$TEXTSIZE
 40
0.2
  9
$TRACEWID
 40
0.05
  9
$TEXTSTYLE
  7
STANDARD
  9
$CLAYER
  8
0
  9
$CELTYPE
  6
BYLAYER
  9
$CECOLOR
 62
   256
  9
$DIMSCALE
 40
1.0
  9
$DIMASZ
 40
3.0
  9
$DIMEXO
 40
1.0
  9
$DIMDLI
 40
6.0
  9
$DIMRND
 40
0.0
  9
$DIMDLE
 40
0.0
  9
$DIMEXE
 40
1.0
  9
$DIMTP
 40
495.0
  9
$DIMTM
 40
0.0
  9
$DIMTXT
 40
3.0
  9
$DIMCEN
 40
0.0
  9
$DIMTSZ
 40
0.0
  9
$DIMTOL
 70
     0
  9
$DIMLIM
 70
     0
  9
$DIMTIH
 70
     0
  9
$DIMTOH
 70
     0
  9
$DIMSE1
 70
     0
  9
$DIMSE2
 70
     0
  9
$DIMTAD
 70
     1
  9
$DIMZIN
 70
     0
  9
$DIMBLK
  1

  9
$DIMASO
 70
     0
  9
$DIMSHO
 70
     0
  9
$DIMPOST
  1

  9
$DIMAPOST
  1

  9
$DIMALT
 70
     0
  9
$DIMALTD
 70
     2
  9
$DIMALTF
 40
25.399999999999999
  9
$DIMLFAC
 40
1.0
  9
$DIMTOFL
 70
     1
  9
$DIMTVP
 40
0.0
  9
$DIMTIX
 70
     1
  9
$DIMSOXD
 70
     0
  9
$DIMSAH
 70
     0
  9
$DIMBLK1
  1

  9
$DIMBLK2
  1

  9
$DIMSTYLE
  2
STANDARD
  9
$DIMCLRD
 70
     0
  9
$DIMCLRE
 70
     0
  9
$DIMCLRT
 70
     4
  9
$DIMTFAC
 40
1.0
  9
$DIMGAP
 40
1.0
  9
$LUNITS
 70
     2
  9
$LUPREC
 70
     4
  9
$SKETCHINC
 40
0.1
  9
$FILLETRAD
 40
2.0
  9
$AUNITS
 70
     0
  9
$AUPREC
 70
     0
  9
$MENU
  1
C:\R13\WIN\SUPPORT\ACAD-I
  9
$ELEVATION
 40
0.0
  9
$PELEVATION
 40
0.0
  9
$THICKNESS
 40
0.0
  9
$LIMCHECK
 70
     0
  9
$BLIPMODE
 70
     0
  9
$CHAMFERA
 40
0.0
  9
$CHAMFERB
 40
0.0
  9
$SKPOLY
 70
     0
  9
$TDCREATE
 40
2451962.4742282759
  9
$TDUPDATE
 40
2456597.6177017251
  9
$TDINDWG
 40
0.1097134491
  9
$TDUSRTIMER
 40
2456555.0324539929
  9
$USRTIMER
 70
     1
  9
$ANGBASE
 50
0.0
  9
$ANGDIR
 70
     0
  9
$PDMODE
 70
     0
  9
$PDSIZE
 40
0.0
  9
$PLINEWID
 40
0.0
  9
$COORDS
 70
     1
  9
$SPLFRAME
 70
     0
  9
$SPLINETYPE
 70
     6
  9
$SPLINESEGS
 70
     8
  9
$ATTDIA
 70
     0
  9
$ATTREQ
 70
     1
  9
$HANDLING
 70
     1
  9
$HANDSEED
  5
72A7
  9
$SURFTAB1
 70
     6
  9
$SURFTAB2
 70
     6
  9
$SURFTYPE
 70
     6
  9
$SURFU
 70
     6
  9
$SURFV
 70
     6
  9
$UCSNAME
  2

  9
$UCSORG
 10
0.0
 20
0.0
 30
0.0
  9
$UCSXDIR
 10
1.0
 20
0.0
 30
0.0
  9
$UCSYDIR
 10
0.0
 20
1.0
 30
0.0
  9
$PUCSNAME
  2

  9
$PUCSORG
 10
0.0
 20
0.0
 30
0.0
  9
$PUCSXDIR
 10
1.0
 20
0.0
 30
0.0
  9
$PUCSYDIR
 10
0.0
 20
1.0
 30
0.0
  9
$USERI1
 70
     4
  9
$USERI2
 70
     1
  9
$USERI3
 70
     0
  9
$USERI4
 70
     0
  9
$USERI5
 70
     0
  9
$USERR1
 40
1.0
  9
$USERR2
 40
3.0
  9
$USERR3
 40
3.0
  9
$USERR4
 40
3.0
  9
$USERR5
 40
10.0
  9
$WORLDVIEW
 70
     1
  9
$SHADEDGE
 70
     3
  9
$SHADEDIF
 70
    70
  9
$TILEMODE
 70
     1
  9
$MAXACTVP
 70
    16
  9
$PLIMCHECK
 70
     0
  9
$PEXTMIN
 10
1.0000000000000000E+020
 20
1.0000000000000000E+020
 30
1.0000000000000000E+020
  9
$PEXTMAX
 10
-1.0000000000000000E+020
 20
-1.0000000000000000E+020
 30
-1.0000000000000000E+020
  9
$PLIMMIN
 10
0.0
 20
0.0
  9
$PLIMMAX
 10
12.0
 20
9.0
  9
$UNITMODE
 70
     0
  9
$VISRETAIN
 70
     0
  9
$PLINEGEN
 70
     0
  9
$PSLTSCALE
 70
     0
  0
ENDSEC
  0
SECTION
  2
TABLES
  0
TABLE
  2
VPORT
 70
     1
  0
VPORT
  2
*ACTIVE
 70
     0
 10
0.0
 20
0.0
 11
1.0
 21
1.0
 12
187.49427839065231
 22
156.52156200650151
 13
0.0
 23
0.0
 14
10.0
 24
10.0
 15
10.0
 25
10.0
 16
0.0
 26
0.0
 36
1.0
 17
0.0
 27
0.0
 37
0.0
 40
322.61770580674408
 41
2.304913294797688
 42
50.0
 43
0.0
 44
0.0
 50
0.0
 51
0.0
 71
    16
 72
   100
 73
     1
 74
     0
 75
     0
 76
     0
 77
     0
 78
     0
  0
ENDTAB
  0
TABLE
  2
LTYPE
 70
     4
  0
LTYPE
  2
CONTINUOUS
 70
     0
  3
Solid Line
 72
    65
 73
     0
 40
0.0
  0
LTYPE
  2
PHANTOM2
 70
     0
  3
___ _ _ ___ _ _ ___ _ _ ___ _ _
 72
    65
 73
     6
 40
1.25
 49
0.625
 49
-0.125
 49
0.125
 49
-0.125
 49
0.125
 49
-0.125
  0
LTYPE
  2
CENTER
 70
     0
  3
____ _ ____ _ ____ _ ____ _ ____ _ ____ _ ____
 72
    65
 73
     4
 40
2.0
 49
1.25
 49
-0.25
 49
0.25
 49
-0.25
  0
LTYPE
  2
HIDDEN
 70
     0
  3
_ _ _ _ _ _ _ _ _ _ _ _ _ _ _ _ _ _ _ _ _ _ _
 72
    65
 73
     2
 40
0.375
 49
0.25
 49
-0.125
  0
ENDTAB
  0
TABLE
  2
LAYER
 70
     5
  0
LAYER
  2
0
 70
     0
 62
     7
  6
CONTINUOUS
  0
LAYER
  2
1
 70
     0
 62
     1
  6
CENTER
  0
LAYER
  2
3
 70
     0
 62
     3
  6
CONTINUOUS
  0
LAYER
  2
2
 70
     0
 62
     2
  6
HIDDEN
  0
LAYER
  2
DEFPOINTS
 70
     0
 62
     7
  6
CONTINUOUS
  0
ENDTAB
  0
TABLE
  2
STYLE
 70
     3
  0
STYLE
  2
STANDARD
 70
     0
 40
0.0
 41
1.0
 50
0.0
 71
     0
 42
0.2
  3
SIMPLEX
  4
BIGFONT
  0
STYLE
  2
ANNOTATIVE
 70
     0
 40
0.0
 41
1.0
 50
0.0
 71
     0
 42
0.2
  3
txt
  4

  0
STYLE
  2
STANDARD1
 70
     0
 40
0.0
 41
1.0
 50
0.0
 71
     0
 42
3.0
  3
txt
  4

  0
ENDTAB
  0
TABLE
  2
VIEW
 70
     0
  0
ENDTAB
  0
TABLE
  2
UCS
 70
     0
  0
ENDTAB
  0
TABLE
  2
APPID
 70
    29
  0
APPID
  2
ACAD
 70
     0
  0
APPID
  2
ACADANNOTATIVE
 70
     0
  0
APPID
  2
GENIUS_GENOREF_13
 70
     0
  0
APPID
  2
GENIUS_GENOENT_13
 70
     0
  0
APPID
  2
GENIUS_GENBH_13
 70
     0
  0
APPID
  2
GENIUS_GENOBJ_13
 70
     0
  0
APPID
  2
GENIUS_GENODEF_13
 70
     0
  0
APPID
  2
GENIUS_GENOLIS_13
 70
     0
  0
APPID
  2
GENIUS_GENOBJ-NBEHI-BHF_13
 70
     0
  0
APPID
  2
GENIUS_GENOBJ-NBEHI-BHB_13
 70
     0
  0
APPID
  2
GENIUS_GENOBJ-F-PART_13
 70
     0
  0
APPID
  2
GENIUS_GEFSTDP_13
 70
     0
  0
APPID
  2
GENIUS_GENOBJ-N-RSSYM_13
 70
     0
  0
APPID
  2
GENIUS_GENSYMENT_13
 70
     0
  0
APPID
  2
GENIUS_GENOBJ-N-TIT_13
 70
     0
  0
APPID
  2
GENIUS_GENTITLE_13
 70
     0
  0
APPID
  2
GENIUS_GENZVEED_13
 70
     0
  0
APPID
  2
GENIUS_GENOBJ-N-LEADER_13
 70
     0
  0
APPID
  2
GENIUS_GENOBJ-N-FIL_13
 70
     0
  0
APPID
  2
GENIUS_GENOBJ-N-SEC_13
 70
     0
  0
APPID
  2
GENIUS_GENOBJ-N-CRS_13
 70
     0
  0
APPID
  2
GENIUS_GENOBJ-N-ZOO_13
 70
     0
  0
APPID
  2
GENIUS_GENZOO_13
 70
     0
  0
APPID
  2
GENIUS_GENOBJ-F-TOL_13
 70
     0
  0
APPID
  2
GENIUS_GENFIL_13
 70
     0
  0
APPID
  2
GENIUS_GENOBJ-N-CHA_13
 70
     0
  0
APPID
  2
ACAD_EXEMPT_FROM_CAD_STANDARDS
 70
     0
  0
APPID
  2
ACAD_MLEADERVER
 70
     0
  0
APPID
  2
ACAD_NAV_VCDISPLAY
 70
     0
  0
ENDTAB
  0
TABLE
  2
DIMSTYLE
 70
     2
  0
DIMSTYLE
  2
STANDARD
 70
     0
  3

  4

  5

  6

  7

 40
1.0
 41
0.18
 42
0.0625
 43
0.38
 44
0.18
 45
0.0
 46
0.0
 47
0.0
 48
0.0
140
0.18
141
0.09
142
0.0
143
25.399999999999999
144
1.0
145
0.0
146
1.0
147
0.09
 71
     0
 72
     0
 73
     1
 74
     1
 75
     0
 76
     0
 77
     0
 78
     0
170
     0
171
     2
172
     0
173
     0
174
     0
175
     0
176
     0
177
     0
178
     0
  0
DIMSTYLE
  2
ANNOTATIVE
 70
     0
  3

  4

  5

  6

  7

 40
1.0
 41
0.18
 42
0.0625
 43
0.38
 44
0.18
 45
0.0
 46
0.0
 47
0.0
 48
0.0
140
0.18
141
0.09
142
0.0
143
25.399999999999999
144
1.0
145
0.0
146
1.0
147
0.09
 71
     0
 72
     0
 73
     1
 74
     1
 75
     0
 76
     0
 77
     0
 78
     0
170
     0
171
     2
172
     0
173
     0
174
     0
175
     0
176
     0
177
     0
178
     0
  0
ENDTAB
  0
ENDSEC
  0
SECTION
  2
BLOCKS
  0
BLOCK
  8
0
  2
$MODEL_SPACE
 70
     0
 10
0.0
 20
0.0
 30
0.0
  3
$MODEL_SPACE
  1

  0
ENDBLK
  5
71B6
  8
0
  0
BLOCK
 67
     1
  8
0
  2
$PAPER_SPACE
 70
     0
 10
0.0
 20
0.0
 30
0.0
  3
$PAPER_SPACE
  1

  0
ENDBLK
  5
71B2
 67
     1
  8
0
  0
ENDSEC
  0
SECTION
  2
ENTITIES
  0
LINE
  5
6DAD
  8
0
 10
110.4220233579459
 20
268.90623410573528
 30
0.0
 11
115.9068509152474
 21
259.40623410573539
 31
0.0
  0
LINE
  5
6DAE
  8
0
 10
115.9068509152475
 20
278.40623410573528
 30
0.0
 11
110.4220233579459
 21
268.90623410573528
 31
0.0
  0
LINE
  5
6DAF
  8
0
 10
126.8765060298503
 20
278.40623410573528
 30
0.0
 11
115.9068509152475
 21
278.40623410573528
 31
0.0
  0
LINE
  5
6DB0
  8
0
 10
132.36133358715159
 20
268.90623410573528
 30
0.0
 11
126.8765060298503
 21
278.40623410573528
 31
0.0
  0
LINE
  5
6DB1
  8
0
 10
126.87650602985011
 20
259.40623410573539
 30
0.0
 11
132.36133358715159
 21
268.90623410573528
 31
0.0
  0
CIRCLE
  5
6DB2
  8
3
 10
121.3916784725488
 20
268.90623410573528
 30
0.0
 40
5.052999999999999
  0
CIRCLE
  5
6DB3
  8
0
 10
121.3916784725488
 20
268.90623410573528
 30
0.0
 40
6.0
  0
CIRCLE
  5
6DB4
  8
0
 10
121.3916784725488
 20
268.90623410573528
 30
0.0
 40
9.0
  0
LINE
  5
6DB5
  8
0
 10
115.9068509152474
 20
259.40623410573539
 30
0.0
 11
126.87650602985011
 21
259.40623410573539
 31
0.0
  0
LINE
  5
6DB6
  8
0
 10
249.6694653757344
 20
139.80038674028501
 30
0.0
 11
249.66946537573449
 21
194.80038674028509
 31
0.0
  0
LINE
  5
6DB7
  8
3
 10
248.72246537573449
 20
139.80038674028501
 30
0.0
 11
248.72246537573449
 21
195.74738674028501
 31
0.0
  0
LINE
  5
6DB8
  8
0
 10
237.66946537573449
 20
139.80038674028521
 30
0.0
 11
237.66946537573449
 21
194.80038674028521
 31
0.0
  0
LINE
  5
6DB9
  8
3
 10
238.61646537573449
 20
139.80038674028501
 30
0.0
 11
238.61646537573449
 21
195.74738674028521
 31
0.0
  0
LINE
  5
6DBA
  8
3
 10
238.61646537573441
 20
100.80038674028511
 30
0.0
 11
237.6694653757344
 21
99.160134625517443
 31
0.0
  0
LINE
  5
6DBB
  8
0
 10
239.66946537573449
 20
196.80038674028509
 30
0.0
 11
237.66946537573449
 21
194.80038674028521
 31
0.0
  0
LINE
  5
6DBC
  8
3
 10
238.61646537573441
 20
100.80038674028511
 30
0.0
 11
238.61646537573449
 21
129.80038674028521
 31
0.0
  0
LINE
  5
6DBD
  8
0
 10
237.6694653757344
 20
98.800386740285148
 30
0.0
 11
237.6694653757344
 21
129.80038674028501
 31
0.0
  0
LINE
  5
6DBE
  8
3
 10
248.7224653757344
 20
100.80038674028511
 30
0.0
 11
249.6694653757344
 21
99.160134625517443
 31
0.0
  0
LINE
  5
6DBF
  8
0
 10
249.6694653757344
 20
100.80038674028511
 30
0.0
 11
237.6694653757344
 21
100.80038674028511
 31
0.0
  0
LINE
  5
6DC0
  8
0
 10
237.66946537573449
 20
194.80038674028509
 30
0.0
 11
249.66946537573449
 21
194.80038674028509
 31
0.0
  0
LINE
  5
6DC1
  8
0
 10
247.66946537573449
 20
196.80038674028509
 30
0.0
 11
249.66946537573449
 21
194.80038674028509
 31
0.0
  0
LINE
  5
6DC2
  8
3
 10
248.72246537573449
 20
100.80038674028511
 30
0.0
 11
248.72246537573449
 21
129.80038674028521
 31
0.0
  0
LINE
  5
6DC3
  8
0
 10
249.6694653757344
 20
98.800386740285148
 30
0.0
 11
249.6694653757344
 21
129.80038674028521
 31
0.0
  0
LINE
  5
6DC4
  8
0
 10
239.66946537573449
 20
196.80038674028509
 30
0.0
 11
247.66946537573449
 21
196.80038674028509
 31
0.0
  0
LINE
  5
6DC5
  8
0
 10
243.66946537573119
 20
138.66320582965929
 30
0.0
 11
243.6694653757344
 21
130.93756765091109
 31
0.0
  0
LINE
  5
6DC6
  8
0
 10
252.6694653757344
 20
129.80038674028521
 30
0.0
 11
234.6694653757344
 21
129.80038674028521
 31
0.0
  0
LINE
  5
6DC7
  8
0
 10
234.6694653757344
 20
139.80038674028501
 30
0.0
 11
252.6694653757344
 21
139.80038674028501
 31
0.0
  0
LINE
  5
6DC8
  8
0
 10
234.1694653757344
 20
139.51171160569021
 30
0.0
 11
234.6694653757344
 21
139.80038674028501
 31
0.0
  0
ARC
  5
6DC9
  8
0
 10
238.9194653757344
 20
125.7920277156971
 30
0.0
 40
13.719683889993171
 50
69.743841999613011
 51
110.256158000387
  0
LINE
  5
6DCA
  8
0
 10
234.6694653757344
 20
129.80038674028521
 30
0.0
 11
234.1694653757344
 21
130.1608586446053
 31
0.0
  0
LINE
  5
6DCB
  8
0
 10
234.1694653757344
 20
130.1608586446053
 30
0.0
 11
234.1694653757344
 21
139.51171160569021
 31
0.0
  0
ARC
  5
6DCC
  8
0
 10
238.9194653757344
 20
143.80874576487321
 30
0.0
 40
13.719683889993171
 50
249.74384199961301
 51
290.25615800038707
  0
ARC
  5
6DCD
  8
0
 10
248.4194653757344
 20
143.80874576487321
 30
0.0
 40
13.719683889993171
 50
249.74384199961301
 51
290.25615800038707
  0
LINE
  5
6DCE
  8
0
 10
253.16946537573449
 20
130.1608586446053
 30
0.0
 11
253.16946537573449
 21
139.51171160569021
 31
0.0
  0
LINE
  5
6DCF
  8
0
 10
252.6694653757344
 20
129.80038674028521
 30
0.0
 11
253.16946537573449
 21
130.1608586446053
 31
0.0
  0
ARC
  5
6DD0
  8
0
 10
248.4194653757344
 20
125.7920277156971
 30
0.0
 40
13.719683889993171
 50
69.743841999613011
 51
110.256158000387
  0
LINE
  5
6DD1
  8
0
 10
253.16946537573449
 20
139.51171160569021
 30
0.0
 11
252.6694653757344
 21
139.80038674028501
 31
0.0
  0
LINE
  5
6DD2
  8
0
 10
249.16946537573449
 20
89.800386740284807
 30
0.0
 11
249.16946537573449
 21
93.800386740284921
 31
0.0
  0
LINE
  5
6DD3
  8
0
 10
238.1694653757346
 20
89.800386740284807
 30
0.0
 11
238.1694653757346
 21
93.800386740284921
 31
0.0
  0
ARC
  5
6DD4
  8
0
 10
237.60728754924349
 20
95.066794435401974
 30
0.0
 40
3.5781518477924039
 50
55.615752531961313
 51
115.61575253217271
  0
ARC
  5
6DD5
  8
0
 10
243.66946537573551
 20
85.270161065540606
 30
0.0
 40
13.374785217653811
 50
72.412046225995155
 51
107.5879537740048
  0
LINE
  5
6DD6
  8
0
 10
235.58656160707969
 20
98.019731500855173
 30
0.0
 11
236.93869614496651
 21
98.800386740284694
 31
0.0
  0
LINE
  5
6DD7
  8
0
 10
235.58656160707969
 20
94.581041979714414
 30
0.0
 11
236.93869614496651
 21
93.800386740284921
 31
0.0
  0
ARC
  5
6DD8
  8
0
 10
237.60728754924349
 20
97.533979045167584
 30
0.0
 40
3.5781518477924039
 50
244.38424746782721
 51
304.38424746803872
  0
ARC
  5
6DD9
  8
0
 10
243.66946537573551
 20
107.3306124150288
 30
0.0
 40
13.374785217653811
 50
252.4120462259952
 51
287.58795377400492
  0
LINE
  5
6DDA
  8
0
 10
235.58656160707969
 20
98.019731500855173
 30
0.0
 11
235.58656160707969
 21
94.581041979714414
 31
0.0
  0
LINE
  5
6DDB
  8
0
 10
239.62801349140881
 20
98.01973150085405
 30
0.0
 11
239.62801349140699
 21
94.581041979716019
 31
0.0
  0
LINE
  5
6DDC
  8
0
 10
247.71091726006
 20
98.019731500855656
 30
0.0
 11
247.7109172600619
 21
94.581041979716019
 31
0.0
  0
LINE
  5
6DDD
  8
0
 10
251.75236914438921
 20
98.019731500855173
 30
0.0
 11
251.75236914438921
 21
94.581041979714414
 31
0.0
  0
ARC
  5
6DDE
  8
0
 10
249.7316432022254
 20
97.533979045167584
 30
0.0
 40
3.5781518477924039
 50
235.61575253196131
 51
295.61575253217279
  0
LINE
  5
6DDF
  8
0
 10
251.75236914438921
 20
94.581041979714414
 30
0.0
 11
250.40023460650249
 21
93.800386740284921
 31
0.0
  0
LINE
  5
6DE0
  8
0
 10
251.75236914438921
 20
98.019731500855173
 30
0.0
 11
250.40023460650249
 21
98.800386740284694
 31
0.0
  0
ARC
  5
6DE1
  8
0
 10
249.7316432022254
 20
95.066794435401974
 30
0.0
 40
3.5781518477924039
 50
64.384247467827166
 51
124.38424746803869
  0
LINE
  5
6DE2
  8
0
 10
236.93869614496529
 20
98.800386740284694
 30
0.0
 11
250.40023460650221
 21
98.800386740284694
 31
0.0
  0
LINE
  5
6DE3
  8
0
 10
250.40023460650249
 20
93.800386740284921
 30
0.0
 11
236.93869614496671
 21
93.800386740284921
 31
0.0
  0
LINE
  5
6DE4
  8
0
 10
115.3916784725488
 20
139.80038674028501
 30
0.0
 11
115.3916784725488
 21
194.80038674028521
 31
0.0
  0
LINE
  5
6DE5
  8
3
 10
116.33867847254881
 20
139.80038674028501
 30
0.0
 11
116.33867847254881
 21
195.74738674028521
 31
0.0
  0
LINE
  5
6DE6
  8
3
 10
126.4446784725489
 20
139.80038674028501
 30
0.0
 11
126.4446784725489
 21
195.74738674028501
 31
0.0
  0
LINE
  5
6DE7
  8
0
 10
127.3916784725488
 20
139.80038674028501
 30
0.0
 11
127.3916784725488
 21
194.80038674028509
 31
0.0
  0
LINE
  5
6DE8
  8
0
 10
126.8765060298461
 20
138.6632058296592
 30
0.0
 11
126.8765060298502
 21
130.93756765091061
 31
0.0
  0
LINE
  5
6DE9
  8
0
 10
132.36133358715199
 20
138.6632058296592
 30
0.0
 11
132.36133358715199
 21
130.93756765091081
 31
0.0
  0
LINE
  5
6DEA
  8
0
 10
115.9068509152517
 20
138.6632058296592
 30
0.0
 11
115.9068509152477
 21
130.93756765091061
 31
0.0
  0
LINE
  5
6DEB
  8
0
 10
110.4220233579459
 20
138.6632058296592
 30
0.0
 11
110.4220233579459
 21
130.93756765091081
 31
0.0
  0
LINE
  5
6DEC
  8
0
 10
110.4220233579459
 20
130.93756765091101
 30
0.0
 11
112.3916784725476
 21
129.80038674028501
 31
0.0
  0
ARC
  5
6DED
  8
0
 10
113.1644371365966
 20
134.9451250968884
 30
0.0
 40
4.8560632220084567
 50
244.38424746808721
 51
304.3842474680165
  0
ARC
  5
6DEE
  8
0
 10
121.3916784725489
 20
148.2405560988654
 30
0.0
 40
18.15149422398537
 50
252.41204622603641
 51
287.5879537739637
  0
ARC
  5
6DEF
  8
0
 10
129.61891980850129
 20
134.9451250968884
 30
0.0
 40
4.8560632220084567
 50
235.61575253198339
 51
295.61575253191279
  0
LINE
  5
6DF0
  8
0
 10
132.36133358715199
 20
130.93756765091101
 30
0.0
 11
130.3916784725503
 21
129.80038674028501
 31
0.0
  0
LINE
  5
6DF1
  8
0
 10
112.3916784725476
 20
129.80038674028501
 30
0.0
 11
130.3916784725503
 21
129.80038674028501
 31
0.0
  0
LINE
  5
6DF2
  8
0
 10
112.3916784725476
 20
139.80038674028501
 30
0.0
 11
130.3916784725503
 21
139.80038674028501
 31
0.0
  0
LINE
  5
6DF3
  8
0
 10
132.36133358715199
 20
138.6632058296592
 30
0.0
 11
130.3916784725503
 21
139.80038674028501
 31
0.0
  0
ARC
  5
6DF4
  8
0
 10
129.61891980850129
 20
134.65564838368161
 30
0.0
 40
4.8560632220084567
 50
64.384247468087239
 51
124.3842474680165
  0
ARC
  5
6DF5
  8
0
 10
121.3916784725489
 20
121.3602173817047
 30
0.0
 40
18.15149422398537
 50
72.412046226036352
 51
107.5879537739636
  0
ARC
  5
6DF6
  8
0
 10
113.1644371365966
 20
134.65564838368161
 30
0.0
 40
4.8560632220084567
 50
55.615752531983432
 51
115.6157525319127
  0
LINE
  5
6DF7
  8
0
 10
110.4220233579459
 20
138.6632058296592
 30
0.0
 11
112.3916784725476
 21
139.80038674028501
 31
0.0
  0
LINE
  5
6DF8
  8
0
 10
117.3916784725488
 20
196.80038674028509
 30
0.0
 11
125.3916784725488
 21
196.80038674028509
 31
0.0
  0
LINE
  5
6DF9
  8
0
 10
127.3916784725488
 20
98.800386740285148
 30
0.0
 11
127.3916784725488
 21
129.80038674028501
 31
0.0
  0
LINE
  5
6DFA
  8
3
 10
126.4446784725488
 20
100.80038674028511
 30
0.0
 11
126.4446784725488
 21
129.80038674028501
 31
0.0
  0
LINE
  5
6DFB
  8
3
 10
116.33867847254881
 20
100.80038674028511
 30
0.0
 11
116.33867847254881
 21
129.80038674028501
 31
0.0
  0
LINE
  5
6DFC
  8
0
 10
115.3916784725488
 20
98.800386740285148
 30
0.0
 11
115.3916784725488
 21
129.80038674028501
 31
0.0
  0
LINE
  5
6DFD
  8
0
 10
117.3916784725488
 20
196.80038674028509
 30
0.0
 11
115.3916784725488
 21
194.80038674028521
 31
0.0
  0
LINE
  5
6DFE
  8
0
 10
125.3916784725488
 20
196.80038674028509
 30
0.0
 11
127.3916784725488
 21
194.80038674028509
 31
0.0
  0
LINE
  5
6DFF
  8
0
 10
115.3916784725488
 20
194.80038674028509
 30
0.0
 11
127.3916784725489
 21
194.80038674028509
 31
0.0
  0
LINE
  5
6E00
  8
0
 10
127.3916784725488
 20
100.80038674028511
 30
0.0
 11
115.3916784725488
 21
100.80038674028511
 31
0.0
  0
LINE
  5
6E01
  8
3
 10
116.33867847254881
 20
100.80038674028511
 30
0.0
 11
115.3916784725488
 21
99.160134625517443
 31
0.0
  0
LINE
  5
6E02
  8
3
 10
126.4446784725488
 20
100.80038674028511
 30
0.0
 11
127.3916784725488
 21
99.160134625517443
 31
0.0
  0
ARC
  5
6E03
  8
0
 10
124.89167847254841
 20
104.0650679584123
 30
0.0
 40
10.10924076103746
 50
249.74384199958331
 51
290.25615800041669
  0
LINE
  5
6E04
  8
0
 10
128.39167847254851
 20
93.955827197374902
 30
0.0
 11
128.1224477033166
 21
93.800386740284694
 31
0.0
  0
LINE
  5
6E05
  8
0
 10
114.39167847254851
 20
93.955827197374902
 30
0.0
 11
114.6609092417805
 21
93.800386740284694
 31
0.0
  0
ARC
  5
6E06
  8
0
 10
117.8916784725487
 20
104.0650679584123
 30
0.0
 40
10.10924076103746
 50
249.74384199958331
 51
290.25615800041669
  0
LINE
  5
6E07
  8
0
 10
128.1224477033166
 20
93.800386740284694
 30
0.0
 11
114.6609092417805
 21
93.800386740284694
 31
0.0
  0
ARC
  5
6E08
  8
0
 10
124.89167847254841
 20
88.535705522156945
 30
0.0
 40
10.10924076103746
 50
69.743841999583282
 51
110.2561580004167
  0
LINE
  5
6E09
  8
0
 10
128.39167847254851
 20
98.644946283194358
 30
0.0
 11
128.1224477033166
 21
98.800386740284694
 31
0.0
  0
LINE
  5
6E0A
  8
0
 10
114.39167847254851
 20
98.644946283194358
 30
0.0
 11
114.6609092417805
 21
98.800386740284694
 31
0.0
  0
ARC
  5
6E0B
  8
0
 10
117.8916784725487
 20
88.535705522156945
 30
0.0
 40
10.10924076103746
 50
69.743841999583282
 51
110.2561580004167
  0
LINE
  5
6E0C
  8
0
 10
128.1224477033166
 20
98.800386740284694
 30
0.0
 11
114.6609092417805
 21
98.800386740284694
 31
0.0
  0
LINE
  5
6E0D
  8
0
 10
128.39167847254851
 20
98.644946283194358
 30
0.0
 11
128.39167847254851
 21
93.955827197374902
 31
0.0
  0
LINE
  5
6E0E
  8
0
 10
114.39167847254851
 20
98.644946283194358
 30
0.0
 11
114.39167847254851
 21
93.955827197374902
 31
0.0
  0
LINE
  5
6E0F
  8
0
 10
121.39167847254851
 20
98.019731500855173
 30
0.0
 11
121.39167847254851
 21
94.581041979714058
 31
0.0
  0
LINE
  5
6E10
  8
0
 10
115.8916784725487
 20
89.800386740284807
 30
0.0
 11
115.8916784725487
 21
93.800386740284694
 31
0.0
  0
LINE
  5
6E11
  8
0
 10
126.89167847254861
 20
89.800386740284807
 30
0.0
 11
126.89167847254861
 21
93.800386740284694
 31
0.0
  0
LINE
  5
6E12
  8
1
 10
148.39167847254879
 20
276.15623410573528
 30
0.0
 11
148.39167847254879
 21
261.65623410573528
 31
0.0
  0
LINE
  5
6E13
  8
1
 10
94.391678472548847
 20
276.15623410573528
 30
0.0
 11
94.391678472548847
 21
261.65623410573528
 31
0.0
  0
CIRCLE
  5
6E14
  8
0
 10
121.3916784725488
 20
268.90623410573528
 30
0.0
 40
15.0
  0
LINE
  5
6E15
  8
0
 10
110.6795358297346
 20
279.40623410573528
 30
0.0
 11
94.391678472548847
 21
279.40623410573528
 31
0.0
  0
LINE
  5
6E16
  8
0
 10
110.6795358297346
 20
258.40623410573528
 30
0.0
 11
94.391678472548847
 21
258.40623410573528
 31
0.0
  0
ARC
  5
6E17
  8
0
 10
94.391678472548847
 20
268.90623410573528
 30
0.0
 40
10.5
 50
90.0
 51
270.0
  0
CIRCLE
  5
6E18
  8
2
 10
94.391678472548847
 20
268.90623410573528
 30
0.0
 40
4.25
  0
ARC
  5
6E19
  8
0
 10
121.3916784725488
 20
268.90623410573528
 30
0.0
 40
33.5
 50
15.759509562175911
 51
164.24049043782409
  0
ARC
  5
6E1A
  8
0
 10
121.3916784725488
 20
268.90623410573528
 30
0.0
 40
27.5
 50
202.44635058144991
 51
337.55364941855021
  0
ARC
  5
6E1B
  8
0
 10
121.3916784725488
 20
268.90623410573528
 30
0.0
 40
20.850443051075668
 50
210.2375607467059
 51
329.76243925329419
  0
ARC
  5
6E1C
  8
0
 10
148.39167847254879
 20
268.90623410573528
 30
0.0
 40
10.5
 50
270.0
 51
90.0
  0
LINE
  5
6E1D
  8
0
 10
148.39167847254879
 20
258.40623410573528
 30
0.0
 11
132.10382111536299
 21
258.40623410573528
 31
0.0
  0
LINE
  5
6E1E
  8
0
 10
148.39167847254879
 20
279.40623410573528
 30
0.0
 11
132.10382111536299
 21
279.40623410573528
 31
0.0
  0
CIRCLE
  5
6E1F
  8
2
 10
148.39167847254879
 20
268.90623410573528
 30
0.0
 40
4.25
  0
LINE
  5
6E26
  8
1
 10
94.391678472548847
 20
89.800386740285148
 30
0.0
 11
94.391678472548847
 21
64.800386740285134
 31
0.0
  0
LINE
  5
6E27
  8
1
 10
148.39167847254879
 20
89.800386740285148
 30
0.0
 11
148.39167847254879
 21
64.800386740285134
 31
0.0
  0
LINE
  5
6E28
  8
0
 10
106.3916784725488
 20
88.800386740285106
 30
0.0
 11
83.891678472548833
 21
88.800386740285106
 31
0.0
  0
LINE
  5
6E29
  8
0
 10
158.89167847254879
 20
76.293428968358185
 30
0.0
 11
158.89167847254879
 21
88.800386740285106
 31
0.0
  0
LINE
  5
6E2A
  8
0
 10
83.891678472548833
 20
76.293428968358199
 30
0.0
 11
83.891678472548833
 21
88.800386740285106
 31
0.0
  0
LINE
  5
6E2B
  8
0
 10
158.89167847254879
 20
88.800386740285106
 30
0.0
 11
136.39167847254879
 21
88.800386740285106
 31
0.0
  0
LINE
  5
6E2C
  8
0
 10
283.6694653757346
 20
65.800386740285134
 30
0.0
 11
203.6694653757344
 21
65.800386740285134
 31
0.0
  0
LINE
  5
6E2D
  8
0
 10
283.6694653757346
 20
65.800386740285134
 30
0.0
 11
283.6694653757346
 21
74.645091408574785
 31
0.0
  0
LINE
  5
6E2F
  8
0
 10
277.16946537573449
 20
77.831890506819704
 30
0.0
 11
252.76807166946651
 21
77.831890506819704
 31
0.0
  0
LINE
  5
6E30
  8
0
 10
271.16946537573449
 20
82.202915468885053
 30
0.0
 11
254.16946537573449
 21
82.202915468885053
 31
0.0
  0
LINE
  5
6E31
  8
0
 10
264.51990842681028
 20
85.099125338545264
 30
0.0
 11
254.16946537573449
 21
85.099125338545264
 31
0.0
  0
LINE
  5
6E32
  8
0
 10
257.66946537573449
 20
89.800386740285148
 30
0.0
 11
229.66946537573449
 21
89.800386740285148
 31
0.0
  0
LINE
  5
6E33
  8
0
 10
277.16946537573449
 20
77.831890506819704
 30
0.0
 11
277.16946537573449
 21
78.673277587567085
 31
0.0
  0
LINE
  5
6E34
  8
0
 10
277.16946537573449
 20
77.831890506819704
 30
0.0
 11
283.02844445504343
 21
75.578437014777819
 31
0.0
  0
LINE
  5
6E35
  8
0
 10
271.16946537573449
 20
82.202915468885053
 30
0.0
 11
276.60494155812262
 21
79.573477840051396
 31
0.0
  0
LINE
  5
6E36
  8
0
 10
264.51990842681028
 20
85.099125338545264
 30
0.0
 11
270.39756448920258
 21
83.72213691915897
 31
0.0
  0
LINE
  5
6E37
  8
0
 10
258.66946537573438
 20
88.202915468885053
 30
0.0
 11
254.1694653757346
 21
88.202915468885053
 31
0.0
  0
LINE
  5
6E38
  8
0
 10
258.66946537573449
 20
88.202915468885053
 30
0.0
 11
263.8296289255245
 21
86.522055184093915
 31
0.0
  0
LINE
  5
6E39
  8
0
 10
258.66946537573449
 20
88.800386740285148
 30
0.0
 11
258.66946537573449
 21
88.202915468885053
 31
0.0
  0
LINE
  5
6E3A
  8
0
 10
271.16946537573449
 20
82.202915468885053
 30
0.0
 11
271.16946537573449
 21
82.748499001637811
 31
0.0
  0
LINE
  5
6E3B
  8
0
 10
264.51990842681028
 20
85.099125338545264
 30
0.0
 11
264.51990842681028
 21
85.571227537947593
 31
0.0
  0
ARC
  5
6E3C
  8
0
 10
257.66946537573449
 20
88.800386740285148
 30
0.0
 40
1.0
 50
359.99999999999892
 51
90.0
  0
ARC
  5
6E3D
  8
0
 10
263.5199084268101
 20
85.571227537947593
 30
0.0
 40
1.0
 50
0.0
 51
71.957612741641853
  0
ARC
  5
6E3E
  8
0
 10
270.16946537573449
 20
82.748499001637811
 30
0.0
 40
1.0
 50
0.0
 51
76.814815600247044
  0
ARC
  5
6E3F
  8
0
 10
282.66946537573472
 20
74.645091408574785
 30
0.0
 40
1.0
 50
0.0
 51
68.962488974578235
  0
ARC
  5
6E40
  8
0
 10
276.16946537573449
 20
78.673277587567085
 30
0.0
 40
1.0
 50
0.0
 51
64.18440202834887
  0
ARC
  5
6E42
  8
0
 10
211.16946537573449
 20
78.673277587567085
 30
0.0
 40
1.0
 50
115.8155979716511
 51
180.0
  0
ARC
  5
6E43
  8
0
 10
204.6694653757344
 20
74.645091408574785
 30
0.0
 40
1.0
 50
111.03751102542169
 51
180.0
  0
ARC
  5
6E44
  8
0
 10
217.16946537573449
 20
82.748499001637811
 30
0.0
 40
1.0
 50
103.1851843997529
 51
180.0
  0
ARC
  5
6E45
  8
0
 10
223.81902232465879
 20
85.571227537947593
 30
0.0
 40
1.0
 50
108.0423872583581
 51
180.0
  0
ARC
  5
6E46
  8
0
 10
229.66946537573449
 20
88.800386740285148
 30
0.0
 40
1.0
 50
90.0
 51
180.00000000000099
  0
LINE
  5
6E47
  8
0
 10
222.81902232465879
 20
85.099125338545264
 30
0.0
 11
222.81902232465879
 21
85.571227537947593
 31
0.0
  0
LINE
  5
6E48
  8
0
 10
216.1694653757344
 20
82.202915468885053
 30
0.0
 11
216.1694653757344
 21
82.748499001637811
 31
0.0
  0
LINE
  5
6E49
  8
0
 10
228.66946537573449
 20
88.800386740285148
 30
0.0
 11
228.66946537573449
 21
88.202915468885053
 31
0.0
  0
LINE
  5
6E4A
  8
0
 10
228.66946537573449
 20
88.202915468885053
 30
0.0
 11
223.5093018259445
 21
86.522055184093915
 31
0.0
  0
LINE
  5
6E4B
  8
0
 10
222.81902232465879
 20
85.099125338545264
 30
0.0
 11
216.9413662622664
 21
83.72213691915897
 31
0.0
  0
LINE
  5
6E4C
  8
0
 10
216.16946537573449
 20
82.202915468885053
 30
0.0
 11
210.73398919334639
 21
79.573477840051396
 31
0.0
  0
LINE
  5
6E4D
  8
0
 10
210.16946537573449
 20
77.831890506819704
 30
0.0
 11
204.31048629642549
 21
75.578437014777819
 31
0.0
  0
LINE
  5
6E4E
  8
0
 10
210.16946537573449
 20
77.831890506819704
 30
0.0
 11
210.16946537573449
 21
78.673277587567085
 31
0.0
  0
LINE
  5
6E4F
  8
0
 10
203.6694653757344
 20
65.800386740285134
 30
0.0
 11
203.6694653757344
 21
74.645091408574785
 31
0.0
  0
LINE
  5
6E51
  8
1
 10
243.66946537573449
 20
60.800386740285141
 30
0.0
 11
243.66946537573449
 21
201.80038674028509
 31
0.0
  0
LINE
  5
6E52
  8
1
 10
121.3916784725488
 20
60.800386740285141
 30
0.0
 11
121.3916784725488
 21
201.80038674028509
 31
0.0
  0
ARC
  5
6E53
  8
0
 10
121.3916784725488
 20
268.90623410573528
 30
0.0
 40
20.850443051075668
 50
30.237560746705888
 51
149.7624392532941
  0
ARC
  5
6E54
  8
0
 10
121.3916784725488
 20
268.90623410573528
 30
0.0
 40
27.5
 50
22.44635058144987
 51
157.55364941855009
  0
ARC
  5
6E55
  8
0
 10
121.3916784725488
 20
268.90623410573528
 30
0.0
 40
33.5
 50
195.75950956217591
 51
344.24049043782401
  0
LINE
  5
6E57
  8
0
 10
81.391678472548804
 20
65.800386740285134
 30
0.0
 11
81.391678472548762
 21
74.645091408574785
 31
0.0
  0
LINE
  5
6E58
  8
0
 10
87.891678472548833
 20
77.831890506819704
 30
0.0
 11
87.891678472548833
 21
78.673277587567085
 31
0.0
  0
LINE
  5
6E59
  8
0
 10
87.891678472548833
 20
77.831890506819704
 30
0.0
 11
82.032699393239881
 21
75.578437014777819
 31
0.0
  0
LINE
  5
6E5A
  8
0
 10
93.891678472548847
 20
82.202915468885053
 30
0.0
 11
88.456202290160775
 21
79.573477840051396
 31
0.0
  0
LINE
  5
6E5B
  8
0
 10
100.5412354214731
 20
85.099125338545264
 30
0.0
 11
94.663579359080728
 21
83.72213691915897
 31
0.0
  0
LINE
  5
6E5C
  8
0
 10
106.3916784725488
 20
88.202915468885053
 30
0.0
 11
101.23151492275881
 21
86.522055184093915
 31
0.0
  0
LINE
  5
6E5D
  8
0
 10
106.3916784725488
 20
88.800386740285148
 30
0.0
 11
106.3916784725488
 21
88.202915468885053
 31
0.0
  0
LINE
  5
6E5E
  8
0
 10
93.891678472548804
 20
82.202915468885053
 30
0.0
 11
93.891678472548804
 21
82.748499001637811
 31
0.0
  0
LINE
  5
6E5F
  8
0
 10
100.5412354214731
 20
85.099125338545264
 30
0.0
 11
100.5412354214731
 21
85.571227537947593
 31
0.0
  0
ARC
  5
6E60
  8
0
 10
107.3916784725488
 20
88.800386740285148
 30
0.0
 40
1.0
 50
90.0
 51
180.00000000000099
  0
ARC
  5
6E61
  8
0
 10
101.5412354214731
 20
85.571227537947593
 30
0.0
 40
1.0
 50
108.0423872583581
 51
180.0
  0
ARC
  5
6E62
  8
0
 10
94.891678472548847
 20
82.748499001637811
 30
0.0
 40
1.0
 50
103.1851843997529
 51
180.0
  0
ARC
  5
6E63
  8
0
 10
82.391678472548733
 20
74.645091408574785
 30
0.0
 40
1.0
 50
111.03751102542169
 51
180.0
  0
ARC
  5
6E64
  8
0
 10
88.891678472548833
 20
78.673277587567085
 30
0.0
 40
1.0
 50
115.8155979716511
 51
180.0
  0
ARC
  5
6E66
  8
0
 10
153.89167847254879
 20
78.673277587567085
 30
0.0
 40
1.0
 50
0.0
 51
64.18440202834887
  0
ARC
  5
6E67
  8
0
 10
160.3916784725489
 20
74.645091408574785
 30
0.0
 40
1.0
 50
0.0
 51
68.962488974578235
  0
ARC
  5
6E68
  8
0
 10
147.89167847254879
 20
82.748499001637811
 30
0.0
 40
1.0
 50
0.0
 51
76.814815600247044
  0
ARC
  5
6E69
  8
0
 10
141.24212152362449
 20
85.571227537947593
 30
0.0
 40
1.0
 50
0.0
 51
71.957612741641853
  0
ARC
  5
6E6A
  8
0
 10
135.39167847254879
 20
88.800386740285148
 30
0.0
 40
1.0
 50
359.99999999999892
 51
90.0
  0
LINE
  5
6E6B
  8
0
 10
142.24212152362449
 20
85.099125338545264
 30
0.0
 11
142.24212152362449
 21
85.571227537947593
 31
0.0
  0
LINE
  5
6E6C
  8
0
 10
148.89167847254879
 20
82.202915468885053
 30
0.0
 11
148.89167847254879
 21
82.748499001637811
 31
0.0
  0
LINE
  5
6E6D
  8
0
 10
136.39167847254879
 20
88.800386740285148
 30
0.0
 11
136.39167847254879
 21
88.202915468885053
 31
0.0
  0
LINE
  5
6E6E
  8
0
 10
136.39167847254879
 20
88.202915468885053
 30
0.0
 11
141.5518420223388
 21
86.522055184093915
 31
0.0
  0
LINE
  5
6E6F
  8
0
 10
136.39167847254879
 20
88.202915468885053
 30
0.0
 11
106.3916784725488
 21
88.202915468885053
 31
0.0
  0
LINE
  5
6E70
  8
0
 10
142.24212152362449
 20
85.099125338545264
 30
0.0
 11
148.11977758601691
 21
83.72213691915897
 31
0.0
  0
LINE
  5
6E71
  8
0
 10
148.89167847254879
 20
82.202915468885053
 30
0.0
 11
154.32715465493681
 21
79.573477840051396
 31
0.0
  0
LINE
  5
6E72
  8
0
 10
154.89167847254879
 20
77.831890506819704
 30
0.0
 11
160.75065755185781
 21
75.578437014777819
 31
0.0
  0
LINE
  5
6E73
  8
0
 10
154.89167847254879
 20
77.831890506819704
 30
0.0
 11
154.89167847254879
 21
78.673277587567085
 31
0.0
  0
LINE
  5
6E74
  8
0
 10
135.39167847254879
 20
89.800386740285148
 30
0.0
 11
107.3916784725488
 21
89.800386740285148
 31
0.0
  0
LINE
  5
6E75
  8
0
 10
142.2421215236246
 20
85.099125338545264
 30
0.0
 11
100.5412354214731
 21
85.099125338545264
 31
0.0
  0
LINE
  5
6E76
  8
0
 10
148.89167847254879
 20
82.202915468885053
 30
0.0
 11
93.891678472548804
 21
82.202915468885053
 31
0.0
  0
LINE
  5
6E77
  8
0
 10
154.89167847254879
 20
77.831890506819704
 30
0.0
 11
87.891678472548833
 21
77.831890506819704
 31
0.0
  0
LINE
  5
6E78
  8
1
 10
167.1059641868346
 20
268.90623410573528
 30
0.0
 11
75.677392758263068
 21
268.90623410573528
 31
0.0
  0
LINE
  5
6E79
  8
1
 10
121.3916784725488
 20
314.62051982002117
 30
0.0
 11
121.3916784725488
 21
223.19194839144961
 31
0.0
  0
CIRCLE
  5
6E7A
  8
0
 10
121.3916784725488
 20
268.90623410573528
 30
0.0
 40
40.00000000000005
  0
LINE
  5
6E7C
  8
0
 10
161.3916784725489
 20
65.800386740285134
 30
0.0
 11
161.3916784725489
 21
74.645091408574785
 31
0.0
  0
LINE
  5
6E7D
  8
0
 10
161.3916784725489
 20
65.800386740285134
 30
0.0
 11
81.391678472548804
 21
65.800386740285134
 31
0.0
  0
LINE
  5
6FDA
  8
0
 10
233.16946537573449
 20
88.800386740285106
 30
0.0
 11
254.16946537573449
 21
88.800386740285106
 31
0.0
  0
POLYLINE
  5
6FDB
  8
0
 66
     1
 10
0.0
 20
0.0
 30
0.0
 70
   128
  0
VERTEX
  5
7258
  8
0
 10
252.76807166946651
 20
77.831890506819732
 30
0.0
  0
VERTEX
  5
7259
  8
0
 10
251.77326978122201
 20
77.394708833324671
 30
0.0
  0
VERTEX
  5
725A
  8
0
 10
250.54506098139871
 20
77.021925840424871
 30
0.0
  0
VERTEX
  5
725B
  8
0
 10
249.10765022009591
 20
76.720486497446487
 30
0.0
  0
VERTEX
  5
725C
  8
0
 10
247.5053590054072
 20
76.49582661388682
 30
0.0
  0
VERTEX
  5
725D
  8
0
 10
245.8306620309736
 20
76.35610118006197
 30
0.0
  0
VERTEX
  5
725E
  8
0
 10
244.0921134741441
 20
76.295785694926906
 30
0.0
  0
VERTEX
  5
725F
  8
0
 10
242.38037120284051
 20
76.315690556711203
 30
0.0
  0
VERTEX
  5
7260
  8
0
 10
240.70514337956641
 20
76.412198971761853
 30
0.0
  0
VERTEX
  5
7261
  8
0
 10
239.1197571090585
 20
76.583770590556369
 30
0.0
  0
VERTEX
  5
7262
  8
0
 10
237.65966806056849
 20
76.826667001888566
 30
0.0
  0
VERTEX
  5
7263
  8
0
 10
236.34524009385589
 20
77.14303598866023
 30
0.0
  0
VERTEX
  5
7264
  8
0
 10
235.23054632947191
 20
77.523415275683931
 30
0.0
  0
VERTEX
  5
7265
  8
0
 10
234.5708590820025
 20
77.831890506819732
 30
0.0
  0
SEQEND
  5
7266
  8
0
  0
ARC
  5
6FDC
  8
0
 10
253.98969680204991
 20
78.70093879627629
 30
0.0
 40
1.2219382582710441
 50
134.43366307173761
 51
181.2971243796529
  0
LINE
  5
6FDD
  8
0
 10
252.76807166946651
 20
78.673277587567142
 30
0.0
 11
252.76807166946651
 21
77.831890506819732
 31
0.0
  0
LINE
  5
6FDE
  8
0
 10
234.5708590820025
 20
77.831890506819732
 30
0.0
 11
234.5708590820025
 21
78.673277587567142
 31
0.0
  0
ARC
  5
6FDF
  8
0
 10
233.3729606610186
 20
78.710589912559911
 30
0.0
 40
1.1984793851343281
 50
358.21591903933722
 51
46.053293509278397
  0
ARC
  5
6FE0
  8
0
 10
235.6128492453725
 20
81.571881566874751
 30
0.0
 40
2.4446930022312561
 50
181.87515281252641
 51
234.82990765753141
  0
LINE
  5
6FE1
  8
0
 10
233.16946537573449
 20
88.800386740285106
 30
0.0
 11
233.16946537573449
 21
81.491886937356199
 31
0.0
  0
LINE
  5
6FE2
  8
0
 10
254.16946537573449
 20
88.800386740285106
 30
0.0
 11
254.16946537573449
 21
81.491886937356199
 31
0.0
  0
ARC
  5
6FE3
  8
0
 10
251.6136295516965
 20
81.632563761093294
 30
0.0
 40
2.559704422032516
 50
306.44540145010711
 51
356.84953807984039
  0
LINE
  5
6FEB
  8
0
 10
234.5708590820025
 20
77.831890506819704
 30
0.0
 11
210.16946537573449
 21
77.831890506819704
 31
0.0
  0
LINE
  5
6FEE
  8
0
 10
233.16946537573449
 20
82.202915468885053
 30
0.0
 11
216.1694653757344
 21
82.202915468885053
 31
0.0
  0
LINE
  5
6FEF
  8
0
 10
233.16946537573449
 20
85.099125338545264
 30
0.0
 11
222.81902232465879
 21
85.099125338545264
 31
0.0
  0
LINE
  5
6FF0
  8
0
 10
233.16946537573449
 20
88.202915468885053
 30
0.0
 11
228.66946537573449
 21
88.202915468885053
 31
0.0
  0
TEXT
  5
723B
  8
0
 62
     3
 10
0.0
 20
0.0
 30
0.0
 40
10.0
  1
LVF80S12C
  7
STANDARD1
  0
ENDSEC
  0
EOF
