  0
SECTION
  2
HEADER
  9
$ACADVER
  1
AC1009
  9
$INSBASE
 10
0.0
 20
0.0
 30
0.0
  9
$EXTMIN
 10
0.0
 20
-2.960436562073669
 30
0.0
  9
$EXTMAX
 10
427.79435446788358
 20
482.85072654345112
 30
0.0
  9
$LIMMIN
 10
0.0
 20
0.0
  9
$LIMMAX
 10
375.0
 20
270.0
  9
$ORTHOMODE
 70
     1
  9
$REGENMODE
 70
     1
  9
$FILLMODE
 70
     1
  9
$QTEXTMODE
 70
     0
  9
$MIRRTEXT
 70
     0
  9
$DRAGMODE
 70
     2
  9
$LTSCALE
 40
10.0
  9
$OSMODE
 70
  3071
  9
$ATTMODE
 70
     1
  9
$TEXTSIZE
 40
0.2
  9
$TRACEWID
 40
0.05
  9
$TEXTSTYLE
  7
STANDARD
  9
$CLAYER
  8
0
  9
$CELTYPE
  6
BYLAYER
  9
$CECOLOR
 62
   256
  9
$DIMSCALE
 40
1.0
  9
$DIMASZ
 40
3.0
  9
$DIMEXO
 40
1.0
  9
$DIMDLI
 40
6.0
  9
$DIMRND
 40
0.0
  9
$DIMDLE
 40
0.0
  9
$DIMEXE
 40
1.0
  9
$DIMTP
 40
495.0
  9
$DIMTM
 40
0.0
  9
$DIMTXT
 40
3.0
  9
$DIMCEN
 40
0.0
  9
$DIMTSZ
 40
0.0
  9
$DIMTOL
 70
     0
  9
$DIMLIM
 70
     0
  9
$DIMTIH
 70
     0
  9
$DIMTOH
 70
     0
  9
$DIMSE1
 70
     0
  9
$DIMSE2
 70
     0
  9
$DIMTAD
 70
     1
  9
$DIMZIN
 70
     0
  9
$DIMBLK
  1

  9
$DIMASO
 70
     0
  9
$DIMSHO
 70
     0
  9
$DIMPOST
  1

  9
$DIMAPOST
  1

  9
$DIMALT
 70
     0
  9
$DIMALTD
 70
     2
  9
$DIMALTF
 40
25.399999999999999
  9
$DIMLFAC
 40
1.0
  9
$DIMTOFL
 70
     1
  9
$DIMTVP
 40
0.0
  9
$DIMTIX
 70
     1
  9
$DIMSOXD
 70
     0
  9
$DIMSAH
 70
     0
  9
$DIMBLK1
  1

  9
$DIMBLK2
  1

  9
$DIMSTYLE
  2
STANDARD
  9
$DIMCLRD
 70
     0
  9
$DIMCLRE
 70
     0
  9
$DIMCLRT
 70
     4
  9
$DIMTFAC
 40
1.0
  9
$DIMGAP
 40
1.0
  9
$LUNITS
 70
     2
  9
$LUPREC
 70
     4
  9
$SKETCHINC
 40
0.1
  9
$FILLETRAD
 40
2.0
  9
$AUNITS
 70
     0
  9
$AUPREC
 70
     0
  9
$MENU
  1
C:\R13\WIN\SUPPORT\ACAD-I
  9
$ELEVATION
 40
0.0
  9
$PELEVATION
 40
0.0
  9
$THICKNESS
 40
0.0
  9
$LIMCHECK
 70
     0
  9
$BLIPMODE
 70
     0
  9
$CHAMFERA
 40
0.0
  9
$CHAMFERB
 40
0.0
  9
$SKPOLY
 70
     0
  9
$TDCREATE
 40
2451963.5423450461
  9
$TDUPDATE
 40
2456597.6173478351
  9
$TDINDWG
 40
0.1428340046
  9
$TDUSRTIMER
 40
2456554.3017117819
  9
$USRTIMER
 70
     1
  9
$ANGBASE
 50
0.0
  9
$ANGDIR
 70
     0
  9
$PDMODE
 70
     0
  9
$PDSIZE
 40
0.0
  9
$PLINEWID
 40
0.0
  9
$COORDS
 70
     1
  9
$SPLFRAME
 70
     0
  9
$SPLINETYPE
 70
     6
  9
$SPLINESEGS
 70
     8
  9
$ATTDIA
 70
     0
  9
$ATTREQ
 70
     1
  9
$HANDLING
 70
     1
  9
$HANDSEED
  5
D1AD
  9
$SURFTAB1
 70
     6
  9
$SURFTAB2
 70
     6
  9
$SURFTYPE
 70
     6
  9
$SURFU
 70
     6
  9
$SURFV
 70
     6
  9
$UCSNAME
  2

  9
$UCSORG
 10
0.0
 20
0.0
 30
0.0
  9
$UCSXDIR
 10
1.0
 20
0.0
 30
0.0
  9
$UCSYDIR
 10
0.0
 20
1.0
 30
0.0
  9
$PUCSNAME
  2

  9
$PUCSORG
 10
0.0
 20
0.0
 30
0.0
  9
$PUCSXDIR
 10
1.0
 20
0.0
 30
0.0
  9
$PUCSYDIR
 10
0.0
 20
1.0
 30
0.0
  9
$USERI1
 70
     4
  9
$USERI2
 70
     1
  9
$USERI3
 70
     0
  9
$USERI4
 70
     0
  9
$USERI5
 70
     0
  9
$USERR1
 40
1.0
  9
$USERR2
 40
3.0
  9
$USERR3
 40
3.0
  9
$USERR4
 40
3.0
  9
$USERR5
 40
10.0
  9
$WORLDVIEW
 70
     1
  9
$SHADEDGE
 70
     3
  9
$SHADEDIF
 70
    70
  9
$TILEMODE
 70
     1
  9
$MAXACTVP
 70
    16
  9
$PLIMCHECK
 70
     0
  9
$PEXTMIN
 10
1.0000000000000000E+020
 20
1.0000000000000000E+020
 30
1.0000000000000000E+020
  9
$PEXTMAX
 10
-1.0000000000000000E+020
 20
-1.0000000000000000E+020
 30
-1.0000000000000000E+020
  9
$PLIMMIN
 10
0.0
 20
0.0
  9
$PLIMMAX
 10
12.0
 20
9.0
  9
$UNITMODE
 70
     0
  9
$VISRETAIN
 70
     0
  9
$PLINEGEN
 70
     0
  9
$PSLTSCALE
 70
     0
  0
ENDSEC
  0
SECTION
  2
TABLES
  0
TABLE
  2
VPORT
 70
     1
  0
VPORT
  2
*ACTIVE
 70
     0
 10
0.0
 20
0.0
 11
1.0
 21
1.0
 12
213.89717822997821
 22
241.00354248411989
 13
0.0
 23
0.0
 14
10.0
 24
10.0
 15
10.0
 25
10.0
 16
0.0
 26
0.0
 36
1.0
 17
0.0
 27
0.0
 37
0.0
 40
493.51494916365863
 41
2.304913294797688
 42
50.0
 43
0.0
 44
0.0
 50
0.0
 51
0.0
 71
    16
 72
   100
 73
     1
 74
     0
 75
     0
 76
     0
 77
     0
 78
     0
  0
ENDTAB
  0
TABLE
  2
LTYPE
 70
     4
  0
LTYPE
  2
CONTINUOUS
 70
     0
  3
Solid Line
 72
    65
 73
     0
 40
0.0
  0
LTYPE
  2
PHANTOM2
 70
     0
  3
___ _ _ ___ _ _ ___ _ _ ___ _ _
 72
    65
 73
     6
 40
1.25
 49
0.625
 49
-0.125
 49
0.125
 49
-0.125
 49
0.125
 49
-0.125
  0
LTYPE
  2
CENTER
 70
     0
  3
____ _ ____ _ ____ _ ____ _ ____ _ ____ _ ____
 72
    65
 73
     4
 40
2.0
 49
1.25
 49
-0.25
 49
0.25
 49
-0.25
  0
LTYPE
  2
HIDDEN
 70
     0
  3
_ _ _ _ _ _ _ _ _ _ _ _ _ _ _ _ _ _ _ _ _ _ _
 72
    65
 73
     2
 40
0.375
 49
0.25
 49
-0.125
  0
ENDTAB
  0
TABLE
  2
LAYER
 70
     5
  0
LAYER
  2
0
 70
     0
 62
     7
  6
CONTINUOUS
  0
LAYER
  2
1
 70
     0
 62
     1
  6
CENTER
  0
LAYER
  2
3
 70
     0
 62
     3
  6
CONTINUOUS
  0
LAYER
  2
2
 70
     0
 62
     2
  6
HIDDEN
  0
LAYER
  2
DEFPOINTS
 70
     0
 62
     7
  6
CONTINUOUS
  0
ENDTAB
  0
TABLE
  2
STYLE
 70
     3
  0
STYLE
  2
STANDARD
 70
     0
 40
0.0
 41
1.0
 50
0.0
 71
     0
 42
0.2
  3
SIMPLEX
  4
BIGFONT
  0
STYLE
  2
ANNOTATIVE
 70
     0
 40
0.0
 41
1.0
 50
0.0
 71
     0
 42
0.2
  3
txt
  4

  0
STYLE
  2
STANDARD1
 70
     0
 40
0.0
 41
1.0
 50
0.0
 71
     0
 42
3.0
  3
txt
  4

  0
ENDTAB
  0
TABLE
  2
VIEW
 70
     0
  0
ENDTAB
  0
TABLE
  2
UCS
 70
     0
  0
ENDTAB
  0
TABLE
  2
APPID
 70
    30
  0
APPID
  2
ACAD
 70
     0
  0
APPID
  2
ACADANNOTATIVE
 70
     0
  0
APPID
  2
GENIUS_GENOREF_13
 70
     0
  0
APPID
  2
GENIUS_GENOENT_13
 70
     0
  0
APPID
  2
GENIUS_GENBH_13
 70
     0
  0
APPID
  2
GENIUS_GENOBJ_13
 70
     0
  0
APPID
  2
GENIUS_GENODEF_13
 70
     0
  0
APPID
  2
GENIUS_GENOLIS_13
 70
     0
  0
APPID
  2
GENIUS_GENOBJ-NBEHI-BHF_13
 70
     0
  0
APPID
  2
GENIUS_GENOBJ-NBEHI-BHB_13
 70
     0
  0
APPID
  2
GENIUS_GENOBJ-F-PART_13
 70
     0
  0
APPID
  2
GENIUS_GEFSTDP_13
 70
     0
  0
APPID
  2
GENIUS_GENOBJ-N-RSSYM_13
 70
     0
  0
APPID
  2
GENIUS_GENSYMENT_13
 70
     0
  0
APPID
  2
GENIUS_GENOBJ-N-TIT_13
 70
     0
  0
APPID
  2
GENIUS_GENTITLE_13
 70
     0
  0
APPID
  2
GENIUS_GENZVEED_13
 70
     0
  0
APPID
  2
GENIUS_GENOBJ-N-LEADER_13
 70
     0
  0
APPID
  2
GENIUS_GENOBJ-N-FIL_13
 70
     0
  0
APPID
  2
GENIUS_GENOBJ-N-SEC_13
 70
     0
  0
APPID
  2
GENIUS_GENOBJ-N-CRS_13
 70
     0
  0
APPID
  2
GENIUS_GENOBJ-N-ZOO_13
 70
     0
  0
APPID
  2
GENIUS_GENZOO_13
 70
     0
  0
APPID
  2
GENIUS_GENOBJ-F-TOL_13
 70
     0
  0
APPID
  2
GENIUS_GENFIL_13
 70
     0
  0
APPID
  2
GENIUS_GENOBJ-N-CHA_13
 70
     0
  0
APPID
  2
_CALL_MAC$
 70
     0
  0
APPID
  2
ACAD_EXEMPT_FROM_CAD_STANDARDS
 70
     0
  0
APPID
  2
ACAD_MLEADERVER
 70
     0
  0
APPID
  2
ACAD_NAV_VCDISPLAY
 70
     0
  0
ENDTAB
  0
TABLE
  2
DIMSTYLE
 70
     2
  0
DIMSTYLE
  2
STANDARD
 70
     0
  3

  4

  5

  6

  7

 40
1.0
 41
0.18
 42
0.0625
 43
0.38
 44
0.18
 45
0.0
 46
0.0
 47
0.0
 48
0.0
140
0.18
141
0.09
142
0.0
143
25.399999999999999
144
1.0
145
0.0
146
1.0
147
0.09
 71
     0
 72
     0
 73
     1
 74
     1
 75
     0
 76
     0
 77
     0
 78
     0
170
     0
171
     2
172
     0
173
     0
174
     0
175
     0
176
     0
177
     0
178
     0
  0
DIMSTYLE
  2
ANNOTATIVE
 70
     0
  3

  4

  5

  6

  7

 40
1.0
 41
0.18
 42
0.0625
 43
0.38
 44
0.18
 45
0.0
 46
0.0
 47
0.0
 48
0.0
140
0.18
141
0.09
142
0.0
143
25.399999999999999
144
1.0
145
0.0
146
1.0
147
0.09
 71
     0
 72
     0
 73
     1
 74
     1
 75
     0
 76
     0
 77
     0
 78
     0
170
     0
171
     2
172
     0
173
     0
174
     0
175
     0
176
     0
177
     0
178
     0
  0
ENDTAB
  0
ENDSEC
  0
SECTION
  2
BLOCKS
  0
BLOCK
  8
0
  2
$MODEL_SPACE
 70
     0
 10
0.0
 20
0.0
 30
0.0
  3
$MODEL_SPACE
  1

  0
ENDBLK
  5
D0C0
  8
0
  0
BLOCK
 67
     1
  8
0
  2
$PAPER_SPACE
 70
     0
 10
0.0
 20
0.0
 30
0.0
  3
$PAPER_SPACE
  1

  0
ENDBLK
  5
D0BC
 67
     1
  8
0
  0
ENDSEC
  0
SECTION
  2
ENTITIES
  0
LINE
  5
CC96
  8
0
 10
350.79435446788341
 20
117.4673619176106
 30
0.0
 11
347.9738463921949
 21
115.8389408208603
 31
0.0
  0
ARC
  5
CC97
  8
0
 10
352.30397341111723
 20
109.5112185377394
 30
0.0
 40
7.6674682452751766
 50
55.61575253199382
 51
115.61575252954199
  0
ARC
  5
CC98
  8
0
 10
352.30397341111723
 20
109.5112185377394
 30
0.0
 40
7.6674682452751766
 50
124.38424746800619
 51
124.38424746800619
  0
ARC
  5
CC99
  8
0
 10
365.29435446795691
 20
88.518432745621894
 30
0.0
 40
28.660254037392811
 50
72.412046225871535
 51
107.5879537744292
  0
ARC
  5
CC9A
  8
0
 10
352.30397341111723
 20
115.4235052974812
 30
0.0
 40
7.6674682452751766
 50
235.61575253199379
 51
235.61575253199379
  0
ARC
  5
CC9B
  8
0
 10
352.30397341111723
 20
115.4235052974812
 30
0.0
 40
7.6674682452751766
 50
244.38424747045801
 51
304.38424746800621
  0
LINE
  5
CC9C
  8
0
 10
350.79435446788341
 20
107.46736191761001
 30
0.0
 11
347.9738463921949
 21
109.09578301436029
 31
0.0
  0
LINE
  5
CC9D
  8
0
 10
347.97384639219518
 20
115.8389408208602
 30
0.0
 11
347.97384639191131
 21
109.095783014524
 31
0.0
  0
LINE
  5
CC9E
  8
0
 10
356.63410043003933
 20
109.0957830143837
 30
0.0
 11
356.6341004301932
 21
115.8389408208602
 31
0.0
  0
ARC
  5
CC9F
  8
0
 10
365.29435446795691
 20
136.4162910895985
 30
0.0
 40
28.660254037392811
 50
252.4120462255708
 51
287.58795377412838
  0
LINE
  5
CCA0
  8
0
 10
373.95460850572772
 20
109.0957830143837
 30
0.0
 11
373.95460850557367
 21
115.8389408208602
 31
0.0
  0
LINE
  5
CCA1
  8
0
 10
382.61486254357192
 20
115.8389408208602
 30
0.0
 11
382.61486254385562
 21
109.095783014524
 31
0.0
  0
LINE
  5
CCA2
  8
0
 10
379.79435446788341
 20
107.46736191761001
 30
0.0
 11
382.61486254357209
 21
109.09578301436029
 31
0.0
  0
ARC
  5
CCA3
  8
0
 10
378.28473552464959
 20
115.4235052974812
 30
0.0
 40
7.6674682452751766
 50
235.61575253199379
 51
295.61575252954202
  0
ARC
  5
CCA4
  8
0
 10
378.28473552464959
 20
115.4235052974812
 30
0.0
 40
7.6674682452751766
 50
304.38424746800621
 51
304.38424746800621
  0
ARC
  5
CCA5
  8
0
 10
378.28473552464959
 20
109.5112185377394
 30
0.0
 40
7.6674682452751766
 50
55.61575253199382
 51
55.61575253199382
  0
ARC
  5
CCA6
  8
0
 10
378.28473552464959
 20
109.5112185377394
 30
0.0
 40
7.6674682452751766
 50
64.384247470457979
 51
124.38424746800619
  0
LINE
  5
CCA7
  8
0
 10
379.79435446788341
 20
117.4673619176106
 30
0.0
 11
382.61486254357209
 21
115.8389408208603
 31
0.0
  0
LINE
  5
CCA8
  8
0
 10
350.79435446788341
 20
117.4673619176106
 30
0.0
 11
379.7943544678842
 21
117.46736191761021
 31
0.0
  0
ARC
  5
CCAA
  8
0
 10
165.37277128335961
 20
95.516028009346542
 30
0.0
 40
21.662658773668529
 50
69.743841999599255
 51
110.2561580004007
  0
LINE
  5
CCAB
  8
0
 10
172.37277128335811
 20
117.4673619176104
 30
0.0
 11
172.87277128335941
 21
117.178686783015
 31
0.0
  0
LINE
  5
CCAC
  8
0
 10
172.37277128335811
 20
107.4673619176103
 30
0.0
 11
172.87277128335941
 21
107.7560370522059
 31
0.0
  0
ARC
  5
CCAD
  8
0
 10
165.37277128335961
 20
129.4186958258741
 30
0.0
 40
21.662658773668529
 50
249.7438419995992
 51
290.25615800040072
  0
LINE
  5
CCAE
  8
0
 10
172.87277128335961
 20
117.178686783015
 30
0.0
 11
172.87277128335941
 21
107.7560370522057
 31
0.0
  0
LINE
  5
CCAF
  8
0
 10
142.87277128335961
 20
117.178686783015
 30
0.0
 11
142.8727712833599
 21
107.7560370522057
 31
0.0
  0
ARC
  5
CCB0
  8
0
 10
150.37277128335961
 20
129.4186958258741
 30
0.0
 40
21.662658773668529
 50
249.7438419995992
 51
290.25615800040072
  0
LINE
  5
CCB1
  8
0
 10
143.37277128336109
 20
107.4673619176103
 30
0.0
 11
142.8727712833599
 21
107.7560370522059
 31
0.0
  0
LINE
  5
CCB2
  8
0
 10
143.37277128336109
 20
117.4673619176104
 30
0.0
 11
142.8727712833599
 21
117.178686783015
 31
0.0
  0
ARC
  5
CCB3
  8
0
 10
150.37277128335961
 20
95.516028009346542
 30
0.0
 40
21.662658773668529
 50
69.743841999599255
 51
110.2561580004007
  0
LINE
  5
CCB4
  8
0
 10
143.37277128336109
 20
117.4673619176104
 30
0.0
 11
172.37277128335811
 21
117.4673619176104
 31
0.0
  0
LINE
  5
CCB6
  8
0
 10
157.8727712833597
 20
115.8389408208604
 30
0.0
 11
157.8727712833597
 21
109.0957830143555
 31
0.0
  0
ARC
  5
CCB7
  8
0
 10
157.8727712833597
 20
410.35072654345117
 30
0.0
 40
55.499999999999503
 50
191.45374122364311
 51
348.54625877635681
  0
ARC
  5
CCB8
  8
0
 10
157.8727712833597
 20
410.35072654345117
 30
0.0
 40
41.499999999999901
 50
198.2553818955659
 51
341.74461810443393
  0
ARC
  5
CCB9
  8
0
 10
157.8727712833597
 20
410.35072654345117
 30
0.0
 40
48.499999999999901
 50
195.54774223314749
 51
344.45225776685248
  0
LINE
  5
CCBA
  8
0
 10
110.3727712833599
 20
423.35072654345117
 30
0.0
 11
125.3766176648161
 21
423.35072654345117
 31
0.0
  0
LINE
  5
CCBB
  8
0
 10
110.3727712833599
 20
397.35072654345117
 30
0.0
 11
125.3766176648161
 21
397.35072654345117
 31
0.0
  0
ARC
  5
CCBC
  8
0
 10
110.3727712833599
 20
410.35072654345117
 30
0.0
 40
12.99999999999997
 50
90.0
 51
270.0
  0
CIRCLE
  5
CCBD
  8
2
 10
110.3727712833598
 20
410.35072654345117
 30
0.0
 40
6.25
  0
LINE
  5
CCBE
  8
1
 10
110.3727712833598
 20
421.60072654345112
 30
0.0
 11
110.3727712833598
 21
399.10072654345117
 31
0.0
  0
LINE
  5
CCBF
  8
1
 10
205.3727712833597
 20
421.60072654345112
 30
0.0
 11
205.3727712833597
 21
399.10072654345117
 31
0.0
  0
CIRCLE
  5
CCC0
  8
2
 10
205.3727712833597
 20
410.35072654345117
 30
0.0
 40
6.25
  0
ARC
  5
CCC1
  8
0
 10
205.37277128335961
 20
410.35072654345117
 30
0.0
 40
12.99999999999997
 50
270.0
 51
90.0
  0
LINE
  5
CCC2
  8
0
 10
205.37277128335961
 20
397.35072654345117
 30
0.0
 11
190.3689249019032
 21
397.35072654345117
 31
0.0
  0
LINE
  5
CCC3
  8
0
 10
205.37277128335961
 20
423.35072654345117
 30
0.0
 11
190.3689249019032
 21
423.35072654345117
 31
0.0
  0
LINE
  5
CCCA
  8
0
 10
97.372771283359867
 20
85.467361917610305
 30
0.0
 11
122.87277128336019
 21
85.467361917610219
 31
0.0
  0
LINE
  5
CCCB
  8
0
 10
97.372771283359853
 20
78.72190737215567
 30
0.0
 11
97.372771283359867
 21
85.467361917610305
 31
0.0
  0
LINE
  5
CCCC
  8
1
 10
110.3727712833599
 20
90.467361917610219
 30
0.0
 11
110.3727712833599
 21
57.467361917610432
 31
0.0
  0
LINE
  5
CCCD
  8
1
 10
205.37277128335961
 20
90.467361917610219
 30
0.0
 11
205.3727712833595
 21
57.46736191761034
 31
0.0
  0
LINE
  5
CCCE
  8
0
 10
218.37277128335961
 20
78.72190737215567
 30
0.0
 11
218.3727712833595
 21
85.467361917610305
 31
0.0
  0
LINE
  5
CCCF
  8
0
 10
218.3727712833595
 20
85.467361917610305
 30
0.0
 11
192.8727712833591
 21
85.467361917610219
 31
0.0
  0
LINE
  5
CCD0
  8
0
 10
350.29435446788392
 20
117.1786867830161
 30
0.0
 11
350.29435446788392
 21
179.4673619175874
 31
0.0
  0
LINE
  5
CCD1
  8
3
 10
352.18885446788391
 20
122.4673619176105
 30
0.0
 11
352.18885446788391
 21
179.4673619175874
 31
0.0
  0
LINE
  5
CCD2
  8
3
 10
378.39985446788393
 20
122.4673619176104
 30
0.0
 11
378.39985446788393
 21
179.4673619175874
 31
0.0
  0
LINE
  5
CCD3
  8
0
 10
380.29435446788392
 20
117.17868678301561
 30
0.0
 11
380.29435446788392
 21
179.4673619175874
 31
0.0
  0
LINE
  5
CCD4
  8
0
 10
350.29435446788392
 20
203.4673619175876
 30
0.0
 11
350.29435446788392
 21
268.96736191761028
 31
0.0
  0
LINE
  5
CCD5
  8
3
 10
352.18885446788391
 20
203.4673619175876
 30
0.0
 11
352.18885446788391
 21
270.8618619176101
 31
0.0
  0
LINE
  5
CCD6
  8
0
 10
380.29435446788392
 20
203.4673619175876
 30
0.0
 11
380.29435446788392
 21
268.96736191761028
 31
0.0
  0
LINE
  5
CCD7
  8
3
 10
378.39985446788393
 20
203.4673619175876
 30
0.0
 11
378.39985446788393
 21
270.8618619176101
 31
0.0
  0
LINE
  5
CCD8
  8
0
 10
380.29435446788392
 20
268.96736191761028
 30
0.0
 11
376.79435446788392
 21
272.46736191761028
 31
0.0
  0
LINE
  5
CCD9
  8
0
 10
350.29435446788392
 20
268.96736191761028
 30
0.0
 11
380.29435446788392
 21
268.96736191761028
 31
0.0
  0
LINE
  5
CCDA
  8
0
 10
350.29435446788392
 20
268.96736191761028
 30
0.0
 11
353.79435446788392
 21
272.46736191761028
 31
0.0
  0
LINE
  5
CCDB
  8
0
 10
353.79435446788392
 20
272.46736191761028
 30
0.0
 11
376.79435446788392
 21
272.46736191761028
 31
0.0
  0
LINE
  5
CCDF
  8
0
 10
302.79435446788381
 20
62.46736191761034
 30
0.0
 11
302.79435446788369
 21
77.586568006655384
 31
0.0
  0
LINE
  5
CCE0
  8
0
 10
344.29435446788381
 20
107.46736191761021
 30
0.0
 11
330.29435446788381
 21
85.467361917610219
 31
0.0
  0
LINE
  5
CCE1
  8
0
 10
330.29435446788381
 20
85.467361917610219
 30
0.0
 11
324.5476751872489
 21
84.004570827994044
 31
0.0
  0
LINE
  5
CCE2
  8
0
 10
309.79435446788381
 20
79.358271008519296
 30
0.0
 11
309.79435446788381
 21
79.368386188473551
 31
0.0
  0
LINE
  5
CCE3
  8
0
 10
316.79435446788381
 20
81.140089190337463
 30
0.0
 11
316.79435446788381
 21
81.150204370291704
 31
0.0
  0
LINE
  5
CCE4
  8
0
 10
323.79435446788381
 20
82.921907372155701
 30
0.0
 11
323.79435446788381
 21
83.035473654071097
 31
0.0
  0
LINE
  5
CCE5
  8
0
 10
303.66810018820968
 20
78.578565918379013
 30
0.0
 11
309.79435446788381
 21
79.358271008519296
 31
0.0
  0
LINE
  5
CCE6
  8
0
 10
310.66810018820979
 20
80.360384100197152
 30
0.0
 11
316.79435446788381
 21
81.140089190337463
 31
0.0
  0
LINE
  5
CCE7
  8
0
 10
317.66810018820968
 20
82.14220228201529
 30
0.0
 11
323.79435446788381
 21
82.921907372155701
 31
0.0
  0
ARC
  5
CCE8
  8
0
 10
324.79435446788381
 20
83.035473654071097
 30
0.0
 40
1.0
 50
104.28109573597089
 51
180.0
  0
ARC
  5
CCE9
  8
0
 10
317.79435446788381
 20
81.150204370291704
 30
0.0
 40
1.0
 50
97.253194612725281
 51
180.0
  0
ARC
  5
CCEA
  8
0
 10
310.79435446788381
 20
79.368386188473551
 30
0.0
 40
1.0
 50
97.253194612725352
 51
179.99999999999821
  0
ARC
  5
CCEB
  8
0
 10
303.79435446788369
 20
77.586568006655384
 30
0.0
 40
1.0
 50
97.253194612725352
 51
180.00000000000051
  0
LINE
  5
CCEC
  8
0
 10
400.29435446788369
 20
85.467361917610219
 30
0.0
 11
378.29435446788381
 21
85.467361917610248
 31
0.0
  0
LINE
  5
CCED
  8
0
 10
406.79435446788352
 20
82.921907372155701
 30
0.0
 11
378.29435446788369
 21
82.921907372155701
 31
0.0
  0
LINE
  5
CCEE
  8
0
 10
413.79435446788369
 20
81.140089190337463
 30
0.0
 11
378.29435446788369
 21
81.140089190337463
 31
0.0
  0
LINE
  5
CCEF
  8
0
 10
420.79435446788369
 20
79.358271008519296
 30
0.0
 11
376.31526076244768
 21
79.358271008519338
 31
0.0
  0
ARC
  5
CCF0
  8
0
 10
426.79435446788358
 20
77.586568006655384
 30
0.0
 40
1.0
 50
359.9999999999996
 51
82.746805387274634
  0
ARC
  5
CCF1
  8
0
 10
419.79435446788358
 20
79.368386188473551
 30
0.0
 40
1.0
 50
0.000000000001832
 51
82.746805387274634
  0
ARC
  5
CCF2
  8
0
 10
412.79435446788369
 20
81.150204370291704
 30
0.0
 40
1.0
 50
0.0
 51
82.746805387274705
  0
ARC
  5
CCF3
  8
0
 10
405.79435446788369
 20
83.035473654071097
 30
0.0
 40
1.0
 50
0.0
 51
75.718904264029092
  0
LINE
  5
CCF4
  8
0
 10
412.92060874755759
 20
82.14220228201529
 30
0.0
 11
406.79435446788352
 21
82.921907372155701
 31
0.0
  0
LINE
  5
CCF5
  8
0
 10
419.92060874755759
 20
80.360384100197152
 30
0.0
 11
413.79435446788369
 21
81.140089190337463
 31
0.0
  0
LINE
  5
CCF6
  8
0
 10
426.92060874755759
 20
78.578565918379013
 30
0.0
 11
420.79435446788369
 21
79.358271008519296
 31
0.0
  0
LINE
  5
CCF7
  8
0
 10
406.79435446788352
 20
82.921907372155701
 30
0.0
 11
406.79435446788352
 21
83.035473654071097
 31
0.0
  0
LINE
  5
CCF8
  8
0
 10
413.79435446788369
 20
81.140089190337463
 30
0.0
 11
413.79435446788369
 21
81.150204370291704
 31
0.0
  0
LINE
  5
CCF9
  8
0
 10
420.79435446788369
 20
79.358271008519296
 30
0.0
 11
420.79435446788369
 21
79.368386188473551
 31
0.0
  0
LINE
  5
CCFA
  8
0
 10
400.29435446788369
 20
85.467361917610219
 30
0.0
 11
406.04103374851849
 21
84.004570827994044
 31
0.0
  0
LINE
  5
CCFB
  8
0
 10
386.29435446788381
 20
107.46736191761021
 30
0.0
 11
400.29435446788369
 21
85.467361917610219
 31
0.0
  0
LINE
  5
CCFC
  8
0
 10
386.29435446788381
 20
107.46736191761021
 30
0.0
 11
344.29435446788381
 21
107.46736191761021
 31
0.0
  0
LINE
  5
CCFD
  8
0
 10
427.79435446788358
 20
62.467361917610219
 30
0.0
 11
427.79435446788358
 21
77.586568006655384
 31
0.0
  0
LINE
  5
CCFE
  8
0
 10
427.79435446788358
 20
62.467361917610219
 30
0.0
 11
302.79435446788381
 21
62.46736191761034
 31
0.0
  0
LINE
  5
CCFF
  8
3
 10
378.39985446788393
 20
122.4673619176105
 30
0.0
 11
380.29435446788392
 21
119.1859916626712
 31
0.0
  0
LINE
  5
CD00
  8
3
 10
352.18885446788391
 20
122.4673619176105
 30
0.0
 11
350.29435446788392
 21
119.1859916626712
 31
0.0
  0
LINE
  5
CD01
  8
0
 10
350.29435446788392
 20
122.4673619176105
 30
0.0
 11
380.29435446788392
 21
122.4673619176105
 31
0.0
  0
LINE
  5
CD02
  8
3
 10
170.97827128335959
 20
203.4673619175872
 30
0.0
 11
170.97827128335959
 21
270.8618619176105
 31
0.0
  0
LINE
  5
CD03
  8
0
 10
172.87277128335961
 20
203.4673619175872
 30
0.0
 11
172.87277128335961
 21
268.9673619176105
 31
0.0
  0
LINE
  5
CD04
  8
3
 10
144.76727128335969
 20
203.4673619175872
 30
0.0
 11
144.76727128335969
 21
270.8618619176105
 31
0.0
  0
LINE
  5
CD05
  8
0
 10
142.87277128335961
 20
203.4673619175872
 30
0.0
 11
142.87277128335961
 21
268.9673619176105
 31
0.0
  0
LINE
  5
CD08
  8
0
 10
146.3727712833597
 20
272.46736191761062
 30
0.0
 11
169.3727712833597
 21
272.46736191761062
 31
0.0
  0
LINE
  5
CD09
  8
0
 10
172.87277128335961
 20
117.1786867830147
 30
0.0
 11
172.87277128335961
 21
179.46736191758711
 31
0.0
  0
LINE
  5
CD0A
  8
3
 10
170.97827128335959
 20
122.4673619176104
 30
0.0
 11
170.97827128335959
 21
179.46736191758711
 31
0.0
  0
LINE
  5
CD0B
  8
3
 10
144.76727128335969
 20
122.4673619176105
 30
0.0
 11
144.76727128335969
 21
179.46736191758711
 31
0.0
  0
LINE
  5
CD0C
  8
0
 10
142.87277128335961
 20
117.1786867830149
 30
0.0
 11
142.87277128335961
 21
179.46736191758711
 31
0.0
  0
LINE
  5
CD0D
  8
0
 10
142.87277128335961
 20
268.9673619176105
 30
0.0
 11
146.3727712833597
 21
272.46736191761062
 31
0.0
  0
LINE
  5
CD0E
  8
0
 10
142.87277128335961
 20
268.9673619176105
 30
0.0
 11
172.87277128335961
 21
268.9673619176105
 31
0.0
  0
LINE
  5
CD0F
  8
0
 10
172.87277128335961
 20
268.9673619176105
 30
0.0
 11
169.3727712833597
 21
272.46736191761062
 31
0.0
  0
LINE
  5
CD10
  8
0
 10
142.87277128335961
 20
122.4673619176105
 30
0.0
 11
172.87277128335961
 21
122.4673619176105
 31
0.0
  0
LINE
  5
CD11
  8
3
 10
144.76727128335969
 20
122.4673619176105
 30
0.0
 11
142.87277128335961
 21
119.1859916626712
 31
0.0
  0
LINE
  5
CD12
  8
3
 10
170.97827128335959
 20
122.4673619176105
 30
0.0
 11
172.87277128335961
 21
119.1859916626712
 31
0.0
  0
CIRCLE
  5
CD13
  8
3
 10
157.8727712833597
 20
410.35072654345117
 30
0.0
 40
13.1
  0
LINE
  5
CD14
  8
0
 10
184.42277128335959
 20
410.35072654345117
 30
0.0
 11
171.15177128335961
 21
433.35072654345112
 31
0.0
  0
LINE
  5
CD15
  8
0
 10
171.15177128335961
 20
387.35072654345117
 30
0.0
 11
184.42277128335959
 21
410.35072654345117
 31
0.0
  0
LINE
  5
CD16
  8
0
 10
131.3227712833596
 20
410.35072654345117
 30
0.0
 11
144.59377128335959
 21
433.35072654345112
 31
0.0
  0
LINE
  5
CD17
  8
0
 10
144.59377128335959
 20
387.35072654345117
 30
0.0
 11
131.3227712833596
 21
410.35072654345117
 31
0.0
  0
LINE
  5
CD18
  8
0
 10
171.15177128335961
 20
433.35072654345112
 30
0.0
 11
144.59377128335959
 21
433.35072654345112
 31
0.0
  0
LINE
  5
CD19
  8
0
 10
171.15177128335961
 20
387.35072654345117
 30
0.0
 11
144.59377128335959
 21
387.35072654345117
 31
0.0
  0
CIRCLE
  5
CD1A
  8
0
 10
157.8727712833597
 20
410.35072654345117
 30
0.0
 40
15.0
  0
CIRCLE
  5
CD1B
  8
0
 10
157.8727712833597
 20
410.35072654345117
 30
0.0
 40
23.0
  0
LINE
  5
CD2B
  8
0
 10
220.37277128335961
 20
62.46736191761034
 30
0.0
 11
95.372771283359725
 21
62.467361917610432
 31
0.0
  0
LINE
  5
CD2C
  8
0
 10
220.3727712833597
 20
62.46736191761034
 30
0.0
 11
220.3727712833597
 21
77.586568006655497
 31
0.0
  0
LINE
  5
CD2E
  8
0
 10
178.8727712833597
 20
107.4673619176103
 30
0.0
 11
136.8727712833597
 21
107.4673619176103
 31
0.0
  0
LINE
  5
CD2F
  8
0
 10
178.8727712833597
 20
107.4673619176103
 30
0.0
 11
192.87277128335961
 21
85.467361917610305
 31
0.0
  0
LINE
  5
CD30
  8
0
 10
192.87277128335961
 20
85.467361917610305
 30
0.0
 11
198.61945056399449
 21
84.004570827994144
 31
0.0
  0
LINE
  5
CD31
  8
0
 10
213.37277128335961
 20
79.358271008519395
 30
0.0
 11
213.37277128335961
 21
79.36838618847365
 31
0.0
  0
LINE
  5
CD32
  8
0
 10
206.37277128335961
 20
81.140089190337548
 30
0.0
 11
206.37277128335961
 21
81.150204370291817
 31
0.0
  0
LINE
  5
CD33
  8
0
 10
199.37277128335961
 20
82.921907372155815
 30
0.0
 11
199.37277128335961
 21
83.035473654071211
 31
0.0
  0
LINE
  5
CD34
  8
0
 10
219.49902556303371
 20
78.578565918379127
 30
0.0
 11
213.37277128335961
 21
79.358271008519395
 31
0.0
  0
LINE
  5
CD35
  8
0
 10
212.4990255630336
 20
80.360384100197265
 30
0.0
 11
206.37277128335961
 21
81.140089190337548
 31
0.0
  0
LINE
  5
CD36
  8
0
 10
205.4990255630336
 20
82.142202282015418
 30
0.0
 11
199.37277128335961
 21
82.921907372155815
 31
0.0
  0
ARC
  5
CD37
  8
0
 10
198.37277128335961
 20
83.035473654071211
 30
0.0
 40
1.0
 50
0.0
 51
75.718904264029092
  0
ARC
  5
CD38
  8
0
 10
205.37277128335961
 20
81.150204370291817
 30
0.0
 40
1.0
 50
0.0
 51
82.746805387274705
  0
ARC
  5
CD39
  8
0
 10
212.37277128335961
 20
79.36838618847365
 30
0.0
 40
1.0
 50
0.000000000001832
 51
82.746805387274634
  0
ARC
  5
CD3A
  8
0
 10
219.3727712833597
 20
77.586568006655497
 30
0.0
 40
1.0
 50
359.9999999999996
 51
82.746805387274634
  0
LINE
  5
CD3B
  8
0
 10
213.37277128335961
 20
79.358271008519395
 30
0.0
 11
102.37277128336061
 21
79.358271008519523
 31
0.0
  0
LINE
  5
CD3C
  8
0
 10
206.37277128335961
 20
81.140089190337548
 30
0.0
 11
109.37277128336051
 21
81.140089190337662
 31
0.0
  0
LINE
  5
CD3D
  8
0
 10
199.37277128335961
 20
82.921907372155815
 30
0.0
 11
116.37277128336039
 21
82.921907372155815
 31
0.0
  0
LINE
  5
CD3E
  8
0
 10
192.87277128335961
 20
85.467361917610305
 30
0.0
 11
122.8727712833599
 21
85.467361917610432
 31
0.0
  0
ARC
  5
CD3F
  8
0
 10
96.372771283359583
 20
77.586568006655497
 30
0.0
 40
1.0
 50
97.253194612725352
 51
180.00000000000051
  0
ARC
  5
CD40
  8
0
 10
103.3727712833597
 20
79.36838618847365
 30
0.0
 40
1.0
 50
97.253194612725352
 51
179.99999999999821
  0
ARC
  5
CD41
  8
0
 10
110.3727712833597
 20
81.150204370291817
 30
0.0
 40
1.0
 50
97.253194612725281
 51
180.0
  0
ARC
  5
CD42
  8
0
 10
117.3727712833597
 20
83.035473654071211
 30
0.0
 40
1.0
 50
104.28109573597089
 51
180.0
  0
LINE
  5
CD43
  8
0
 10
110.2465170036857
 20
82.142202282015418
 30
0.0
 11
116.3727712833597
 21
82.921907372155815
 31
0.0
  0
LINE
  5
CD44
  8
0
 10
103.2465170036857
 20
80.360384100197265
 30
0.0
 11
109.3727712833597
 21
81.140089190337548
 31
0.0
  0
LINE
  5
CD45
  8
0
 10
96.246517003685639
 20
78.578565918379127
 30
0.0
 11
102.3727712833597
 21
79.358271008519395
 31
0.0
  0
LINE
  5
CD46
  8
0
 10
116.3727712833597
 20
82.921907372155815
 30
0.0
 11
116.3727712833597
 21
83.035473654071211
 31
0.0
  0
LINE
  5
CD47
  8
0
 10
109.3727712833597
 20
81.140089190337548
 30
0.0
 11
109.3727712833597
 21
81.150204370291817
 31
0.0
  0
LINE
  5
CD48
  8
0
 10
102.3727712833597
 20
79.358271008519395
 30
0.0
 11
102.3727712833597
 21
79.36838618847365
 31
0.0
  0
LINE
  5
CD49
  8
0
 10
122.8727712833597
 20
85.467361917610305
 30
0.0
 11
117.1260920027248
 21
84.004570827994144
 31
0.0
  0
LINE
  5
CD4A
  8
0
 10
136.8727712833597
 20
107.4673619176103
 30
0.0
 11
122.8727712833597
 21
85.467361917610305
 31
0.0
  0
LINE
  5
CD4B
  8
0
 10
95.372771283359725
 20
62.467361917610432
 30
0.0
 11
95.372771283359583
 21
77.586568006655497
 31
0.0
  0
CIRCLE
  5
CD4C
  8
0
 10
157.8727712833597
 20
410.35072654345117
 30
0.0
 40
62.499999999999929
  0
ARC
  5
CD4D
  8
0
 10
157.8727712833597
 20
410.35072654345117
 30
0.0
 40
55.499999999999503
 50
11.453741223642981
 51
168.54625877635701
  0
ARC
  5
CD4E
  8
0
 10
157.8727712833597
 20
410.35072654345117
 30
0.0
 40
48.499999999999901
 50
15.547742233147339
 51
164.4522577668526
  0
ARC
  5
CD4F
  8
0
 10
157.8727712833597
 20
410.35072654345117
 30
0.0
 40
41.499999999999901
 50
18.255381895565829
 51
161.7446181044341
  0
CIRCLE
  5
CD50
  8
0
 10
157.8727712833597
 20
410.35072654345117
 30
0.0
 40
34.999999999999829
  0
LINE
  5
CD51
  8
1
 10
157.8727712833597
 20
482.85072654345112
 30
0.0
 11
157.8727712833597
 21
337.8507265434514
 31
0.0
  0
LINE
  5
CD52
  8
1
 10
230.37277128335961
 20
410.35072654345117
 30
0.0
 11
85.372771283359697
 21
410.35072654345117
 31
0.0
  0
LINE
  5
CD56
  8
1
 10
157.8727712833597
 20
282.46736191761022
 30
0.0
 11
157.87277128335961
 21
52.46736191761039
 31
0.0
  0
LINE
  5
CD57
  8
1
 10
365.29435446788381
 20
282.46736191761022
 30
0.0
 11
365.29435446788358
 21
52.467361917610262
 31
0.0
  0
ARC
  5
CEDE
  8
0
 10
365.29435446881462
 20
168.7067353417136
 30
0.0
 40
90.025598882946184
 50
262.96800700517838
 51
277.03199299072628
  0
ARC
  5
CEDF
  8
0
 10
353.31866078613052
 20
79.478142510443789
 30
0.0
 40
0.9615654688432545
 50
353.14234411221338
 51
66.564082695049677
  0
POLYLINE
  5
CEE0
  8
0
 66
     1
 10
0.0
 20
0.0
 30
0.0
 70
   128
  0
VERTEX
  5
D163
  8
0
 10
353.7010976142958
 20
80.360384100565653
 30
0.0
  0
VERTEX
  5
D164
  8
0
 10
352.88378115095082
 20
80.586709364074068
 30
0.0
  0
VERTEX
  5
D165
  8
0
 10
352.40465095713398
 20
80.840920873084045
 30
0.0
  0
VERTEX
  5
D166
  8
0
 10
352.29435446788352
 20
81.045038441836724
 30
0.0
  0
SEQEND
  5
D167
  8
0
  0
LINE
  5
CEE1
  8
0
 10
352.29435446788352
 20
81.045038442059763
 30
0.0
 11
352.29435446788352
 21
85.467361917610305
 31
0.0
  0
LINE
  5
CEE2
  8
0
 10
378.29435446788369
 20
85.467361917610305
 30
0.0
 11
352.29435446788352
 21
85.467361917610305
 31
0.0
  0
LINE
  5
CEE3
  8
0
 10
378.29435446788369
 20
81.045038454943906
 30
0.0
 11
378.29435446788369
 21
85.467361917610305
 31
0.0
  0
POLYLINE
  5
CEE4
  8
0
 66
     1
 10
0.0
 20
0.0
 30
0.0
 70
   128
  0
VERTEX
  5
D168
  8
0
 10
376.88761132157242
 20
80.360384100741726
 30
0.0
  0
VERTEX
  5
D169
  8
0
 10
377.70492778483413
 20
80.586709364080662
 30
0.0
  0
VERTEX
  5
D16A
  8
0
 10
378.18405797867348
 20
80.840920873120865
 30
0.0
  0
VERTEX
  5
D16B
  8
0
 10
378.29435446788369
 20
81.045038467977804
 30
0.0
  0
SEQEND
  5
D16C
  8
0
  0
ARC
  5
CEE5
  8
0
 10
377.27004814960992
 20
79.478142510517543
 30
0.0
 40
0.9615654687801043
 50
113.4359173098633
 51
186.8576558697261
  0
LINE
  5
CEE6
  8
0
 10
184.42277128335979
 20
200.5482149175871
 30
0.0
 11
184.42277128335979
 21
182.38650891758709
 31
0.0
  0
LINE
  5
CEE7
  8
0
 10
131.32277128335971
 20
182.38650891758709
 30
0.0
 11
131.32277128335971
 21
200.5482149175871
 31
0.0
  0
LINE
  5
CEE8
  8
0
 10
171.15277128335981
 20
182.38650891758709
 30
0.0
 11
171.15277128335981
 21
200.5482149175871
 31
0.0
  0
LINE
  5
CEE9
  8
0
 10
144.59277128335981
 20
182.38650891758709
 30
0.0
 11
144.59277128335981
 21
200.5482149175871
 31
0.0
  0
LINE
  5
CEEA
  8
0
 10
177.7877712833598
 20
203.4673619175872
 30
0.0
 11
137.95777128335979
 21
203.4673619175872
 31
0.0
  0
ARC
  5
CEEB
  8
0
 10
177.7877712833598
 20
194.46736191758711
 30
0.0
 40
9.0
 50
42.504674000000037
 51
137.49532599999981
  0
ARC
  5
CEEC
  8
0
 10
157.87277128335981
 20
171.80060691758709
 30
0.0
 40
31.666754999999998
 50
65.205353999999673
 51
114.7946460000003
  0
ARC
  5
CEED
  8
0
 10
137.95777128335979
 20
194.46736191758711
 30
0.0
 40
9.0
 50
42.504674000000037
 51
137.49532599999981
  0
ARC
  5
CEEE
  8
0
 10
137.95777128335979
 20
188.46736191758711
 30
0.0
 40
9.0
 50
222.50467399999999
 51
317.49532599999992
  0
ARC
  5
CEEF
  8
0
 10
157.87277128335981
 20
211.13411691758711
 30
0.0
 40
31.666754999999998
 50
245.2053539999996
 51
294.79464600000028
  0
ARC
  5
CEF0
  8
0
 10
177.7877712833598
 20
188.46736191758711
 30
0.0
 40
9.0
 50
222.50467399999999
 51
317.49532599999992
  0
LINE
  5
CEF1
  8
0
 10
177.7877712833598
 20
179.46736191758711
 30
0.0
 11
137.95777128335979
 21
179.46736191758711
 31
0.0
  0
LINE
  5
CEF4
  8
0
 10
388.29435446788381
 20
203.4673619175876
 30
0.0
 11
388.29435446788381
 21
179.4673619175876
 31
0.0
  0
LINE
  5
CEF5
  8
0
 10
388.29435446788381
 20
179.4673619175876
 30
0.0
 11
342.29435446788381
 21
179.4673619175876
 31
0.0
  0
LINE
  5
CEF6
  8
0
 10
342.29435446788381
 20
179.4673619175876
 30
0.0
 11
342.29435446788381
 21
203.4673619175876
 31
0.0
  0
LINE
  5
CEF7
  8
0
 10
342.29435446788381
 20
203.4673619175876
 30
0.0
 11
388.29435446788381
 21
203.4673619175876
 31
0.0
  0
LINE
  5
CEF8
  8
0
 10
365.29435446788381
 20
183.01736191758749
 30
0.0
 11
365.29435446788381
 21
199.91736191758761
 31
0.0
  0
ARC
  5
CEF9
  8
0
 10
376.79435446788392
 20
183.0656013542073
 30
0.0
 40
20.401760563380279
 50
55.689540662730799
 51
124.31045933726919
  0
ARC
  5
CEFA
  8
0
 10
353.79435446788392
 20
183.0656013542073
 30
0.0
 40
20.4017605633803
 50
55.689540662730799
 51
124.31045933726919
  0
ARC
  5
CEFB
  8
0
 10
353.79435446788392
 20
199.8691224809678
 30
0.0
 40
20.401760563380279
 50
235.68954066273079
 51
304.31045933726909
  0
ARC
  5
CEFC
  8
0
 10
376.79435446788392
 20
199.8691224809678
 30
0.0
 40
20.401760563380279
 50
235.68954066273079
 51
304.31045933726909
  0
LINE
  5
CEFD
  8
0
 10
352.29435446788358
 20
85.46736191761029
 30
0.0
 11
330.29435446788398
 21
85.467361917610305
 31
0.0
  0
LINE
  5
CEFE
  8
0
 10
352.29435446788352
 20
82.921907372155701
 30
0.0
 11
323.79435446788449
 21
82.921907372155701
 31
0.0
  0
LINE
  5
CEFF
  8
0
 10
352.29435446788352
 20
81.140089190337548
 30
0.0
 11
316.79435446788472
 21
81.140089190337548
 31
0.0
  0
LINE
  5
CF00
  8
0
 10
354.2734481751815
 20
79.358271008519367
 30
0.0
 11
309.79435446788477
 21
79.358271008519395
 31
0.0
  0
TEXT
  5
D146
  8
0
 62
     3
 10
0.0
 20
0.0
 30
0.0
 40
10.0
  1
LVF125C30A
  7
STANDARD1
  0
ENDSEC
  0
EOF
