  0
SECTION
  2
HEADER
  9
$ACADVER
  1
AC1009
  9
$INSBASE
 10
0.0
 20
0.0
 30
0.0
  9
$EXTMIN
 10
0.0
 20
-2.960436562073669
 30
0.0
  9
$EXTMAX
 10
495.71673264404512
 20
502.24466654354922
 30
0.0
  9
$LIMMIN
 10
0.0
 20
0.0
  9
$LIMMAX
 10
375.0
 20
270.0
  9
$ORTHOMODE
 70
     1
  9
$REGENMODE
 70
     1
  9
$FILLMODE
 70
     1
  9
$QTEXTMODE
 70
     0
  9
$MIRRTEXT
 70
     0
  9
$DRAGMODE
 70
     2
  9
$LTSCALE
 40
10.0
  9
$OSMODE
 70
  3071
  9
$ATTMODE
 70
     1
  9
$TEXTSIZE
 40
0.2
  9
$TRACEWID
 40
0.05
  9
$TEXTSTYLE
  7
STANDARD
  9
$CLAYER
  8
0
  9
$CELTYPE
  6
BYLAYER
  9
$CECOLOR
 62
   256
  9
$DIMSCALE
 40
1.0
  9
$DIMASZ
 40
3.0
  9
$DIMEXO
 40
1.0
  9
$DIMDLI
 40
6.0
  9
$DIMRND
 40
0.0
  9
$DIMDLE
 40
0.0
  9
$DIMEXE
 40
1.0
  9
$DIMTP
 40
495.0
  9
$DIMTM
 40
0.0
  9
$DIMTXT
 40
3.0
  9
$DIMCEN
 40
0.0
  9
$DIMTSZ
 40
0.0
  9
$DIMTOL
 70
     0
  9
$DIMLIM
 70
     0
  9
$DIMTIH
 70
     0
  9
$DIMTOH
 70
     0
  9
$DIMSE1
 70
     0
  9
$DIMSE2
 70
     0
  9
$DIMTAD
 70
     1
  9
$DIMZIN
 70
     0
  9
$DIMBLK
  1

  9
$DIMASO
 70
     0
  9
$DIMSHO
 70
     0
  9
$DIMPOST
  1

  9
$DIMAPOST
  1

  9
$DIMALT
 70
     0
  9
$DIMALTD
 70
     2
  9
$DIMALTF
 40
25.399999999999999
  9
$DIMLFAC
 40
1.0
  9
$DIMTOFL
 70
     1
  9
$DIMTVP
 40
0.0
  9
$DIMTIX
 70
     1
  9
$DIMSOXD
 70
     0
  9
$DIMSAH
 70
     0
  9
$DIMBLK1
  1

  9
$DIMBLK2
  1

  9
$DIMSTYLE
  2
STANDARD
  9
$DIMCLRD
 70
     0
  9
$DIMCLRE
 70
     0
  9
$DIMCLRT
 70
     4
  9
$DIMTFAC
 40
1.0
  9
$DIMGAP
 40
1.0
  9
$LUNITS
 70
     2
  9
$LUPREC
 70
     4
  9
$SKETCHINC
 40
0.1
  9
$FILLETRAD
 40
2.0
  9
$AUNITS
 70
     0
  9
$AUPREC
 70
     0
  9
$MENU
  1
C:\R13\WIN\SUPPORT\ACAD-I
  9
$ELEVATION
 40
0.0
  9
$PELEVATION
 40
0.0
  9
$THICKNESS
 40
0.0
  9
$LIMCHECK
 70
     0
  9
$BLIPMODE
 70
     0
  9
$CHAMFERA
 40
0.0
  9
$CHAMFERB
 40
0.0
  9
$SKPOLY
 70
     0
  9
$TDCREATE
 40
2451963.5404255092
  9
$TDUPDATE
 40
2456597.6173117249
  9
$TDINDWG
 40
0.0945575231
  9
$TDUSRTIMER
 40
2456554.2969256369
  9
$USRTIMER
 70
     1
  9
$ANGBASE
 50
0.0
  9
$ANGDIR
 70
     0
  9
$PDMODE
 70
     0
  9
$PDSIZE
 40
0.0
  9
$PLINEWID
 40
0.0
  9
$COORDS
 70
     1
  9
$SPLFRAME
 70
     0
  9
$SPLINETYPE
 70
     6
  9
$SPLINESEGS
 70
     8
  9
$ATTDIA
 70
     0
  9
$ATTREQ
 70
     1
  9
$HANDLING
 70
     1
  9
$HANDSEED
  5
CADD
  9
$SURFTAB1
 70
     6
  9
$SURFTAB2
 70
     6
  9
$SURFTYPE
 70
     6
  9
$SURFU
 70
     6
  9
$SURFV
 70
     6
  9
$UCSNAME
  2

  9
$UCSORG
 10
0.0
 20
0.0
 30
0.0
  9
$UCSXDIR
 10
1.0
 20
0.0
 30
0.0
  9
$UCSYDIR
 10
0.0
 20
1.0
 30
0.0
  9
$PUCSNAME
  2

  9
$PUCSORG
 10
0.0
 20
0.0
 30
0.0
  9
$PUCSXDIR
 10
1.0
 20
0.0
 30
0.0
  9
$PUCSYDIR
 10
0.0
 20
1.0
 30
0.0
  9
$USERI1
 70
     4
  9
$USERI2
 70
     1
  9
$USERI3
 70
     0
  9
$USERI4
 70
     0
  9
$USERI5
 70
     0
  9
$USERR1
 40
1.0
  9
$USERR2
 40
3.0
  9
$USERR3
 40
3.0
  9
$USERR4
 40
3.0
  9
$USERR5
 40
10.0
  9
$WORLDVIEW
 70
     1
  9
$SHADEDGE
 70
     3
  9
$SHADEDIF
 70
    70
  9
$TILEMODE
 70
     1
  9
$MAXACTVP
 70
    16
  9
$PLIMCHECK
 70
     0
  9
$PEXTMIN
 10
1.0000000000000000E+020
 20
1.0000000000000000E+020
 30
1.0000000000000000E+020
  9
$PEXTMAX
 10
-1.0000000000000000E+020
 20
-1.0000000000000000E+020
 30
-1.0000000000000000E+020
  9
$PLIMMIN
 10
0.0
 20
0.0
  9
$PLIMMAX
 10
12.0
 20
9.0
  9
$UNITMODE
 70
     0
  9
$VISRETAIN
 70
     0
  9
$PLINEGEN
 70
     0
  9
$PSLTSCALE
 70
     0
  0
ENDSEC
  0
SECTION
  2
TABLES
  0
TABLE
  2
VPORT
 70
     1
  0
VPORT
  2
*ACTIVE
 70
     0
 10
0.0
 20
0.0
 11
1.0
 21
1.0
 12
247.8583674762028
 22
250.7407983282998
 13
0.0
 23
0.0
 14
10.0
 24
10.0
 15
10.0
 25
10.0
 16
0.0
 26
0.0
 36
1.0
 17
0.0
 27
0.0
 37
0.0
 40
513.22044926975457
 41
2.304913294797688
 42
50.0
 43
0.0
 44
0.0
 50
0.0
 51
0.0
 71
    16
 72
   100
 73
     1
 74
     0
 75
     0
 76
     0
 77
     0
 78
     0
  0
ENDTAB
  0
TABLE
  2
LTYPE
 70
     4
  0
LTYPE
  2
CONTINUOUS
 70
     0
  3
Solid Line
 72
    65
 73
     0
 40
0.0
  0
LTYPE
  2
PHANTOM2
 70
     0
  3
___ _ _ ___ _ _ ___ _ _ ___ _ _
 72
    65
 73
     6
 40
1.25
 49
0.625
 49
-0.125
 49
0.125
 49
-0.125
 49
0.125
 49
-0.125
  0
LTYPE
  2
CENTER
 70
     0
  3
____ _ ____ _ ____ _ ____ _ ____ _ ____ _ ____
 72
    65
 73
     4
 40
2.0
 49
1.25
 49
-0.25
 49
0.25
 49
-0.25
  0
LTYPE
  2
HIDDEN
 70
     0
  3
_ _ _ _ _ _ _ _ _ _ _ _ _ _ _ _ _ _ _ _ _ _ _
 72
    65
 73
     2
 40
0.375
 49
0.25
 49
-0.125
  0
ENDTAB
  0
TABLE
  2
LAYER
 70
     5
  0
LAYER
  2
0
 70
     0
 62
     7
  6
CONTINUOUS
  0
LAYER
  2
1
 70
     0
 62
     1
  6
CENTER
  0
LAYER
  2
3
 70
     0
 62
     3
  6
CONTINUOUS
  0
LAYER
  2
2
 70
     0
 62
     2
  6
HIDDEN
  0
LAYER
  2
DEFPOINTS
 70
     0
 62
     7
  6
CONTINUOUS
  0
ENDTAB
  0
TABLE
  2
STYLE
 70
     3
  0
STYLE
  2
STANDARD
 70
     0
 40
0.0
 41
1.0
 50
0.0
 71
     0
 42
0.2
  3
SIMPLEX
  4
BIGFONT
  0
STYLE
  2
ANNOTATIVE
 70
     0
 40
0.0
 41
1.0
 50
0.0
 71
     0
 42
0.2
  3
txt
  4

  0
STYLE
  2
STANDARD1
 70
     0
 40
0.0
 41
1.0
 50
0.0
 71
     0
 42
3.0
  3
txt
  4

  0
ENDTAB
  0
TABLE
  2
VIEW
 70
     0
  0
ENDTAB
  0
TABLE
  2
UCS
 70
     0
  0
ENDTAB
  0
TABLE
  2
APPID
 70
    30
  0
APPID
  2
ACAD
 70
     0
  0
APPID
  2
ACADANNOTATIVE
 70
     0
  0
APPID
  2
GENIUS_GENOREF_13
 70
     0
  0
APPID
  2
GENIUS_GENOENT_13
 70
     0
  0
APPID
  2
GENIUS_GENBH_13
 70
     0
  0
APPID
  2
GENIUS_GENOBJ_13
 70
     0
  0
APPID
  2
GENIUS_GENODEF_13
 70
     0
  0
APPID
  2
GENIUS_GENOLIS_13
 70
     0
  0
APPID
  2
GENIUS_GENOBJ-NBEHI-BHF_13
 70
     0
  0
APPID
  2
GENIUS_GENOBJ-NBEHI-BHB_13
 70
     0
  0
APPID
  2
GENIUS_GENOBJ-F-PART_13
 70
     0
  0
APPID
  2
GENIUS_GEFSTDP_13
 70
     0
  0
APPID
  2
GENIUS_GENOBJ-N-RSSYM_13
 70
     0
  0
APPID
  2
GENIUS_GENSYMENT_13
 70
     0
  0
APPID
  2
GENIUS_GENOBJ-N-TIT_13
 70
     0
  0
APPID
  2
GENIUS_GENTITLE_13
 70
     0
  0
APPID
  2
GENIUS_GENZVEED_13
 70
     0
  0
APPID
  2
GENIUS_GENOBJ-N-LEADER_13
 70
     0
  0
APPID
  2
GENIUS_GENOBJ-N-FIL_13
 70
     0
  0
APPID
  2
GENIUS_GENOBJ-N-SEC_13
 70
     0
  0
APPID
  2
GENIUS_GENOBJ-N-CRS_13
 70
     0
  0
APPID
  2
GENIUS_GENOBJ-N-ZOO_13
 70
     0
  0
APPID
  2
GENIUS_GENZOO_13
 70
     0
  0
APPID
  2
GENIUS_GENOBJ-F-TOL_13
 70
     0
  0
APPID
  2
GENIUS_GENFIL_13
 70
     0
  0
APPID
  2
GENIUS_GENOBJ-N-CHA_13
 70
     0
  0
APPID
  2
_CALL_MAC$
 70
     0
  0
APPID
  2
ACAD_EXEMPT_FROM_CAD_STANDARDS
 70
     0
  0
APPID
  2
ACAD_MLEADERVER
 70
     0
  0
APPID
  2
ACAD_NAV_VCDISPLAY
 70
     0
  0
ENDTAB
  0
TABLE
  2
DIMSTYLE
 70
     2
  0
DIMSTYLE
  2
STANDARD
 70
     0
  3

  4

  5

  6

  7

 40
1.0
 41
0.18
 42
0.0625
 43
0.38
 44
0.18
 45
0.0
 46
0.0
 47
0.0
 48
0.0
140
0.18
141
0.09
142
0.0
143
25.399999999999999
144
1.0
145
0.0
146
1.0
147
0.09
 71
     0
 72
     0
 73
     1
 74
     1
 75
     0
 76
     0
 77
     0
 78
     0
170
     0
171
     2
172
     0
173
     0
174
     0
175
     0
176
     0
177
     0
178
     0
  0
DIMSTYLE
  2
ANNOTATIVE
 70
     0
  3

  4

  5

  6

  7

 40
1.0
 41
0.18
 42
0.0625
 43
0.38
 44
0.18
 45
0.0
 46
0.0
 47
0.0
 48
0.0
140
0.18
141
0.09
142
0.0
143
25.399999999999999
144
1.0
145
0.0
146
1.0
147
0.09
 71
     0
 72
     0
 73
     1
 74
     1
 75
     0
 76
     0
 77
     0
 78
     0
170
     0
171
     2
172
     0
173
     0
174
     0
175
     0
176
     0
177
     0
178
     0
  0
ENDTAB
  0
ENDSEC
  0
SECTION
  2
BLOCKS
  0
BLOCK
  8
0
  2
$MODEL_SPACE
 70
     0
 10
0.0
 20
0.0
 30
0.0
  3
$MODEL_SPACE
  1

  0
ENDBLK
  5
C9F5
  8
0
  0
BLOCK
 67
     1
  8
0
  2
$PAPER_SPACE
 70
     0
 10
0.0
 20
0.0
 30
0.0
  3
$PAPER_SPACE
  1

  0
ENDBLK
  5
C9F1
 67
     1
  8
0
  0
ENDSEC
  0
SECTION
  2
ENTITIES
  0
ARC
  5
C5C1
  8
0
 10
233.2951494595211
 20
123.9099680094446
 30
0.0
 40
21.662658773668529
 50
69.743841999599255
 51
110.2561580004007
  0
LINE
  5
C5C2
  8
0
 10
240.29514945951939
 20
145.8613019177084
 30
0.0
 11
240.79514945952079
 21
145.57262678311301
 31
0.0
  0
LINE
  5
C5C3
  8
0
 10
240.29514945951939
 20
133.86130191773159
 30
0.0
 11
240.79514945952079
 21
134.1499770523271
 31
0.0
  0
ARC
  5
C5C4
  8
0
 10
233.2951494595211
 20
155.81263582599539
 30
0.0
 40
21.662658773668529
 50
249.7438419995992
 51
290.25615800040072
  0
LINE
  5
C5C5
  8
0
 10
240.79514945952101
 20
145.57262678311301
 30
0.0
 11
240.79514945952079
 21
134.14997705232699
 31
0.0
  0
LINE
  5
C5C6
  8
0
 10
210.79514945952101
 20
145.57262678311301
 30
0.0
 11
210.7951494595213
 21
134.14997705232699
 31
0.0
  0
ARC
  5
C5C7
  8
0
 10
218.2951494595211
 20
155.81263582599539
 30
0.0
 40
21.662658773668529
 50
249.7438419995992
 51
290.25615800040072
  0
LINE
  5
C5C8
  8
0
 10
211.29514945952261
 20
133.86130191773159
 30
0.0
 11
210.7951494595213
 21
134.1499770523271
 31
0.0
  0
LINE
  5
C5C9
  8
0
 10
211.29514945952261
 20
145.8613019177084
 30
0.0
 11
210.7951494595213
 21
145.57262678311301
 31
0.0
  0
ARC
  5
C5CA
  8
0
 10
218.2951494595211
 20
123.9099680094446
 30
0.0
 40
21.662658773668529
 50
69.743841999599255
 51
110.2561580004007
  0
LINE
  5
C5CB
  8
0
 10
211.29514945952261
 20
145.8613019177084
 30
0.0
 11
240.29514945951939
 21
145.8613019177084
 31
0.0
  0
LINE
  5
C5CC
  8
0
 10
240.29514945952101
 20
133.86130191773159
 30
0.0
 11
211.29514945952261
 21
133.86130191773159
 31
0.0
  0
LINE
  5
C5CD
  8
0
 10
225.79514945952101
 20
144.23288082095851
 30
0.0
 11
225.79514945952101
 21
135.48972301447679
 31
0.0
  0
LINE
  5
C5CE
  8
0
 10
418.71673264404473
 20
145.8613019177084
 30
0.0
 11
415.8962245683561
 21
144.23288082095809
 31
0.0
  0
ARC
  5
C5CF
  8
0
 10
420.22635158727849
 20
137.9051585378372
 30
0.0
 40
7.6674682452751766
 50
55.61575253199382
 51
115.61575252954199
  0
ARC
  5
C5D0
  8
0
 10
420.22635158727849
 20
137.9051585378372
 30
0.0
 40
7.6674682452751766
 50
124.38424746800619
 51
124.38424746800619
  0
ARC
  5
C5D1
  8
0
 10
433.216732644118
 20
116.91237274571969
 30
0.0
 40
28.660254037392811
 50
72.412046225871535
 51
107.5879537744292
  0
ARC
  5
C5D2
  8
0
 10
420.22635158727849
 20
141.81744529760201
 30
0.0
 40
7.6674682452751766
 50
235.61575253199379
 51
235.61575253199379
  0
ARC
  5
C5D3
  8
0
 10
420.22635158727849
 20
141.81744529760201
 30
0.0
 40
7.6674682452751766
 50
244.38424747045801
 51
304.38424746800621
  0
LINE
  5
C5D4
  8
0
 10
418.71673264404473
 20
133.8613019177308
 30
0.0
 11
415.8962245683561
 21
135.48972301448109
 31
0.0
  0
LINE
  5
C5D5
  8
0
 10
415.89622456835627
 20
144.232880820958
 30
0.0
 11
415.89622456807251
 21
135.4897230146448
 31
0.0
  0
LINE
  5
C5D6
  8
0
 10
424.55647860620041
 20
135.48972301450451
 30
0.0
 11
424.55647860635429
 21
144.232880820958
 31
0.0
  0
ARC
  5
C5D7
  8
0
 10
433.216732644118
 20
162.81023108971931
 30
0.0
 40
28.660254037392811
 50
252.4120462255708
 51
287.58795377412838
  0
LINE
  5
C5D8
  8
0
 10
441.87698668188881
 20
135.48972301450451
 30
0.0
 11
441.87698668173482
 21
144.232880820958
 31
0.0
  0
LINE
  5
C5D9
  8
0
 10
450.53724071973312
 20
144.232880820958
 30
0.0
 11
450.53724072001688
 21
135.4897230146448
 31
0.0
  0
LINE
  5
C5DA
  8
0
 10
447.71673264404473
 20
133.8613019177308
 30
0.0
 11
450.5372407197334
 21
135.48972301448109
 31
0.0
  0
ARC
  5
C5DB
  8
0
 10
446.20711370081068
 20
141.81744529760201
 30
0.0
 40
7.6674682452751766
 50
235.61575253199379
 51
295.61575252954202
  0
ARC
  5
C5DC
  8
0
 10
446.20711370081068
 20
141.81744529760201
 30
0.0
 40
7.6674682452751766
 50
304.38424746800621
 51
304.38424746800621
  0
ARC
  5
C5DD
  8
0
 10
446.20711370081068
 20
137.9051585378372
 30
0.0
 40
7.6674682452751766
 50
55.61575253199382
 51
55.61575253199382
  0
ARC
  5
C5DE
  8
0
 10
446.20711370081068
 20
137.9051585378372
 30
0.0
 40
7.6674682452751766
 50
64.384247470457979
 51
124.38424746800619
  0
LINE
  5
C5DF
  8
0
 10
447.71673264404473
 20
145.8613019177084
 30
0.0
 11
450.5372407197334
 21
144.23288082095809
 31
0.0
  0
LINE
  5
C5E0
  8
0
 10
418.71673264404473
 20
145.8613019177084
 30
0.0
 11
447.71673264404518
 21
145.861301917708
 31
0.0
  0
LINE
  5
C5E1
  8
0
 10
447.71673264404518
 20
133.86130191773111
 30
0.0
 11
418.71673264404473
 21
133.8613019177308
 31
0.0
  0
ARC
  5
C5E2
  8
0
 10
225.7951494595211
 20
429.74466654354927
 30
0.0
 40
55.499999999999503
 50
191.45374122364311
 51
348.54625877635681
  0
ARC
  5
C5E3
  8
0
 10
225.7951494595211
 20
429.74466654354927
 30
0.0
 40
41.499999999999901
 50
198.2553818955659
 51
341.74461810443393
  0
ARC
  5
C5E4
  8
0
 10
225.7951494595211
 20
429.74466654354927
 30
0.0
 40
48.499999999999901
 50
195.54774223314749
 51
344.45225776685248
  0
LINE
  5
C5E5
  8
0
 10
178.29514945952121
 20
442.74466654354927
 30
0.0
 11
193.29899584097751
 21
442.74466654354927
 31
0.0
  0
LINE
  5
C5E6
  8
0
 10
178.29514945952121
 20
416.74466654354922
 30
0.0
 11
193.29899584097751
 21
416.74466654354922
 31
0.0
  0
ARC
  5
C5E7
  8
0
 10
178.29514945952121
 20
429.74466654354927
 30
0.0
 40
12.99999999999997
 50
90.0
 51
270.0
  0
CIRCLE
  5
C5E8
  8
2
 10
178.2951494595211
 20
429.74466654354927
 30
0.0
 40
6.25
  0
LINE
  5
C5E9
  8
1
 10
178.2951494595211
 20
440.99466654354927
 30
0.0
 11
178.2951494595211
 21
418.49466654354922
 31
0.0
  0
LINE
  5
C5EA
  8
1
 10
273.29514945952093
 20
440.99466654354927
 30
0.0
 11
273.29514945952093
 21
418.49466654354922
 31
0.0
  0
CIRCLE
  5
C5EB
  8
2
 10
273.29514945952093
 20
429.74466654354927
 30
0.0
 40
6.25
  0
ARC
  5
C5EC
  8
0
 10
273.29514945952093
 20
429.74466654354927
 30
0.0
 40
12.99999999999997
 50
270.0
 51
90.0
  0
LINE
  5
C5ED
  8
0
 10
273.29514945952093
 20
416.74466654354922
 30
0.0
 11
258.29130307806469
 21
416.74466654354922
 31
0.0
  0
LINE
  5
C5EE
  8
0
 10
273.29514945952093
 20
442.74466654354927
 30
0.0
 11
258.29130307806469
 21
442.74466654354927
 31
0.0
  0
LINE
  5
C5F5
  8
0
 10
165.29514945952121
 20
104.8613019177085
 30
0.0
 11
190.7951494595215
 21
104.8613019177083
 31
0.0
  0
LINE
  5
C5F6
  8
0
 10
165.29514945952121
 20
98.115847372253825
 30
0.0
 11
165.29514945952121
 21
104.8613019177085
 31
0.0
  0
LINE
  5
C5F7
  8
1
 10
178.29514945952121
 20
109.8613019177083
 30
0.0
 11
178.2951494595213
 21
76.861301917708602
 31
0.0
  0
LINE
  5
C5F8
  8
1
 10
273.29514945952093
 20
109.8613019177083
 30
0.0
 11
273.29514945952093
 21
76.861301917708502
 31
0.0
  0
LINE
  5
C5F9
  8
0
 10
286.29514945952093
 20
98.115847372253825
 30
0.0
 11
286.29514945952093
 21
104.8613019177085
 31
0.0
  0
LINE
  5
C5FA
  8
0
 10
286.29514945952093
 20
104.8613019177085
 30
0.0
 11
260.79514945952059
 21
104.8613019177083
 31
0.0
  0
LINE
  5
C5FB
  8
0
 10
418.21673264404518
 20
145.5726267831138
 30
0.0
 11
418.21673264404518
 21
195.8613019177082
 31
0.0
  0
LINE
  5
C5FC
  8
3
 10
420.111232644045
 20
150.86130191770829
 30
0.0
 11
420.111232644045
 21
195.8613019177082
 31
0.0
  0
LINE
  5
C5FD
  8
3
 10
446.32223264404502
 20
150.86130191770809
 30
0.0
 11
446.32223264404502
 21
195.8613019177082
 31
0.0
  0
LINE
  5
C5FE
  8
0
 10
448.21673264404512
 20
145.57262678311341
 30
0.0
 11
448.21673264404518
 21
195.8613019177082
 31
0.0
  0
LINE
  5
C5FF
  8
0
 10
418.21673264404518
 20
219.8613019177082
 30
0.0
 11
418.21673264404518
 21
278.3613019177082
 31
0.0
  0
LINE
  5
C600
  8
3
 10
420.111232644045
 20
219.8613019177082
 30
0.0
 11
420.111232644045
 21
280.2558019177082
 31
0.0
  0
LINE
  5
C601
  8
0
 10
448.21673264404518
 20
219.8613019177082
 30
0.0
 11
448.21673264404518
 21
278.3613019177082
 31
0.0
  0
LINE
  5
C602
  8
3
 10
446.32223264404502
 20
219.8613019177082
 30
0.0
 11
446.32223264404502
 21
280.2558019177082
 31
0.0
  0
LINE
  5
C603
  8
0
 10
448.21673264404518
 20
278.3613019177082
 30
0.0
 11
444.71673264404501
 21
281.86130191770832
 31
0.0
  0
LINE
  5
C604
  8
0
 10
418.21673264404518
 20
278.3613019177082
 30
0.0
 11
448.21673264404518
 21
278.3613019177082
 31
0.0
  0
LINE
  5
C605
  8
0
 10
418.21673264404518
 20
278.3613019177082
 30
0.0
 11
421.71673264404512
 21
281.86130191770832
 31
0.0
  0
LINE
  5
C606
  8
0
 10
421.71673264404512
 20
281.86130191770832
 30
0.0
 11
444.71673264404501
 21
281.86130191770832
 31
0.0
  0
LINE
  5
C607
  8
0
 10
445.21673264404512
 20
128.86130191770829
 30
0.0
 11
445.21673264404512
 21
133.86130191773111
 31
0.0
  0
LINE
  5
C608
  8
0
 10
421.21673264404512
 20
128.86130191770849
 30
0.0
 11
421.21673264404512
 21
133.8613019177308
 31
0.0
  0
LINE
  5
C609
  8
0
 10
415.7167326440449
 20
126.8613019177083
 30
0.0
 11
417.7167326440449
 21
128.86130191770829
 31
0.0
  0
LINE
  5
C60A
  8
0
 10
450.71673264404512
 20
126.8613019177083
 30
0.0
 11
448.71673264404512
 21
128.86130191770829
 31
0.0
  0
LINE
  5
C60B
  8
0
 10
448.71673264404512
 20
128.86130191770829
 30
0.0
 11
417.71673264404518
 21
128.86130191770829
 31
0.0
  0
LINE
  5
C60F
  8
0
 10
370.71673264404518
 20
81.86130191770846
 30
0.0
 11
370.71673264404512
 21
96.980508006753553
 31
0.0
  0
LINE
  5
C610
  8
0
 10
412.21673264404512
 20
126.8613019177083
 30
0.0
 11
398.21673264404518
 21
104.8613019177083
 31
0.0
  0
LINE
  5
C611
  8
0
 10
398.21673264404518
 20
104.8613019177083
 30
0.0
 11
392.47005336341027
 21
103.3985108280922
 31
0.0
  0
LINE
  5
C612
  8
0
 10
377.71673264404518
 20
98.752211008617437
 30
0.0
 11
377.71673264404518
 21
98.762326188571706
 31
0.0
  0
LINE
  5
C613
  8
0
 10
384.71673264404518
 20
100.5340291904356
 30
0.0
 11
384.71673264404518
 21
100.5441443703898
 31
0.0
  0
LINE
  5
C614
  8
0
 10
391.71673264404518
 20
102.3158473722538
 30
0.0
 11
391.71673264404518
 21
102.4294136541692
 31
0.0
  0
LINE
  5
C615
  8
0
 10
371.59047836437111
 20
97.972505918477154
 30
0.0
 11
377.71673264404518
 21
98.752211008617437
 31
0.0
  0
LINE
  5
C616
  8
0
 10
378.59047836437122
 20
99.754324100295335
 30
0.0
 11
384.71673264404518
 21
100.5340291904356
 31
0.0
  0
LINE
  5
C617
  8
0
 10
385.59047836437122
 20
101.5361422821134
 30
0.0
 11
391.71673264404518
 21
102.3158473722538
 31
0.0
  0
ARC
  5
C618
  8
0
 10
392.71673264404518
 20
102.4294136541692
 30
0.0
 40
1.0
 50
104.28109573597089
 51
180.0
  0
ARC
  5
C619
  8
0
 10
385.71673264404518
 20
100.5441443703898
 30
0.0
 40
1.0
 50
97.253194612725281
 51
180.0
  0
ARC
  5
C61A
  8
0
 10
378.71673264404518
 20
98.762326188571706
 30
0.0
 40
1.0
 50
97.253194612725352
 51
179.99999999999821
  0
ARC
  5
C61B
  8
0
 10
371.71673264404512
 20
96.980508006753553
 30
0.0
 40
1.0
 50
97.253194612725352
 51
180.00000000000051
  0
LINE
  5
C61C
  8
0
 10
468.2167326440449
 20
104.8613019177083
 30
0.0
 11
446.21673266897852
 21
104.8613019177084
 31
0.0
  0
LINE
  5
C61D
  8
0
 10
474.7167326440449
 20
102.3158473722538
 30
0.0
 11
446.21673266897852
 21
102.3158473722538
 31
0.0
  0
LINE
  5
C61E
  8
0
 10
481.71673264404512
 20
100.5340291904356
 30
0.0
 11
446.2167326689783
 21
100.5340291904356
 31
0.0
  0
LINE
  5
C61F
  8
0
 10
488.71673264404512
 20
98.752211008617437
 30
0.0
 11
444.2377400594429
 21
98.752211008617479
 31
0.0
  0
ARC
  5
C620
  8
0
 10
494.7167326440449
 20
96.980508006753553
 30
0.0
 40
1.0
 50
359.9999999999996
 51
82.746805387274634
  0
ARC
  5
C621
  8
0
 10
487.71673264404512
 20
98.762326188571706
 30
0.0
 40
1.0
 50
0.000000000001832
 51
82.746805387274634
  0
ARC
  5
C622
  8
0
 10
480.71673264404512
 20
100.5441443703898
 30
0.0
 40
1.0
 50
0.0
 51
82.746805387274705
  0
ARC
  5
C623
  8
0
 10
473.71673264404512
 20
102.4294136541692
 30
0.0
 40
1.0
 50
0.0
 51
75.718904264029092
  0
LINE
  5
C624
  8
0
 10
480.84298692371902
 20
101.5361422821134
 30
0.0
 11
474.7167326440449
 21
102.3158473722538
 31
0.0
  0
LINE
  5
C625
  8
0
 10
487.84298692371908
 20
99.754324100295335
 30
0.0
 11
481.71673264404512
 21
100.5340291904356
 31
0.0
  0
LINE
  5
C626
  8
0
 10
494.84298692371902
 20
97.972505918477154
 30
0.0
 11
488.71673264404512
 21
98.752211008617437
 31
0.0
  0
LINE
  5
C627
  8
0
 10
474.7167326440449
 20
102.3158473722538
 30
0.0
 11
474.7167326440449
 21
102.4294136541692
 31
0.0
  0
LINE
  5
C628
  8
0
 10
481.71673264404512
 20
100.5340291904356
 30
0.0
 11
481.71673264404512
 21
100.5441443703898
 31
0.0
  0
LINE
  5
C629
  8
0
 10
488.71673264404512
 20
98.752211008617437
 30
0.0
 11
488.71673264404512
 21
98.762326188571706
 31
0.0
  0
LINE
  5
C62A
  8
0
 10
468.2167326440449
 20
104.8613019177083
 30
0.0
 11
473.96341192467992
 21
103.3985108280922
 31
0.0
  0
LINE
  5
C62B
  8
0
 10
454.21673264404512
 20
126.8613019177083
 30
0.0
 11
468.2167326440449
 21
104.8613019177083
 31
0.0
  0
LINE
  5
C62C
  8
0
 10
454.21673264404512
 20
126.8613019177083
 30
0.0
 11
412.21673264404512
 21
126.8613019177083
 31
0.0
  0
LINE
  5
C62D
  8
0
 10
495.71673264404512
 20
81.861301917708374
 30
0.0
 11
495.71673264404512
 21
96.980508006753553
 31
0.0
  0
LINE
  5
C62E
  8
0
 10
495.71673264404512
 20
81.861301917708374
 30
0.0
 11
370.71673264404518
 21
81.86130191770846
 31
0.0
  0
LINE
  5
C62F
  8
3
 10
446.32223264404502
 20
150.86130191770829
 30
0.0
 11
448.21673264404518
 21
147.57993166276901
 31
0.0
  0
LINE
  5
C630
  8
3
 10
420.111232644045
 20
150.86130191770829
 30
0.0
 11
418.21673264404518
 21
147.57993166276901
 31
0.0
  0
LINE
  5
C631
  8
0
 10
418.21673264404518
 20
150.86130191770829
 30
0.0
 11
448.21673264404518
 21
150.86130191770829
 31
0.0
  0
LINE
  5
C632
  8
3
 10
238.90064945952111
 20
219.8613019177084
 30
0.0
 11
238.90064945952111
 21
280.25580191770842
 31
0.0
  0
LINE
  5
C633
  8
0
 10
240.7951494595211
 20
219.8613019177084
 30
0.0
 11
240.7951494595211
 21
278.36130191770849
 31
0.0
  0
LINE
  5
C634
  8
3
 10
212.68964945952109
 20
219.8613019177084
 30
0.0
 11
212.68964945952109
 21
280.25580191770842
 31
0.0
  0
LINE
  5
C635
  8
0
 10
210.7951494595211
 20
219.8613019177084
 30
0.0
 11
210.7951494595211
 21
278.36130191770849
 31
0.0
  0
LINE
  5
C638
  8
0
 10
214.2951494595211
 20
281.86130191770849
 30
0.0
 11
237.2951494595211
 21
281.86130191770849
 31
0.0
  0
LINE
  5
C639
  8
0
 10
240.7951494595211
 20
145.57262678311281
 30
0.0
 11
240.7951494595211
 21
195.8613019177084
 31
0.0
  0
LINE
  5
C63A
  8
3
 10
238.90064945952111
 20
150.86130191770829
 30
0.0
 11
238.90064945952111
 21
195.8613019177084
 31
0.0
  0
LINE
  5
C63B
  8
3
 10
212.68964945952109
 20
150.8613019177084
 30
0.0
 11
212.68964945952109
 21
195.8613019177084
 31
0.0
  0
LINE
  5
C63C
  8
0
 10
210.7951494595211
 20
145.5726267831129
 30
0.0
 11
210.7951494595211
 21
195.8613019177084
 31
0.0
  0
LINE
  5
C63D
  8
0
 10
210.7951494595211
 20
278.36130191770849
 30
0.0
 11
214.2951494595211
 21
281.86130191770849
 31
0.0
  0
LINE
  5
C63E
  8
0
 10
210.7951494595211
 20
278.36130191770849
 30
0.0
 11
240.7951494595211
 21
278.36130191770849
 31
0.0
  0
LINE
  5
C63F
  8
0
 10
240.7951494595211
 20
278.36130191770849
 30
0.0
 11
237.2951494595211
 21
281.86130191770849
 31
0.0
  0
LINE
  5
C640
  8
0
 10
210.7951494595211
 20
150.8613019177084
 30
0.0
 11
240.7951494595211
 21
150.8613019177084
 31
0.0
  0
LINE
  5
C641
  8
3
 10
212.68964945952109
 20
150.8613019177084
 30
0.0
 11
210.7951494595211
 21
147.5799316627691
 31
0.0
  0
LINE
  5
C642
  8
3
 10
238.90064945952111
 20
150.8613019177084
 30
0.0
 11
240.7951494595211
 21
147.5799316627691
 31
0.0
  0
CIRCLE
  5
C643
  8
3
 10
225.7951494595211
 20
429.74466654354927
 30
0.0
 40
13.10550000000006
  0
LINE
  5
C644
  8
0
 10
252.3451494595212
 20
429.74466654354927
 30
0.0
 11
239.07414945952101
 21
452.74466654354922
 31
0.0
  0
LINE
  5
C645
  8
0
 10
239.07414945952101
 20
406.74466654354922
 30
0.0
 11
252.3451494595212
 21
429.74466654354927
 31
0.0
  0
LINE
  5
C646
  8
0
 10
199.245149459521
 20
429.74466654354927
 30
0.0
 11
212.5161494595209
 21
452.74466654354922
 31
0.0
  0
LINE
  5
C647
  8
0
 10
212.5161494595209
 20
406.74466654354922
 30
0.0
 11
199.245149459521
 21
429.74466654354927
 31
0.0
  0
LINE
  5
C648
  8
0
 10
239.07414945952101
 20
452.74466654354922
 30
0.0
 11
212.5161494595209
 21
452.74466654354922
 31
0.0
  0
LINE
  5
C649
  8
0
 10
239.07414945952101
 20
406.74466654354922
 30
0.0
 11
212.5161494595209
 21
406.74466654354922
 31
0.0
  0
CIRCLE
  5
C64A
  8
0
 10
225.7951494595211
 20
429.74466654354927
 30
0.0
 40
15.0
  0
CIRCLE
  5
C64B
  8
0
 10
225.7951494595211
 20
429.74466654354927
 30
0.0
 40
23.0
  0
LINE
  5
C65B
  8
0
 10
288.29514945952093
 20
81.86130191770846
 30
0.0
 11
163.2951494595211
 21
81.861301917708602
 31
0.0
  0
LINE
  5
C65C
  8
0
 10
288.29514945952121
 20
81.86130191770846
 30
0.0
 11
288.29514945952121
 21
96.980508006753695
 31
0.0
  0
LINE
  5
C65E
  8
0
 10
246.7951494595211
 20
126.8613019177085
 30
0.0
 11
204.7951494595211
 21
126.8613019177085
 31
0.0
  0
LINE
  5
C65F
  8
0
 10
246.7951494595211
 20
126.8613019177085
 30
0.0
 11
260.79514945952093
 21
104.8613019177085
 31
0.0
  0
LINE
  5
C660
  8
0
 10
260.79514945952093
 20
104.8613019177085
 30
0.0
 11
266.54182874015589
 21
103.3985108280923
 31
0.0
  0
LINE
  5
C661
  8
0
 10
281.29514945952093
 20
98.752211008617564
 30
0.0
 11
281.29514945952093
 21
98.762326188571819
 31
0.0
  0
LINE
  5
C662
  8
0
 10
274.29514945952093
 20
100.5340291904357
 30
0.0
 11
274.29514945952093
 21
100.5441443703899
 31
0.0
  0
LINE
  5
C663
  8
0
 10
267.29514945952093
 20
102.315847372254
 30
0.0
 11
267.29514945952093
 21
102.4294136541693
 31
0.0
  0
LINE
  5
C664
  8
0
 10
287.42140373919511
 20
97.972505918477282
 30
0.0
 11
281.29514945952093
 21
98.752211008617564
 31
0.0
  0
LINE
  5
C665
  8
0
 10
280.42140373919489
 20
99.754324100295435
 30
0.0
 11
274.29514945952093
 21
100.5340291904357
 31
0.0
  0
LINE
  5
C666
  8
0
 10
273.421403739195
 20
101.5361422821136
 30
0.0
 11
267.29514945952093
 21
102.315847372254
 31
0.0
  0
ARC
  5
C667
  8
0
 10
266.29514945952093
 20
102.4294136541693
 30
0.0
 40
1.0
 50
0.0
 51
75.718904264029092
  0
ARC
  5
C668
  8
0
 10
273.29514945952093
 20
100.5441443703899
 30
0.0
 40
1.0
 50
0.0
 51
82.746805387274705
  0
ARC
  5
C669
  8
0
 10
280.29514945952093
 20
98.762326188571819
 30
0.0
 40
1.0
 50
0.000000000001832
 51
82.746805387274634
  0
ARC
  5
C66A
  8
0
 10
287.2951494595211
 20
96.980508006753695
 30
0.0
 40
1.0
 50
359.9999999999996
 51
82.746805387274634
  0
LINE
  5
C66B
  8
0
 10
281.29514945952093
 20
98.752211008617564
 30
0.0
 11
170.29514945952201
 21
98.752211008617721
 31
0.0
  0
LINE
  5
C66C
  8
0
 10
274.29514945952093
 20
100.5340291904357
 30
0.0
 11
177.29514945952181
 21
100.5340291904358
 31
0.0
  0
LINE
  5
C66D
  8
0
 10
267.29514945952093
 20
102.315847372254
 30
0.0
 11
184.29514945952181
 21
102.315847372254
 31
0.0
  0
LINE
  5
C66E
  8
0
 10
260.79514945952093
 20
104.8613019177085
 30
0.0
 11
190.7951494595213
 21
104.8613019177086
 31
0.0
  0
ARC
  5
C66F
  8
0
 10
164.29514945952101
 20
96.980508006753695
 30
0.0
 40
1.0
 50
97.253194612725352
 51
180.00000000000051
  0
ARC
  5
C670
  8
0
 10
171.2951494595211
 20
98.762326188571819
 30
0.0
 40
1.0
 50
97.253194612725352
 51
179.99999999999821
  0
ARC
  5
C671
  8
0
 10
178.2951494595211
 20
100.5441443703899
 30
0.0
 40
1.0
 50
97.253194612725281
 51
180.0
  0
ARC
  5
C672
  8
0
 10
185.2951494595211
 20
102.4294136541693
 30
0.0
 40
1.0
 50
104.28109573597089
 51
180.0
  0
LINE
  5
C673
  8
0
 10
178.16889517984711
 20
101.5361422821136
 30
0.0
 11
184.2951494595211
 21
102.315847372254
 31
0.0
  0
LINE
  5
C674
  8
0
 10
171.16889517984711
 20
99.754324100295435
 30
0.0
 11
177.2951494595211
 21
100.5340291904357
 31
0.0
  0
LINE
  5
C675
  8
0
 10
164.168895179847
 20
97.972505918477282
 30
0.0
 11
170.2951494595211
 21
98.752211008617564
 31
0.0
  0
LINE
  5
C676
  8
0
 10
184.2951494595211
 20
102.315847372254
 30
0.0
 11
184.2951494595211
 21
102.4294136541693
 31
0.0
  0
LINE
  5
C677
  8
0
 10
177.2951494595211
 20
100.5340291904357
 30
0.0
 11
177.2951494595211
 21
100.5441443703899
 31
0.0
  0
LINE
  5
C678
  8
0
 10
170.2951494595211
 20
98.752211008617564
 30
0.0
 11
170.2951494595211
 21
98.762326188571819
 31
0.0
  0
LINE
  5
C679
  8
0
 10
190.7951494595211
 20
104.8613019177085
 30
0.0
 11
185.04847017888611
 21
103.3985108280923
 31
0.0
  0
LINE
  5
C67A
  8
0
 10
204.7951494595211
 20
126.8613019177085
 30
0.0
 11
190.7951494595211
 21
104.8613019177085
 31
0.0
  0
LINE
  5
C67B
  8
0
 10
163.2951494595211
 20
81.861301917708602
 30
0.0
 11
163.29514945952101
 21
96.980508006753695
 31
0.0
  0
CIRCLE
  5
C67C
  8
0
 10
225.7951494595211
 20
429.74466654354927
 30
0.0
 40
62.499999999999929
  0
ARC
  5
C67D
  8
0
 10
225.7951494595211
 20
429.74466654354927
 30
0.0
 40
55.499999999999503
 50
11.453741223642981
 51
168.54625877635701
  0
ARC
  5
C67E
  8
0
 10
225.7951494595211
 20
429.74466654354927
 30
0.0
 40
48.499999999999901
 50
15.547742233147339
 51
164.4522577668526
  0
ARC
  5
C67F
  8
0
 10
225.7951494595211
 20
429.74466654354927
 30
0.0
 40
41.499999999999901
 50
18.255381895565829
 51
161.7446181044341
  0
CIRCLE
  5
C680
  8
0
 10
225.7951494595211
 20
429.74466654354927
 30
0.0
 40
34.999999999999829
  0
LINE
  5
C681
  8
1
 10
225.7951494595211
 20
502.24466654354922
 30
0.0
 11
225.7951494595211
 21
357.24466654354973
 31
0.0
  0
LINE
  5
C682
  8
1
 10
298.29514945952093
 20
429.74466654354927
 30
0.0
 11
153.2951494595211
 21
429.74466654354927
 31
0.0
  0
LINE
  5
C686
  8
0
 10
241.2951494595211
 20
128.86130191770849
 30
0.0
 11
210.2951494595211
 21
128.86130191770849
 31
0.0
  0
LINE
  5
C687
  8
0
 10
243.2951494595211
 20
126.8613019177085
 30
0.0
 11
241.2951494595211
 21
128.86130191770849
 31
0.0
  0
LINE
  5
C688
  8
0
 10
208.29514945952101
 20
126.8613019177085
 30
0.0
 11
210.29514945952101
 21
128.86130191770849
 31
0.0
  0
LINE
  5
C689
  8
0
 10
213.7951494595211
 20
128.8613019177086
 30
0.0
 11
213.7951494595211
 21
133.86130191773159
 31
0.0
  0
LINE
  5
C68A
  8
0
 10
237.7951494595211
 20
128.86130191770849
 30
0.0
 11
237.7951494595211
 21
133.86130191773171
 31
0.0
  0
LINE
  5
C68B
  8
1
 10
225.7951494595211
 20
291.86130191770849
 30
0.0
 11
225.79514945952101
 21
71.861301917708545
 31
0.0
  0
LINE
  5
C68C
  8
1
 10
433.21673264404512
 20
291.86130191770849
 30
0.0
 11
433.21673264404478
 21
71.861301917708431
 31
0.0
  0
ARC
  5
C7EB
  8
0
 10
433.21678324259369
 20
188.11238792452639
 30
0.0
 40
90.037229564227474
 50
262.96888753319593
 51
277.03089014507412
  0
LINE
  5
C7EC
  8
0
 10
446.2167326689783
 20
100.438978441797
 30
0.0
 11
446.2167326689783
 21
104.8613019177085
 31
0.0
  0
POLYLINE
  5
C7ED
  8
0
 66
     1
 10
0.0
 20
0.0
 30
0.0
 70
   128
  0
VERTEX
  5
CA98
  8
0
 10
444.80998952437278
 20
99.754324100384494
 30
0.0
  0
VERTEX
  5
CA99
  8
0
 10
445.62730598709982
 20
99.980649363863165
 30
0.0
  0
VERTEX
  5
CA9A
  8
0
 10
446.1064361802471
 20
100.2348608728487
 30
0.0
  0
VERTEX
  5
CA9B
  8
0
 10
446.2167326689783
 20
100.4389784419359
 30
0.0
  0
SEQEND
  5
CA9C
  8
0
  0
ARC
  5
C7EE
  8
0
 10
445.19136706345682
 20
98.873266052566066
 30
0.0
 40
0.9600583893375269
 50
113.4060070619262
 51
186.63565662816401
  0
LINE
  5
C7EF
  8
0
 10
444.23774007190292
 20
98.762326188708471
 30
0.0
 11
444.23774007184932
 21
98.752211008708457
 31
0.0
  0
ARC
  5
C7F0
  8
0
 10
421.2410389864242
 20
98.872082508699563
 30
0.0
 40
0.9615654732354432
 50
353.14234422368253
 51
66.564082179694097
  0
ARC
  5
C7F1
  8
0
 10
421.62795220585917
 20
101.55104980324541
 30
0.0
 40
1.796731280032773
 50
218.2388705609433
 51
269.85725297068473
  0
LINE
  5
C7F2
  8
0
 10
420.2167326689783
 20
104.8613019177085
 30
0.0
 11
420.2167326689783
 21
100.4389784421641
 31
0.0
  0
LINE
  5
C7F3
  8
0
 10
446.2167326689783
 20
104.8613019177085
 30
0.0
 11
420.2167326689783
 21
104.8613019177085
 31
0.0
  0
LINE
  5
C7F4
  8
0
 10
422.19572528321169
 20
98.757268598199062
 30
0.0
 11
422.1954796792383
 21
98.752253774282877
 31
0.0
  0
LINE
  5
C7F5
  8
0
 10
422.19582642574431
 20
98.752211008617522
 30
0.0
 11
377.71673264404609
 21
98.752211008617564
 31
0.0
  0
LINE
  5
C7F8
  8
0
 10
420.2167326689783
 20
100.5340291904357
 30
0.0
 11
384.71673264404598
 21
100.5340291904357
 31
0.0
  0
LINE
  5
C7F9
  8
0
 10
420.2167326689783
 20
102.3158473722538
 30
0.0
 11
391.71673264404592
 21
102.3158473722538
 31
0.0
  0
LINE
  5
C7FA
  8
0
 10
420.2167326689783
 20
104.8613019177084
 30
0.0
 11
398.21673264404541
 21
104.8613019177085
 31
0.0
  0
LINE
  5
C81D
  8
0
 10
252.3451494595212
 20
216.94215491770839
 30
0.0
 11
252.3451494595212
 21
198.78044891770841
 31
0.0
  0
LINE
  5
C81E
  8
0
 10
199.24514945952109
 20
198.78044891770841
 30
0.0
 11
199.24514945952109
 21
216.94215491770839
 31
0.0
  0
LINE
  5
C81F
  8
0
 10
239.07514945952121
 20
198.78044891770841
 30
0.0
 11
239.07514945952121
 21
216.94215491770839
 31
0.0
  0
LINE
  5
C820
  8
0
 10
212.51514945952121
 20
198.78044891770841
 30
0.0
 11
212.51514945952121
 21
216.94215491770839
 31
0.0
  0
LINE
  5
C821
  8
0
 10
245.7101494595212
 20
219.8613019177084
 30
0.0
 11
205.88014945952119
 21
219.8613019177084
 31
0.0
  0
ARC
  5
C822
  8
0
 10
245.7101494595212
 20
210.8613019177084
 30
0.0
 40
9.0
 50
42.504674000000037
 51
137.49532599999981
  0
ARC
  5
C823
  8
0
 10
225.79514945952121
 20
188.19454691770841
 30
0.0
 40
31.666754999999998
 50
65.205353999999673
 51
114.7946460000003
  0
ARC
  5
C824
  8
0
 10
205.88014945952119
 20
210.8613019177084
 30
0.0
 40
9.0
 50
42.504674000000037
 51
137.49532599999981
  0
ARC
  5
C825
  8
0
 10
205.88014945952119
 20
204.8613019177084
 30
0.0
 40
9.0
 50
222.50467399999999
 51
317.49532599999992
  0
ARC
  5
C826
  8
0
 10
225.79514945952121
 20
227.5280569177084
 30
0.0
 40
31.666754999999998
 50
245.2053539999996
 51
294.79464600000028
  0
ARC
  5
C827
  8
0
 10
245.7101494595212
 20
204.8613019177084
 30
0.0
 40
9.0
 50
222.50467399999999
 51
317.49532599999992
  0
LINE
  5
C828
  8
0
 10
245.7101494595212
 20
195.8613019177084
 30
0.0
 11
205.88014945952119
 21
195.8613019177084
 31
0.0
  0
LINE
  5
C829
  8
0
 10
456.21673264404512
 20
219.8613019177084
 30
0.0
 11
456.21673264404512
 21
195.8613019177084
 31
0.0
  0
LINE
  5
C82A
  8
0
 10
456.21673264404512
 20
195.8613019177084
 30
0.0
 11
410.21673264404512
 21
195.8613019177084
 31
0.0
  0
LINE
  5
C82B
  8
0
 10
410.21673264404512
 20
195.8613019177084
 30
0.0
 11
410.21673264404512
 21
219.8613019177084
 31
0.0
  0
LINE
  5
C82C
  8
0
 10
410.21673264404512
 20
219.8613019177084
 30
0.0
 11
456.21673264404512
 21
219.8613019177084
 31
0.0
  0
LINE
  5
C82D
  8
0
 10
433.21673264404512
 20
199.41130191770841
 30
0.0
 11
433.21673264404512
 21
216.31130191770831
 31
0.0
  0
ARC
  5
C82E
  8
0
 10
444.7167326440449
 20
199.45954135432811
 30
0.0
 40
20.401760563380279
 50
55.689540662730799
 51
124.31045933726919
  0
ARC
  5
C82F
  8
0
 10
421.71673264404512
 20
199.45954135432811
 30
0.0
 40
20.4017605633803
 50
55.689540662730799
 51
124.31045933726919
  0
ARC
  5
C830
  8
0
 10
421.71673264404512
 20
216.2630624810887
 30
0.0
 40
20.401760563380279
 50
235.68954066273079
 51
304.31045933726909
  0
ARC
  5
C831
  8
0
 10
444.7167326440449
 20
216.2630624810887
 30
0.0
 40
20.401760563380279
 50
235.68954066273079
 51
304.31045933726909
  0
TEXT
  5
CA7B
  8
0
 62
     3
 10
0.0
 20
0.0
 30
0.0
 40
10.0
  1
LVF125B30A
  7
STANDARD1
  0
ENDSEC
  0
EOF
