  0
SECTION
  2
HEADER
  9
$ACADVER
  1
AC1009
  9
$INSBASE
 10
0.0
 20
0.0
 30
0.0
  9
$EXTMIN
 10
0.0
 20
-2.960436562073669
 30
0.0
  9
$EXTMAX
 10
337.11100835225602
 20
434.27294896476877
 30
0.0
  9
$LIMMIN
 10
0.0
 20
0.0
  9
$LIMMAX
 10
375.0
 20
270.0
  9
$ORTHOMODE
 70
     0
  9
$REGENMODE
 70
     1
  9
$FILLMODE
 70
     1
  9
$QTEXTMODE
 70
     0
  9
$MIRRTEXT
 70
     0
  9
$DRAGMODE
 70
     2
  9
$LTSCALE
 40
10.0
  9
$OSMODE
 70
  3071
  9
$ATTMODE
 70
     1
  9
$TEXTSIZE
 40
0.2
  9
$TRACEWID
 40
0.05
  9
$TEXTSTYLE
  7
STANDARD
  9
$CLAYER
  8
0
  9
$CELTYPE
  6
BYLAYER
  9
$CECOLOR
 62
   256
  9
$DIMSCALE
 40
1.0
  9
$DIMASZ
 40
3.0
  9
$DIMEXO
 40
1.0
  9
$DIMDLI
 40
6.0
  9
$DIMRND
 40
0.0
  9
$DIMDLE
 40
0.0
  9
$DIMEXE
 40
1.0
  9
$DIMTP
 40
495.0
  9
$DIMTM
 40
0.0
  9
$DIMTXT
 40
3.0
  9
$DIMCEN
 40
0.0
  9
$DIMTSZ
 40
0.0
  9
$DIMTOL
 70
     0
  9
$DIMLIM
 70
     0
  9
$DIMTIH
 70
     0
  9
$DIMTOH
 70
     0
  9
$DIMSE1
 70
     0
  9
$DIMSE2
 70
     0
  9
$DIMTAD
 70
     1
  9
$DIMZIN
 70
     0
  9
$DIMBLK
  1

  9
$DIMASO
 70
     0
  9
$DIMSHO
 70
     0
  9
$DIMPOST
  1

  9
$DIMAPOST
  1

  9
$DIMALT
 70
     0
  9
$DIMALTD
 70
     2
  9
$DIMALTF
 40
25.399999999999999
  9
$DIMLFAC
 40
1.0
  9
$DIMTOFL
 70
     1
  9
$DIMTVP
 40
0.0
  9
$DIMTIX
 70
     1
  9
$DIMSOXD
 70
     0
  9
$DIMSAH
 70
     0
  9
$DIMBLK1
  1

  9
$DIMBLK2
  1

  9
$DIMSTYLE
  2
STANDARD
  9
$DIMCLRD
 70
     0
  9
$DIMCLRE
 70
     0
  9
$DIMCLRT
 70
     4
  9
$DIMTFAC
 40
1.0
  9
$DIMGAP
 40
1.0
  9
$LUNITS
 70
     2
  9
$LUPREC
 70
     4
  9
$SKETCHINC
 40
0.1
  9
$FILLETRAD
 40
2.0
  9
$AUNITS
 70
     0
  9
$AUPREC
 70
     0
  9
$MENU
  1
C:\R13\WIN\SUPPORT\ACAD-I
  9
$ELEVATION
 40
0.0
  9
$PELEVATION
 40
0.0
  9
$THICKNESS
 40
0.0
  9
$LIMCHECK
 70
     0
  9
$BLIPMODE
 70
     0
  9
$CHAMFERA
 40
0.0
  9
$CHAMFERB
 40
0.0
  9
$SKPOLY
 70
     0
  9
$TDCREATE
 40
2451963.4551537042
  9
$TDUPDATE
 40
2456597.6172938538
  9
$TDINDWG
 40
0.0459969907
  9
$TDUSRTIMER
 40
2456554.3203064809
  9
$USRTIMER
 70
     1
  9
$ANGBASE
 50
0.0
  9
$ANGDIR
 70
     0
  9
$PDMODE
 70
     0
  9
$PDSIZE
 40
0.0
  9
$PLINEWID
 40
0.0
  9
$COORDS
 70
     1
  9
$SPLFRAME
 70
     0
  9
$SPLINETYPE
 70
     6
  9
$SPLINESEGS
 70
     8
  9
$ATTDIA
 70
     0
  9
$ATTREQ
 70
     1
  9
$HANDLING
 70
     1
  9
$HANDSEED
  5
A3AE
  9
$SURFTAB1
 70
     6
  9
$SURFTAB2
 70
     6
  9
$SURFTYPE
 70
     6
  9
$SURFU
 70
     6
  9
$SURFV
 70
     6
  9
$UCSNAME
  2

  9
$UCSORG
 10
0.0
 20
0.0
 30
0.0
  9
$UCSXDIR
 10
1.0
 20
0.0
 30
0.0
  9
$UCSYDIR
 10
0.0
 20
1.0
 30
0.0
  9
$PUCSNAME
  2

  9
$PUCSORG
 10
0.0
 20
0.0
 30
0.0
  9
$PUCSXDIR
 10
1.0
 20
0.0
 30
0.0
  9
$PUCSYDIR
 10
0.0
 20
1.0
 30
0.0
  9
$USERI1
 70
     4
  9
$USERI2
 70
     1
  9
$USERI3
 70
     0
  9
$USERI4
 70
     0
  9
$USERI5
 70
     0
  9
$USERR1
 40
1.0
  9
$USERR2
 40
3.0
  9
$USERR3
 40
3.0
  9
$USERR4
 40
3.0
  9
$USERR5
 40
10.0
  9
$WORLDVIEW
 70
     1
  9
$SHADEDGE
 70
     3
  9
$SHADEDIF
 70
    70
  9
$TILEMODE
 70
     1
  9
$MAXACTVP
 70
    16
  9
$PLIMCHECK
 70
     0
  9
$PEXTMIN
 10
1.0000000000000000E+020
 20
1.0000000000000000E+020
 30
1.0000000000000000E+020
  9
$PEXTMAX
 10
-1.0000000000000000E+020
 20
-1.0000000000000000E+020
 30
-1.0000000000000000E+020
  9
$PLIMMIN
 10
0.0
 20
0.0
  9
$PLIMMAX
 10
12.0
 20
9.0
  9
$UNITMODE
 70
     0
  9
$VISRETAIN
 70
     0
  9
$PLINEGEN
 70
     0
  9
$PSLTSCALE
 70
     0
  0
ENDSEC
  0
SECTION
  2
TABLES
  0
TABLE
  2
VPORT
 70
     1
  0
VPORT
  2
*ACTIVE
 70
     0
 10
0.0
 20
0.0
 11
1.0
 21
1.0
 12
187.49427839065231
 22
216.60864122379701
 13
0.0
 23
0.0
 14
10.0
 24
10.0
 15
10.0
 25
10.0
 16
0.0
 26
0.0
 36
1.0
 17
0.0
 27
0.0
 37
0.0
 40
444.16719476594341
 41
2.304913294797688
 42
50.0
 43
0.0
 44
0.0
 50
0.0
 51
0.0
 71
    16
 72
   100
 73
     1
 74
     0
 75
     0
 76
     0
 77
     0
 78
     0
  0
ENDTAB
  0
TABLE
  2
LTYPE
 70
     4
  0
LTYPE
  2
CONTINUOUS
 70
     0
  3
Solid Line
 72
    65
 73
     0
 40
0.0
  0
LTYPE
  2
PHANTOM2
 70
     0
  3
___ _ _ ___ _ _ ___ _ _ ___ _ _
 72
    65
 73
     6
 40
1.25
 49
0.625
 49
-0.125
 49
0.125
 49
-0.125
 49
0.125
 49
-0.125
  0
LTYPE
  2
CENTER
 70
     0
  3
____ _ ____ _ ____ _ ____ _ ____ _ ____ _ ____
 72
    65
 73
     4
 40
2.0
 49
1.25
 49
-0.25
 49
0.25
 49
-0.25
  0
LTYPE
  2
HIDDEN
 70
     0
  3
_ _ _ _ _ _ _ _ _ _ _ _ _ _ _ _ _ _ _ _ _ _ _
 72
    65
 73
     2
 40
0.375
 49
0.25
 49
-0.125
  0
ENDTAB
  0
TABLE
  2
LAYER
 70
     5
  0
LAYER
  2
0
 70
     0
 62
     7
  6
CONTINUOUS
  0
LAYER
  2
1
 70
     0
 62
     1
  6
CENTER
  0
LAYER
  2
3
 70
     0
 62
     3
  6
CONTINUOUS
  0
LAYER
  2
2
 70
     0
 62
     2
  6
HIDDEN
  0
LAYER
  2
DEFPOINTS
 70
     0
 62
     7
  6
CONTINUOUS
  0
ENDTAB
  0
TABLE
  2
STYLE
 70
     3
  0
STYLE
  2
STANDARD
 70
     0
 40
0.0
 41
1.0
 50
0.0
 71
     0
 42
0.2
  3
SIMPLEX
  4
BIGFONT
  0
STYLE
  2
ANNOTATIVE
 70
     0
 40
0.0
 41
1.0
 50
0.0
 71
     0
 42
0.2
  3
txt
  4

  0
STYLE
  2
STANDARD1
 70
     0
 40
0.0
 41
1.0
 50
0.0
 71
     0
 42
3.0
  3
txt
  4

  0
ENDTAB
  0
TABLE
  2
VIEW
 70
     0
  0
ENDTAB
  0
TABLE
  2
UCS
 70
     0
  0
ENDTAB
  0
TABLE
  2
APPID
 70
    29
  0
APPID
  2
ACAD
 70
     0
  0
APPID
  2
ACADANNOTATIVE
 70
     0
  0
APPID
  2
GENIUS_GENOREF_13
 70
     0
  0
APPID
  2
GENIUS_GENOENT_13
 70
     0
  0
APPID
  2
GENIUS_GENBH_13
 70
     0
  0
APPID
  2
GENIUS_GENOBJ_13
 70
     0
  0
APPID
  2
GENIUS_GENODEF_13
 70
     0
  0
APPID
  2
GENIUS_GENOLIS_13
 70
     0
  0
APPID
  2
GENIUS_GENOBJ-NBEHI-BHF_13
 70
     0
  0
APPID
  2
GENIUS_GENOBJ-NBEHI-BHB_13
 70
     0
  0
APPID
  2
GENIUS_GENOBJ-F-PART_13
 70
     0
  0
APPID
  2
GENIUS_GEFSTDP_13
 70
     0
  0
APPID
  2
GENIUS_GENOBJ-N-RSSYM_13
 70
     0
  0
APPID
  2
GENIUS_GENSYMENT_13
 70
     0
  0
APPID
  2
GENIUS_GENOBJ-N-TIT_13
 70
     0
  0
APPID
  2
GENIUS_GENTITLE_13
 70
     0
  0
APPID
  2
GENIUS_GENZVEED_13
 70
     0
  0
APPID
  2
GENIUS_GENOBJ-N-LEADER_13
 70
     0
  0
APPID
  2
GENIUS_GENOBJ-N-FIL_13
 70
     0
  0
APPID
  2
GENIUS_GENOBJ-N-SEC_13
 70
     0
  0
APPID
  2
GENIUS_GENOBJ-N-CRS_13
 70
     0
  0
APPID
  2
GENIUS_GENOBJ-N-ZOO_13
 70
     0
  0
APPID
  2
GENIUS_GENZOO_13
 70
     0
  0
APPID
  2
GENIUS_GENOBJ-F-TOL_13
 70
     0
  0
APPID
  2
GENIUS_GENFIL_13
 70
     0
  0
APPID
  2
GENIUS_GENOBJ-N-CHA_13
 70
     0
  0
APPID
  2
ACAD_EXEMPT_FROM_CAD_STANDARDS
 70
     0
  0
APPID
  2
ACAD_MLEADERVER
 70
     0
  0
APPID
  2
ACAD_NAV_VCDISPLAY
 70
     0
  0
ENDTAB
  0
TABLE
  2
DIMSTYLE
 70
     2
  0
DIMSTYLE
  2
STANDARD
 70
     0
  3

  4

  5

  6

  7

 40
1.0
 41
0.18
 42
0.0625
 43
0.38
 44
0.18
 45
0.0
 46
0.0
 47
0.0
 48
0.0
140
0.18
141
0.09
142
0.0
143
25.399999999999999
144
1.0
145
0.0
146
1.0
147
0.09
 71
     0
 72
     0
 73
     1
 74
     1
 75
     0
 76
     0
 77
     0
 78
     0
170
     0
171
     2
172
     0
173
     0
174
     0
175
     0
176
     0
177
     0
178
     0
  0
DIMSTYLE
  2
ANNOTATIVE
 70
     0
  3

  4

  5

  6

  7

 40
1.0
 41
0.18
 42
0.0625
 43
0.38
 44
0.18
 45
0.0
 46
0.0
 47
0.0
 48
0.0
140
0.18
141
0.09
142
0.0
143
25.399999999999999
144
1.0
145
0.0
146
1.0
147
0.09
 71
     0
 72
     0
 73
     1
 74
     1
 75
     0
 76
     0
 77
     0
 78
     0
170
     0
171
     2
172
     0
173
     0
174
     0
175
     0
176
     0
177
     0
178
     0
  0
ENDTAB
  0
ENDSEC
  0
SECTION
  2
BLOCKS
  0
BLOCK
  8
0
  2
$MODEL_SPACE
 70
     0
 10
0.0
 20
0.0
 30
0.0
  3
$MODEL_SPACE
  1

  0
ENDBLK
  5
A2C0
  8
0
  0
BLOCK
 67
     1
  8
0
  2
$PAPER_SPACE
 70
     0
 10
0.0
 20
0.0
 30
0.0
  3
$PAPER_SPACE
  1

  0
ENDBLK
  5
A2BC
 67
     1
  8
0
  0
ENDSEC
  0
SECTION
  2
ENTITIES
  0
ARC
  5
9EB3
  8
0
 10
287.11100835225602
 20
46.567748868732103
 30
0.0
 40
12.25
 50
31.065080896355841
 51
46.062160114254262
  0
ARC
  5
9EB4
  8
0
 10
287.11100835225602
 20
46.567748868732103
 30
0.0
 40
12.25
 50
133.93783988574569
 51
148.93491910364409
  0
LINE
  5
9EB5
  8
0
 10
278.61100835225602
 20
61.888888250934649
 30
0.0
 11
278.61100835225602
 21
55.38888825094876
 31
0.0
  0
LINE
  5
9EB6
  8
0
 10
295.61100835225602
 20
61.888888250934649
 30
0.0
 11
295.61100835225602
 21
55.388888250920559
 31
0.0
  0
LINE
  5
9EB7
  8
0
 10
278.11100835225591
 20
269.88888825099218
 30
0.0
 11
296.11100835225602
 21
269.8888882509919
 31
0.0
  0
LINE
  5
9EB8
  8
0
 10
299.11100835225602
 20
71.600213116365794
 30
0.0
 11
299.11100835225602
 21
160.8888882509919
 31
0.0
  0
LINE
  5
9EB9
  8
3
 10
297.487008352256
 20
76.888888250991954
 30
0.0
 11
297.487008352256
 21
160.8888882509917
 31
0.0
  0
LINE
  5
9EBA
  8
3
 10
276.73500835225599
 20
76.888888250991954
 30
0.0
 11
276.73500835225587
 21
160.8888882509919
 31
0.0
  0
LINE
  5
9EBB
  8
0
 10
275.11100835225602
 20
71.600213116303522
 30
0.0
 11
275.11100835225602
 21
160.8888882509919
 31
0.0
  0
LINE
  5
9EBC
  8
0
 10
275.11100835225602
 20
266.88888825099241
 30
0.0
 11
278.11100835225591
 21
269.88888825099218
 31
0.0
  0
LINE
  5
9EBD
  8
0
 10
296.11100835225602
 20
269.8888882509919
 30
0.0
 11
299.11100835225602
 21
266.88888825099201
 31
0.0
  0
LINE
  5
9EBE
  8
0
 10
275.11100835225602
 20
266.88888825099241
 30
0.0
 11
299.11100835225591
 21
266.88888825099201
 31
0.0
  0
LINE
  5
9EBF
  8
0
 10
299.11100835225602
 20
76.888888250991954
 30
0.0
 11
275.11100835225602
 21
76.888888250991954
 31
0.0
  0
LINE
  5
9EC0
  8
3
 10
276.73500835225587
 20
76.888888250991954
 30
0.0
 11
275.11100835225602
 21
74.076037739500066
 31
0.0
  0
LINE
  5
9EC1
  8
3
 10
297.48700835225588
 20
76.888888250991954
 30
0.0
 11
299.11100835225591
 21
74.076037739500066
 31
0.0
  0
LINE
  5
9EC2
  8
0
 10
298.61100835220208
 20
61.888888250991933
 30
0.0
 11
275.61100835241763
 21
61.888888250991933
 31
0.0
  0
LINE
  5
9EC3
  8
0
 10
275.61100835230991
 20
71.888888250991954
 30
0.0
 11
298.61100835220208
 21
71.888888250991954
 31
0.0
  0
ARC
  5
9EC4
  8
0
 10
297.50331319772317
 20
65.46623852070627
 30
0.0
 40
6.1339745957208196
 50
64.384247469840446
 51
124.3842474712085
  0
LINE
  5
9EC5
  8
0
 10
300.96741481288291
 20
70.528416346597737
 30
0.0
 11
298.61100835220208
 21
71.888888250991954
 31
0.0
  0
LINE
  5
9EC6
  8
0
 10
300.96741481288291
 20
63.249360155386171
 30
0.0
 11
298.61100835220208
 21
61.888888250991933
 31
0.0
  0
ARC
  5
9EC7
  8
0
 10
297.50331319772317
 20
68.311537981277638
 30
0.0
 40
6.1339745957208196
 50
235.6157525287887
 51
295.61575253015963
  0
LINE
  5
9EC8
  8
0
 10
300.96741481286108
 20
70.528416346597737
 30
0.0
 11
300.96741481286108
 21
63.249360155373431
 31
0.0
  0
LINE
  5
9EC9
  8
0
 10
294.03921158258521
 20
70.528416346597737
 30
0.0
 11
294.03921158258521
 21
63.249360155386171
 31
0.0
  0
LINE
  5
9ECA
  8
0
 10
280.18280512203438
 20
70.528416346597737
 30
0.0
 11
280.18280512203438
 21
63.249360155386171
 31
0.0
  0
LINE
  5
9ECB
  8
0
 10
273.25460189175868
 20
70.528416346597737
 30
0.0
 11
273.25460189175868
 21
63.249360155373431
 31
0.0
  0
ARC
  5
9ECC
  8
0
 10
287.11100835231002
 20
85.105766613696346
 30
0.0
 40
22.928203228139491
 50
252.41204622431411
 51
287.58795377568589
  0
ARC
  5
9ECD
  8
0
 10
276.71870350689642
 20
68.311537981277638
 30
0.0
 40
6.1339745957208196
 50
244.3842474698404
 51
304.38424747121132
  0
LINE
  5
9ECE
  8
0
 10
273.25460189173691
 20
63.249360155386171
 30
0.0
 11
275.61100835241763
 21
61.888888250991933
 31
0.0
  0
LINE
  5
9ECF
  8
0
 10
273.25460189173691
 20
70.528416346597737
 30
0.0
 11
275.61100835241763
 21
71.888888250991954
 31
0.0
  0
ARC
  5
9ED0
  8
0
 10
276.71870350689642
 20
65.46623852070627
 30
0.0
 40
6.1339745957208196
 50
55.615752528791369
 51
115.6157525301595
  0
ARC
  5
9ED1
  8
0
 10
287.11100835231002
 20
48.672009888287562
 30
0.0
 40
22.928203228139491
 50
72.412046224314139
 51
107.5879537756858
  0
LINE
  5
9ED2
  8
0
 10
278.61100835225602
 20
55.388888250920559
 30
0.0
 11
295.61100835225602
 21
55.388888250920559
 31
0.0
  0
LINE
  5
9ED3
  8
0
 10
269.11100836690679
 20
179.31153799026089
 30
0.0
 11
269.11100836690679
 21
161.46623851172271
 31
0.0
  0
LINE
  5
9ED4
  8
0
 10
270.11100835225602
 20
179.8888882509919
 30
0.0
 11
269.11100836690679
 21
179.31153799026089
 31
0.0
  0
ARC
  5
9ED5
  8
0
 10
278.11100835958121
 20
153.3163474829488
 30
0.0
 40
25.995190507312159
 50
69.743841999652659
 51
110.2561580003473
  0
ARC
  5
9ED6
  8
0
 10
278.11100835958121
 20
187.46142901903491
 30
0.0
 40
25.995190507312159
 50
249.74384199965269
 51
290.2561580003474
  0
LINE
  5
9ED7
  8
0
 10
270.11100835225602
 20
160.8888882509917
 30
0.0
 11
269.11100836690679
 21
161.46623851172271
 31
0.0
  0
LINE
  5
9ED8
  8
0
 10
304.11100835225568
 20
160.8888882509917
 30
0.0
 11
305.11100833760503
 21
161.46623851172271
 31
0.0
  0
ARC
  5
9ED9
  8
0
 10
296.11100834493038
 20
187.46142901903491
 30
0.0
 40
25.995190507312159
 50
249.74384199965269
 51
290.2561580003474
  0
ARC
  5
9EDA
  8
0
 10
296.11100834493038
 20
153.3163474829488
 30
0.0
 40
25.995190507312159
 50
69.743841999652659
 51
110.2561580003473
  0
LINE
  5
9EDB
  8
0
 10
304.11100835225568
 20
179.8888882509919
 30
0.0
 11
305.11100833760503
 21
179.31153799026089
 31
0.0
  0
LINE
  5
9EDC
  8
0
 10
270.11100835225602
 20
179.8888882509919
 30
0.0
 11
304.11100835225568
 21
179.8888882509919
 31
0.0
  0
LINE
  5
9EDD
  8
0
 10
305.11100833760503
 20
179.31153799026089
 30
0.0
 11
305.11100833760503
 21
161.46623851172271
 31
0.0
  0
LINE
  5
9EDE
  8
0
 10
270.11100835225602
 20
160.8888882509917
 30
0.0
 11
304.11100835225568
 21
160.8888882509917
 31
0.0
  0
LINE
  5
9EDF
  8
0
 10
287.11100835225591
 20
177.7038428369886
 30
0.0
 11
287.11100835225591
 21
163.0739336649952
 31
0.0
  0
LINE
  5
9EE0
  8
0
 10
299.11100835225602
 20
179.8888882509919
 30
0.0
 11
299.11100835225602
 21
266.88888825099201
 31
0.0
  0
LINE
  5
9EE1
  8
3
 10
297.487008352256
 20
179.8888882509919
 30
0.0
 11
297.487008352256
 21
268.51288825099198
 31
0.0
  0
LINE
  5
9EE2
  8
0
 10
275.11100835225602
 20
179.8888882509919
 30
0.0
 11
275.11100835225602
 21
266.88888825099241
 31
0.0
  0
LINE
  5
9EE3
  8
3
 10
276.73500835225587
 20
179.88888825099161
 30
0.0
 11
276.73500835225587
 21
268.51288825099221
 31
0.0
  0
LINE
  5
9EE4
  8
1
 10
76.687837456210673
 20
23.88888825099173
 30
0.0
 11
76.687837456210673
 21
56.888888250991727
 31
0.0
  0
LINE
  5
9EE5
  8
0
 10
62.687837456210573
 20
51.888888250991727
 30
0.0
 11
94.187837456210474
 21
51.888888250991727
 31
0.0
  0
LINE
  5
9EE6
  8
0
 10
62.687837456210609
 20
51.888888250991727
 30
0.0
 11
62.687837456210659
 21
39.088888250991651
 31
0.0
  0
LINE
  5
9EE7
  8
0
 10
160.6878374562103
 20
51.888888250991727
 30
0.0
 11
160.6878374562103
 21
39.08888825099163
 31
0.0
  0
LINE
  5
9EE8
  8
0
 10
160.6878374562103
 20
51.888888250991727
 30
0.0
 11
129.18783745621039
 21
51.888888250991727
 31
0.0
  0
LINE
  5
9EE9
  8
1
 10
146.68783745621019
 20
23.88888825099173
 30
0.0
 11
146.68783745621019
 21
56.888888250991727
 31
0.0
  0
LINE
  5
9EF0
  8
0
 10
98.697456416363707
 20
387.77294896476877
 30
0.0
 11
76.187837456210559
 21
387.77294896476877
 31
0.0
  0
LINE
  5
9EF1
  8
0
 10
98.697456416359955
 20
360.77294896476877
 30
0.0
 11
76.187837456210559
 21
360.77294896476877
 31
0.0
  0
LINE
  5
9EF2
  8
1
 10
76.687837456210445
 20
385.52294896476877
 30
0.0
 11
76.687837456210445
 21
363.02294896476877
 31
0.0
  0
CIRCLE
  5
9EF3
  8
2
 10
76.687837456210445
 20
374.27294896476877
 30
0.0
 40
6.25
  0
ARC
  5
9EF4
  8
0
 10
76.187837456210559
 20
374.27294896476877
 30
0.0
 40
13.5
 50
85.602109657814268
 51
274.3978903421858
  0
LINE
  5
9EF5
  8
1
 10
146.68783745621039
 20
385.52294896476877
 30
0.0
 11
146.68783745621039
 21
363.02294896476877
 31
0.0
  0
LINE
  5
9EF6
  8
0
 10
147.1878374562103
 20
360.77294896476877
 30
0.0
 11
124.67821849605281
 21
360.77294896476877
 31
0.0
  0
CIRCLE
  5
9EF7
  8
2
 10
146.68783745621039
 20
374.27294896476877
 30
0.0
 40
6.25
  0
ARC
  5
9EF8
  8
0
 10
147.1878374562103
 20
374.27294896476877
 30
0.0
 40
13.5
 50
265.60210965781431
 51
94.397890342185718
  0
LINE
  5
9EF9
  8
0
 10
147.1878374562103
 20
387.77294896476877
 30
0.0
 11
124.6782184960569
 21
387.77294896476877
 31
0.0
  0
ARC
  5
9EFA
  8
0
 10
111.6878374562104
 20
374.27294896476877
 30
0.0
 40
45.0
 50
193.78300087510411
 51
346.21699912489572
  0
ARC
  5
9EFB
  8
0
 10
111.6878374562104
 20
374.27294896476877
 30
0.0
 40
37.0
 50
21.333169911497141
 51
158.60073350464941
  0
ARC
  5
9EFC
  8
0
 10
111.6878374562104
 20
374.27294896476877
 30
0.0
 40
30.0
 50
206.74368395040301
 51
333.25631604959688
  0
ARC
  5
9EFD
  8
0
 10
111.6878374562104
 20
374.27294896476877
 30
0.0
 40
23.999999999999989
 50
214.22886632781291
 51
325.77113367218737
  0
CIRCLE
  5
9EFE
  8
3
 10
111.6878374562104
 20
374.27294896476877
 30
0.0
 40
10.375999999999999
  0
CIRCLE
  5
9EFF
  8
0
 10
111.6878374562104
 20
374.272948964769
 30
0.0
 40
12.0
  0
CIRCLE
  5
9F00
  8
0
 10
111.6878374562104
 20
374.27294896476877
 30
0.0
 40
17.0
  0
LINE
  5
9F01
  8
0
 10
101.2955326192502
 20
392.27294895011778
 30
0.0
 11
122.0801423100753
 21
392.27294895011778
 31
0.0
  0
LINE
  5
9F02
  8
0
 10
122.0801422931678
 20
392.27294895010323
 30
0.0
 11
132.4724471385841
 21
374.27294895011778
 31
0.0
  0
LINE
  5
9F03
  8
0
 10
132.47244713011119
 20
374.27294896477167
 30
0.0
 11
122.08014228470221
 21
356.27294896477167
 31
0.0
  0
LINE
  5
9F04
  8
0
 10
122.0801422931569
 20
356.27294897942539
 30
0.0
 11
101.2955326023317
 21
356.27294897942539
 31
0.0
  0
LINE
  5
9F05
  8
0
 10
101.295532619252
 20
356.27294897942539
 30
0.0
 11
90.903227773835795
 21
374.27294897942551
 31
0.0
  0
LINE
  5
9F06
  8
0
 10
90.903227782308633
 20
374.27294896477167
 30
0.0
 11
101.29553262771761
 21
392.27294896477167
 31
0.0
  0
LINE
  5
9F07
  8
1
 10
287.11100835225602
 20
279.88888825099201
 30
0.0
 11
287.11100835225602
 21
18.88888825099172
 31
0.0
  0
LINE
  5
9F08
  8
1
 10
111.6878374562104
 20
279.88888825099201
 30
0.0
 11
111.6878374562104
 21
18.88888825099172
 31
0.0
  0
ARC
  5
9F09
  8
0
 10
111.6878374562104
 20
46.567748868731883
 30
0.0
 40
12.25
 50
31.065080896357031
 51
46.062160114254262
  0
LINE
  5
9F0A
  8
DEFPOINTS
 10
103.1878374562386
 20
55.388888250947851
 30
0.0
 11
120.1878374562104
 21
55.388888250947851
 31
0.0
  0
LINE
  5
9F0B
  8
3
 10
122.06383745621029
 20
76.888888250991712
 30
0.0
 11
123.6878374562104
 21
74.076037739499839
 31
0.0
  0
LINE
  5
9F0C
  8
3
 10
101.3118374562104
 20
76.888888250991712
 30
0.0
 11
99.687837456210445
 21
74.076037739499839
 31
0.0
  0
LINE
  5
9F0D
  8
0
 10
123.6878374562104
 20
76.888888250991712
 30
0.0
 11
99.687837456210445
 21
76.888888250991712
 31
0.0
  0
LINE
  5
9F0E
  8
0
 10
99.687837456210445
 20
266.88888825099218
 30
0.0
 11
123.6878374562104
 21
266.88888825099173
 31
0.0
  0
LINE
  5
9F0F
  8
0
 10
120.6878374562104
 20
269.88888825099173
 30
0.0
 11
123.6878374562104
 21
266.88888825099173
 31
0.0
  0
LINE
  5
9F10
  8
0
 10
99.687837456210445
 20
266.88888825099218
 30
0.0
 11
102.6878374562104
 21
269.8888882509919
 31
0.0
  0
LINE
  5
9F11
  8
0
 10
99.687837456210445
 20
71.600213116378043
 30
0.0
 11
99.687837456210445
 21
160.8888882509913
 31
0.0
  0
LINE
  5
9F12
  8
3
 10
101.3118374562104
 20
76.888888250991712
 30
0.0
 11
101.3118374562104
 21
160.8888882509915
 31
0.0
  0
LINE
  5
9F13
  8
3
 10
122.06383745621039
 20
76.888888250991712
 30
0.0
 11
122.06383745621039
 21
160.8888882509913
 31
0.0
  0
LINE
  5
9F14
  8
0
 10
123.6878374562104
 20
71.600213116416356
 30
0.0
 11
123.6878374562104
 21
160.8888882509913
 31
0.0
  0
LINE
  5
9F15
  8
0
 10
102.6878374562104
 20
269.8888882509919
 30
0.0
 11
120.6878374562104
 21
269.88888825099173
 31
0.0
  0
LINE
  5
9F16
  8
0
 10
120.1878374562104
 20
61.888888250934421
 30
0.0
 11
120.1878374562104
 21
55.388888250920317
 31
0.0
  0
LINE
  5
9F17
  8
0
 10
103.1878374562104
 20
61.888888250934421
 30
0.0
 11
103.1878374562104
 21
55.388888250948519
 31
0.0
  0
LINE
  5
9F18
  8
0
 10
123.1878374562436
 20
61.888888250915102
 30
0.0
 11
100.18783745617721
 21
61.888888250953528
 31
0.0
  0
LINE
  5
9F19
  8
0
 10
100.18783745617721
 20
71.888888250953528
 30
0.0
 11
123.1878374562436
 21
71.888888250991954
 31
0.0
  0
ARC
  5
9F1A
  8
0
 10
105.6878374562436
 20
54.270086099054772
 30
0.0
 40
17.330127017333279
 50
69.743841997633055
 51
110.2561580023669
  0
LINE
  5
9F1B
  8
0
 10
99.687837456228635
 20
71.600213116388545
 30
0.0
 11
100.1878374562436
 21
71.888888250991954
 31
0.0
  0
LINE
  5
9F1C
  8
0
 10
99.687837456228635
 20
62.177563385518511
 30
0.0
 11
100.1878374562436
 21
61.888888250915102
 31
0.0
  0
ARC
  5
9F1D
  8
0
 10
105.6878374562436
 20
79.507690402851793
 30
0.0
 40
17.330127017333279
 50
249.7438419976331
 51
290.25615800236699
  0
LINE
  5
9F1E
  8
0
 10
99.687837456228635
 20
71.600213116388545
 30
0.0
 11
99.687837456243642
 21
62.177563385509863
 31
0.0
  0
LINE
  5
9F1F
  8
0
 10
111.6878374562435
 20
63.249360155347738
 30
0.0
 11
111.6878374562435
 21
70.528416346559311
 31
0.0
  0
LINE
  5
9F20
  8
0
 10
123.68783745625861
 20
71.600213116388545
 30
0.0
 11
123.6878374562436
 21
62.177563385509863
 31
0.0
  0
ARC
  5
9F21
  8
0
 10
117.6878374562436
 20
79.507690402851793
 30
0.0
 40
17.330127017333279
 50
249.7438419976331
 51
290.25615800236699
  0
LINE
  5
9F22
  8
0
 10
123.68783745625861
 20
62.177563385518511
 30
0.0
 11
123.1878374562436
 21
61.888888250915102
 31
0.0
  0
LINE
  5
9F23
  8
0
 10
123.68783745625861
 20
71.600213116388545
 30
0.0
 11
123.1878374562436
 21
71.888888250991954
 31
0.0
  0
ARC
  5
9F24
  8
0
 10
117.6878374562436
 20
54.270086099054772
 30
0.0
 40
17.330127017333279
 50
69.743841997633055
 51
110.2561580023669
  0
ARC
  5
9F25
  8
0
 10
111.6878374562104
 20
46.567748868731883
 30
0.0
 40
12.25
 50
133.9378398855568
 51
148.93491910364301
  0
LINE
  5
9F26
  8
0
 10
132.47244713010949
 20
177.7038428369884
 30
0.0
 11
132.47244713010949
 21
163.073933664995
 31
0.0
  0
LINE
  5
9F27
  8
0
 10
128.6878374562103
 20
179.88888825099161
 30
0.0
 11
132.47244713010949
 21
177.7038428369884
 31
0.0
  0
ARC
  5
9F28
  8
0
 10
127.27629471163461
 20
170.1105761034072
 30
0.0
 40
9.2009618868538041
 50
64.384247467929242
 51
124.38424746793839
  0
ARC
  5
9F29
  8
0
 10
127.27629471163461
 20
170.66720039857611
 30
0.0
 40
9.2009618868538041
 50
235.61575253206149
 51
295.6157525320707
  0
LINE
  5
9F2A
  8
0
 10
128.6878374562103
 20
160.8888882509915
 30
0.0
 11
132.47244713010949
 21
163.073933664995
 31
0.0
  0
LINE
  5
9F2B
  8
0
 10
94.687837456210445
 20
160.8888882509915
 30
0.0
 11
90.903227782311262
 21
163.073933664995
 31
0.0
  0
ARC
  5
9F2C
  8
0
 10
96.099380200786186
 20
170.66720039857611
 30
0.0
 40
9.2009618868538041
 50
244.38424746792921
 51
304.38424746793839
  0
ARC
  5
9F2D
  8
0
 10
111.68783745621241
 20
195.8585433292393
 30
0.0
 40
34.392304817516766
 50
252.41204622606631
 51
287.58795377393369
  0
ARC
  5
9F2E
  8
0
 10
96.099380200786186
 20
170.1105761034072
 30
0.0
 40
9.2009618868538041
 50
55.615752532061599
 51
115.6157525320707
  0
ARC
  5
9F2F
  8
0
 10
111.68783745621241
 20
144.9192331727439
 30
0.0
 40
34.392304817516766
 50
72.412046226066266
 51
107.58795377393371
  0
LINE
  5
9F30
  8
0
 10
122.0801422931636
 20
177.7038428369884
 30
0.0
 11
122.0801422931636
 21
163.073933664995
 31
0.0
  0
LINE
  5
9F31
  8
0
 10
101.29553261926139
 20
177.7038428369884
 30
0.0
 11
101.29553261926139
 21
163.073933664995
 31
0.0
  0
LINE
  5
9F32
  8
0
 10
94.687837456210445
 20
179.88888825099161
 30
0.0
 11
90.903227782311262
 21
177.7038428369884
 31
0.0
  0
LINE
  5
9F33
  8
0
 10
90.903227782311262
 20
177.7038428369884
 30
0.0
 11
90.903227782311262
 21
163.073933664995
 31
0.0
  0
LINE
  5
9F34
  8
0
 10
94.687837456210445
 20
160.8888882509915
 30
0.0
 11
128.68783745621039
 21
160.8888882509915
 31
0.0
  0
LINE
  5
9F35
  8
0
 10
94.687837456210517
 20
179.88888825099161
 30
0.0
 11
128.6878374562103
 21
179.88888825099161
 31
0.0
  0
LINE
  5
9F36
  8
0
 10
123.6878374562104
 20
179.88888825099161
 30
0.0
 11
123.6878374562104
 21
266.88888825099173
 31
0.0
  0
LINE
  5
9F37
  8
3
 10
122.06383745621039
 20
179.88888825099161
 30
0.0
 11
122.06383745621039
 21
268.51288825099181
 31
0.0
  0
LINE
  5
9F38
  8
3
 10
101.3118374562104
 20
179.88888825099161
 30
0.0
 11
101.3118374562104
 21
268.51288825099198
 31
0.0
  0
LINE
  5
9F39
  8
0
 10
99.687837456210445
 20
179.8888882509915
 30
0.0
 11
99.687837456210445
 21
266.88888825099218
 31
0.0
  0
LINE
  5
9F49
  8
0
 10
161.68783745621039
 20
28.88888825099173
 30
0.0
 11
61.687837456210453
 21
28.88888825099173
 31
0.0
  0
LINE
  5
9F4A
  8
0
 10
161.68783745621039
 20
28.88888825099173
 30
0.0
 11
161.68783745621039
 21
38.069084348273122
 31
0.0
  0
LINE
  5
9F4C
  8
0
 10
128.18783745621039
 20
52.888888250991727
 30
0.0
 11
95.187837456210445
 21
52.888888250991727
 31
0.0
  0
LINE
  5
9F4E
  8
0
 10
129.18783745621039
 20
51.888888250991727
 30
0.0
 11
129.18783745621039
 21
51.888888250991727
 31
0.0
  0
LINE
  5
9F4F
  8
0
 10
135.68783745621039
 20
49.150313596473659
 30
0.0
 11
135.68783745621039
 21
48.88888825099172
 31
0.0
  0
LINE
  5
9F50
  8
0
 10
141.68783745621039
 20
46.168129030935567
 30
0.0
 11
141.68783745621039
 21
45.888888250991712
 31
0.0
  0
LINE
  5
9F51
  8
0
 10
148.68783745621039
 20
43.134586838237382
 30
0.0
 11
148.68783745621039
 21
42.888888250991727
 31
0.0
  0
LINE
  5
9F52
  8
0
 10
156.68783745621039
 20
40.10811184458737
 30
0.0
 11
156.68783745621039
 21
39.888888250991727
 31
0.0
  0
LINE
  5
9F53
  8
0
 10
129.18783745621039
 20
51.888888250991727
 30
0.0
 11
134.98192330504801
 21
50.10609260519562
 31
0.0
  0
LINE
  5
9F54
  8
0
 10
135.68783745621039
 20
48.88888825099172
 30
0.0
 11
141.0040652222271
 21
47.11681232898593
 31
0.0
  0
LINE
  5
9F55
  8
0
 10
141.68783745621039
 20
45.888888250991712
 30
0.0
 11
147.96255858410791
 21
44.096110785878068
 31
0.0
  0
LINE
  5
9F56
  8
0
 10
148.68783745621039
 20
42.888888250991727
 30
0.0
 11
155.9303730812469
 21
41.07825434473272
 31
0.0
  0
ARC
  5
9F57
  8
0
 10
155.68783745621039
 20
40.10811184458737
 30
0.0
 40
1.0
 50
0.0
 51
75.963756532073333
  0
ARC
  5
9F58
  8
0
 10
147.68783745621039
 20
43.134586838237382
 30
0.0
 40
1.0
 50
0.0
 51
74.054604099077153
  0
ARC
  5
9F59
  8
0
 10
140.68783745621039
 20
46.168129030935567
 30
0.0
 40
1.0
 50
0.0
 51
71.565051177077734
  0
ARC
  5
9F5A
  8
0
 10
134.68783745621039
 20
49.150313596473659
 30
0.0
 40
1.0
 50
0.0
 51
72.897271030947451
  0
ARC
  5
9F5B
  8
0
 10
128.18783745621039
 20
51.888888250991727
 30
0.0
 40
1.0
 50
0.0
 51
89.999999999999986
  0
LINE
  5
9F5C
  8
0
 10
156.68783745621039
 20
39.888888250991727
 30
0.0
 11
160.8839535913487
 21
39.049665023963939
 31
0.0
  0
ARC
  5
9F5D
  8
0
 10
160.68783745621039
 20
38.069084348273122
 30
0.0
 40
1.0
 50
359.99999999999972
 51
78.690067525979913
  0
ARC
  5
9F5E
  8
0
 10
62.687837456210438
 20
38.069084348273122
 30
0.0
 40
1.0
 50
101.3099324740201
 51
180.00000000000031
  0
LINE
  5
9F5F
  8
0
 10
66.687837456210445
 20
39.888888250991727
 30
0.0
 11
62.491721321072191
 21
39.049665023963939
 31
0.0
  0
ARC
  5
9F60
  8
0
 10
95.187837456210445
 20
51.888888250991727
 30
0.0
 40
1.0
 50
90.000000000000057
 51
180.0
  0
ARC
  5
9F61
  8
0
 10
88.687837456210445
 20
49.150313596473659
 30
0.0
 40
1.0
 50
107.10272896905251
 51
180.0
  0
ARC
  5
9F62
  8
0
 10
82.687837456210445
 20
46.168129030935567
 30
0.0
 40
1.0
 50
108.43494882292219
 51
180.0
  0
ARC
  5
9F63
  8
0
 10
75.687837456210445
 20
43.134586838237382
 30
0.0
 40
1.0
 50
105.9453959009228
 51
180.0
  0
ARC
  5
9F64
  8
0
 10
67.687837456210445
 20
40.10811184458737
 30
0.0
 40
1.0
 50
104.0362434679266
 51
180.0
  0
LINE
  5
9F65
  8
0
 10
74.687837456210445
 20
42.888888250991727
 30
0.0
 11
67.445301831173992
 21
41.07825434473272
 31
0.0
  0
LINE
  5
9F66
  8
0
 10
81.687837456210445
 20
45.888888250991712
 30
0.0
 11
75.413116328312995
 21
44.096110785878068
 31
0.0
  0
LINE
  5
9F67
  8
0
 10
87.687837456210445
 20
48.88888825099172
 30
0.0
 11
82.371609690193736
 21
47.11681232898593
 31
0.0
  0
LINE
  5
9F68
  8
0
 10
94.187837456210445
 20
51.888888250991727
 30
0.0
 11
88.39375160737292
 21
50.10609260519562
 31
0.0
  0
LINE
  5
9F69
  8
0
 10
66.687837456210445
 20
40.10811184458737
 30
0.0
 11
66.687837456210445
 21
39.888888250991727
 31
0.0
  0
LINE
  5
9F6A
  8
0
 10
74.687837456210445
 20
43.134586838237382
 30
0.0
 11
74.687837456210445
 21
42.888888250991727
 31
0.0
  0
LINE
  5
9F6B
  8
0
 10
81.687837456210445
 20
46.168129030935567
 30
0.0
 11
81.687837456210445
 21
45.888888250991712
 31
0.0
  0
LINE
  5
9F6C
  8
0
 10
87.687837456210445
 20
49.150313596473659
 30
0.0
 11
87.687837456210445
 21
48.88888825099172
 31
0.0
  0
LINE
  5
9F6D
  8
0
 10
94.187837456210445
 20
51.888888250991727
 30
0.0
 11
94.187837456210445
 21
51.888888250991727
 31
0.0
  0
LINE
  5
9F6F
  8
0
 10
61.687837456210453
 20
28.88888825099173
 30
0.0
 11
61.687837456210453
 21
38.069084348273122
 31
0.0
  0
LINE
  5
9F70
  8
0
 10
66.687837456210445
 20
39.888888250991727
 30
0.0
 11
156.68783745621039
 21
39.888888250991727
 31
0.0
  0
LINE
  5
9F71
  8
0
 10
74.687837456210445
 20
42.888888250991727
 30
0.0
 11
148.68783745621039
 21
42.888888250991727
 31
0.0
  0
LINE
  5
9F72
  8
0
 10
81.687837456210445
 20
45.888888250991712
 30
0.0
 11
141.68783745621039
 21
45.888888250991712
 31
0.0
  0
LINE
  5
9F73
  8
0
 10
135.68783745621039
 20
48.88888825099172
 30
0.0
 11
87.687837456210445
 21
48.88888825099172
 31
0.0
  0
LINE
  5
9F74
  8
0
 10
94.187837456210445
 20
51.888888250991727
 30
0.0
 11
129.18783745621039
 21
51.888888250991727
 31
0.0
  0
CIRCLE
  5
9F75
  8
0
 10
111.6878374562104
 20
374.27294896476877
 30
0.0
 40
50.0
  0
ARC
  5
9F76
  8
0
 10
111.6878374562104
 20
374.27294896476877
 30
0.0
 40
45.0
 50
13.78300087510428
 51
166.21699912489569
  0
ARC
  5
9F77
  8
0
 10
111.6878374562104
 20
374.27294896476877
 30
0.0
 40
37.0
 50
201.3992664953507
 51
338.66683008850288
  0
ARC
  5
9F78
  8
0
 10
111.6878374562104
 20
374.27294896476877
 30
0.0
 40
30.0
 50
26.7436839504029
 51
153.2563160495971
  0
ARC
  5
9F79
  8
0
 10
111.6878374562104
 20
374.27294896476877
 30
0.0
 40
23.999999999999989
 50
34.228866327812632
 51
145.7711336721874
  0
LINE
  5
9F7A
  8
0
 10
120.1878374562104
 20
61.888888250953748
 30
0.0
 11
120.1878374562104
 21
55.388888250939658
 31
0.0
  0
LINE
  5
9F7B
  8
0
 10
103.1878374562104
 20
61.888888250953748
 30
0.0
 11
103.1878374562104
 21
55.388888250967852
 31
0.0
  0
LINE
  5
9F7C
  8
1
 10
111.6878374562104
 20
434.27294896476877
 30
0.0
 11
111.6878374562104
 21
314.27294896476877
 31
0.0
  0
LINE
  5
9F7D
  8
1
 10
171.68783745621039
 20
374.27294896476877
 30
0.0
 11
51.687837456210453
 21
374.27294896476877
 31
0.0
  0
LINE
  5
9F7E
  8
0
 10
269.61100835225602
 20
51.888888250991727
 30
0.0
 11
304.61100835225602
 21
51.888888250991727
 31
0.0
  0
LINE
  5
9F7F
  8
0
 10
311.11100835225602
 20
48.88888825099172
 30
0.0
 11
300.61100835225568
 21
48.88888825099172
 31
0.0
  0
LINE
  5
9F80
  8
0
 10
257.11100835225602
 20
45.888888250991712
 30
0.0
 11
273.61100835225568
 21
45.888888250991712
 31
0.0
  0
LINE
  5
9F81
  8
0
 10
250.11100835225599
 20
42.888888250991727
 30
0.0
 11
273.61100835225568
 21
42.888888250991727
 31
0.0
  0
LINE
  5
9F82
  8
0
 10
242.11100835225599
 20
39.888888250991727
 30
0.0
 11
276.89487527537767
 21
39.888888250991741
 31
0.0
  0
LINE
  5
9F83
  8
0
 10
237.11100835225599
 20
28.88888825099173
 30
0.0
 11
237.11100835225599
 21
38.069084348273122
 31
0.0
  0
LINE
  5
9F85
  8
0
 10
269.61100835225602
 20
51.888888250991727
 30
0.0
 11
269.61100835225602
 21
51.888888250991727
 31
0.0
  0
LINE
  5
9F86
  8
0
 10
263.11100835225602
 20
49.150313596473659
 30
0.0
 11
263.11100835225602
 21
48.88888825099172
 31
0.0
  0
LINE
  5
9F87
  8
0
 10
257.11100835225602
 20
46.168129030935567
 30
0.0
 11
257.11100835225602
 21
45.888888250991712
 31
0.0
  0
LINE
  5
9F88
  8
0
 10
250.11100835225599
 20
43.134586838237382
 30
0.0
 11
250.11100835225599
 21
42.888888250991727
 31
0.0
  0
LINE
  5
9F89
  8
0
 10
242.11100835225599
 20
40.10811184458737
 30
0.0
 11
242.11100835225599
 21
39.888888250991727
 31
0.0
  0
LINE
  5
9F8A
  8
0
 10
269.61100835225602
 20
51.888888250991727
 30
0.0
 11
263.81692250341848
 21
50.10609260519562
 31
0.0
  0
LINE
  5
9F8B
  8
0
 10
263.11100835225602
 20
48.88888825099172
 30
0.0
 11
257.79478058623909
 21
47.11681232898593
 31
0.0
  0
LINE
  5
9F8C
  8
0
 10
257.11100835225602
 20
45.888888250991712
 30
0.0
 11
250.83628722435861
 21
44.096110785878068
 31
0.0
  0
LINE
  5
9F8D
  8
0
 10
250.11100835225599
 20
42.888888250991727
 30
0.0
 11
242.8684727272196
 21
41.07825434473272
 31
0.0
  0
ARC
  5
9F8E
  8
0
 10
243.11100835225599
 20
40.10811184458737
 30
0.0
 40
1.0
 50
104.0362434679266
 51
180.0
  0
ARC
  5
9F8F
  8
0
 10
251.11100835225599
 20
43.134586838237382
 30
0.0
 40
1.0
 50
105.9453959009228
 51
180.0
  0
ARC
  5
9F90
  8
0
 10
258.11100835225602
 20
46.168129030935567
 30
0.0
 40
1.0
 50
108.43494882292219
 51
180.0
  0
ARC
  5
9F91
  8
0
 10
264.11100835225602
 20
49.150313596473659
 30
0.0
 40
1.0
 50
107.10272896905251
 51
180.0
  0
ARC
  5
9F92
  8
0
 10
270.61100835225602
 20
51.888888250991727
 30
0.0
 40
1.0
 50
90.000000000000057
 51
180.0
  0
LINE
  5
9F93
  8
0
 10
242.11100835225599
 20
39.888888250991727
 30
0.0
 11
237.9148922171178
 21
39.049665023963939
 31
0.0
  0
ARC
  5
9F94
  8
0
 10
238.11100835225599
 20
38.069084348273122
 30
0.0
 40
1.0
 50
101.3099324740201
 51
180.00000000000031
  0
ARC
  5
9F95
  8
0
 10
336.11100835225602
 20
38.069084348273122
 30
0.0
 40
1.0
 50
359.99999999999972
 51
78.690067525979913
  0
LINE
  5
9F96
  8
0
 10
332.11100835225602
 20
39.888888250991727
 30
0.0
 11
336.30712448739428
 21
39.049665023963939
 31
0.0
  0
ARC
  5
9F97
  8
0
 10
303.61100835225602
 20
51.888888250991727
 30
0.0
 40
1.0
 50
0.0
 51
89.999999999999986
  0
ARC
  5
9F98
  8
0
 10
310.11100835225602
 20
49.150313596473659
 30
0.0
 40
1.0
 50
0.0
 51
72.897271030947451
  0
ARC
  5
9F99
  8
0
 10
316.11100835225602
 20
46.168129030935567
 30
0.0
 40
1.0
 50
0.0
 51
71.565051177077734
  0
ARC
  5
9F9A
  8
0
 10
323.11100835225602
 20
43.134586838237382
 30
0.0
 40
1.0
 50
0.0
 51
74.054604099077153
  0
ARC
  5
9F9B
  8
0
 10
331.11100835225602
 20
40.10811184458737
 30
0.0
 40
1.0
 50
0.0
 51
75.963756532073333
  0
LINE
  5
9F9C
  8
0
 10
324.11100835225602
 20
42.888888250991727
 30
0.0
 11
331.35354397729219
 21
41.07825434473272
 31
0.0
  0
LINE
  5
9F9D
  8
0
 10
317.11100835225602
 20
45.888888250991712
 30
0.0
 11
323.38572948015349
 21
44.096110785878068
 31
0.0
  0
LINE
  5
9F9E
  8
0
 10
311.11100835225602
 20
48.88888825099172
 30
0.0
 11
316.42723611827267
 21
47.11681232898593
 31
0.0
  0
LINE
  5
9F9F
  8
0
 10
304.61100835225602
 20
51.888888250991727
 30
0.0
 11
310.40509420109328
 21
50.10609260519562
 31
0.0
  0
LINE
  5
9FA0
  8
0
 10
332.11100835225602
 20
40.10811184458737
 30
0.0
 11
332.11100835225602
 21
39.888888250991727
 31
0.0
  0
LINE
  5
9FA1
  8
0
 10
324.11100835225602
 20
43.134586838237382
 30
0.0
 11
324.11100835225602
 21
42.888888250991727
 31
0.0
  0
LINE
  5
9FA2
  8
0
 10
317.11100835225602
 20
46.168129030935567
 30
0.0
 11
317.11100835225602
 21
45.888888250991712
 31
0.0
  0
LINE
  5
9FA3
  8
0
 10
311.11100835225602
 20
49.150313596473659
 30
0.0
 11
311.11100835225602
 21
48.88888825099172
 31
0.0
  0
LINE
  5
9FA4
  8
0
 10
304.61100835225602
 20
51.888888250991727
 30
0.0
 11
304.61100835225602
 21
51.888888250991727
 31
0.0
  0
LINE
  5
9FA6
  8
0
 10
303.61100835225602
 20
52.888888250991727
 30
0.0
 11
270.61100835225602
 21
52.888888250991727
 31
0.0
  0
LINE
  5
9FA8
  8
0
 10
337.11100835225602
 20
28.88888825099173
 30
0.0
 11
337.11100835225602
 21
38.069084348273122
 31
0.0
  0
LINE
  5
9FA9
  8
0
 10
337.11100835225602
 20
28.88888825099173
 30
0.0
 11
237.11100835225599
 21
28.88888825099173
 31
0.0
  0
ARC
  5
A0F5
  8
0
 10
287.11100835106612
 20
109.7031812664253
 30
0.0
 40
70.557812354586119
 50
261.67482592824791
 51
278.32517408217319
  0
LINE
  5
A0F6
  8
0
 10
276.89487529051388
 20
39.888888250178169
 30
0.0
 11
276.89487528578502
 21
40.10811184499174
 31
0.0
  0
ARC
  5
A0F7
  8
0
 10
275.85497724058848
 20
40.076150767100991
 30
0.0
 40
1.0403890795799391
 50
1.7604212350710009
 51
74.408144542033867
  0
POLYLINE
  5
A0F8
  8
0
 66
     1
 10
0.0
 20
0.0
 30
0.0
 70
   128
  0
VERTEX
  5
A362
  8
0
 10
276.13461604072381
 20
41.078254343181612
 30
0.0
  0
VERTEX
  5
A363
  8
0
 10
274.97018244482928
 20
41.472090251494279
 30
0.0
  0
VERTEX
  5
A364
  8
0
 10
274.13488631409098
 20
41.928753714383603
 30
0.0
  0
VERTEX
  5
A365
  8
0
 10
273.74473543524198
 20
42.328396975500169
 30
0.0
  0
VERTEX
  5
A366
  8
0
 10
273.61100835225568
 20
42.760555510158881
 30
0.0
  0
SEQEND
  5
A367
  8
0
  0
LINE
  5
A0F9
  8
0
 10
273.61100835225568
 20
42.76055551010846
 30
0.0
 11
273.61100835225568
 21
51.888888250991762
 31
0.0
  0
LINE
  5
A0FA
  8
0
 10
300.61100835225568
 20
42.760555525813999
 30
0.0
 11
300.61100835225568
 21
51.888888250991762
 31
0.0
  0
POLYLINE
  5
A0FB
  8
0
 66
     1
 10
0.0
 20
0.0
 30
0.0
 70
   128
  0
VERTEX
  5
A368
  8
0
 10
298.0874006632074
 20
41.078254343648652
 30
0.0
  0
VERTEX
  5
A369
  8
0
 10
299.2518342586522
 20
41.472090251059669
 30
0.0
  0
VERTEX
  5
A36A
  8
0
 10
300.08713038975151
 20
41.928753713883992
 30
0.0
  0
VERTEX
  5
A36B
  8
0
 10
300.4772812785053
 20
42.328396990022263
 30
0.0
  0
VERTEX
  5
A36C
  8
0
 10
300.61100835225568
 20
42.760555542251012
 30
0.0
  0
SEQEND
  5
A36D
  8
0
  0
ARC
  5
A0FC
  8
0
 10
298.36703946411262
 20
40.076150766857992
 30
0.0
 40
1.040389079868304
 50
105.59185554048381
 51
178.2395785873081
  0
LINE
  5
A0FD
  8
0
 10
297.32714142821391
 20
39.888888251218013
 30
0.0
 11
297.32714142842491
 21
40.10811184648653
 31
0.0
  0
LINE
  5
A10B
  8
0
 10
273.61100835225568
 20
48.88888825099172
 30
0.0
 11
263.11100835225602
 21
48.88888825099172
 31
0.0
  0
LINE
  5
A10C
  8
0
 10
300.61100835225568
 20
45.888888250991712
 30
0.0
 11
317.11100835225602
 21
45.888888250991712
 31
0.0
  0
LINE
  5
A10D
  8
0
 10
300.61100835225568
 20
42.888888250991727
 30
0.0
 11
324.11100835225602
 21
42.888888250991727
 31
0.0
  0
LINE
  5
A10E
  8
0
 10
297.32714142675451
 20
39.888888250991741
 30
0.0
 11
332.11100835225602
 21
39.888888250991727
 31
0.0
  0
TEXT
  5
A345
  8
0
 62
     3
 10
0.0
 20
0.0
 30
0.0
 40
10.0
  1
LVF100L24C-SUS
  7
STANDARD1
  0
ENDSEC
  0
EOF
