  0
SECTION
  2
HEADER
  9
$ACADVER
  1
AC1009
  9
$INSBASE
 10
0.0
 20
0.0
 30
0.0
  9
$EXTMIN
 10
0.0
 20
-2.960436562073669
 30
0.0
  9
$EXTMAX
 10
188.6679511077391
 20
269.16246359373372
 30
0.0
  9
$LIMMIN
 10
0.0
 20
0.0
  9
$LIMMAX
 10
375.0
 20
270.0
  9
$ORTHOMODE
 70
     1
  9
$REGENMODE
 70
     1
  9
$FILLMODE
 70
     1
  9
$QTEXTMODE
 70
     0
  9
$MIRRTEXT
 70
     0
  9
$DRAGMODE
 70
     2
  9
$LTSCALE
 40
6.0
  9
$OSMODE
 70
    37
  9
$ATTMODE
 70
     1
  9
$TEXTSIZE
 40
0.2
  9
$TRACEWID
 40
0.05
  9
$TEXTSTYLE
  7
STANDARD
  9
$CLAYER
  8
0
  9
$CELTYPE
  6
BYLAYER
  9
$CECOLOR
 62
   256
  9
$DIMSCALE
 40
1.0
  9
$DIMASZ
 40
3.0
  9
$DIMEXO
 40
1.0
  9
$DIMDLI
 40
6.0
  9
$DIMRND
 40
0.0
  9
$DIMDLE
 40
0.0
  9
$DIMEXE
 40
1.0
  9
$DIMTP
 40
495.0
  9
$DIMTM
 40
0.0
  9
$DIMTXT
 40
3.0
  9
$DIMCEN
 40
0.0
  9
$DIMTSZ
 40
0.0
  9
$DIMTOL
 70
     0
  9
$DIMLIM
 70
     0
  9
$DIMTIH
 70
     0
  9
$DIMTOH
 70
     0
  9
$DIMSE1
 70
     0
  9
$DIMSE2
 70
     0
  9
$DIMTAD
 70
     1
  9
$DIMZIN
 70
     0
  9
$DIMBLK
  1

  9
$DIMASO
 70
     0
  9
$DIMSHO
 70
     0
  9
$DIMPOST
  1

  9
$DIMAPOST
  1

  9
$DIMALT
 70
     0
  9
$DIMALTD
 70
     2
  9
$DIMALTF
 40
25.399999999999999
  9
$DIMLFAC
 40
1.0
  9
$DIMTOFL
 70
     1
  9
$DIMTVP
 40
0.0
  9
$DIMTIX
 70
     1
  9
$DIMSOXD
 70
     0
  9
$DIMSAH
 70
     0
  9
$DIMBLK1
  1

  9
$DIMBLK2
  1

  9
$DIMSTYLE
  2
STANDARD
  9
$DIMCLRD
 70
     0
  9
$DIMCLRE
 70
     0
  9
$DIMCLRT
 70
     4
  9
$DIMTFAC
 40
1.0
  9
$DIMGAP
 40
1.0
  9
$LUNITS
 70
     2
  9
$LUPREC
 70
     4
  9
$SKETCHINC
 40
0.1
  9
$FILLETRAD
 40
2.0
  9
$AUNITS
 70
     0
  9
$AUPREC
 70
     0
  9
$MENU
  1
C:\R13\WIN\SUPPORT\ACAD-I
  9
$ELEVATION
 40
0.0
  9
$PELEVATION
 40
0.0
  9
$THICKNESS
 40
0.0
  9
$LIMCHECK
 70
     0
  9
$BLIPMODE
 70
     0
  9
$CHAMFERA
 40
0.0
  9
$CHAMFERB
 40
0.0
  9
$SKPOLY
 70
     0
  9
$TDCREATE
 40
2451962.4341961811
  9
$TDUPDATE
 40
2456598.7228439241
  9
$TDINDWG
 40
0.0871372454
  9
$TDUSRTIMER
 40
2456598.0726575241
  9
$USRTIMER
 70
     1
  9
$ANGBASE
 50
0.0
  9
$ANGDIR
 70
     0
  9
$PDMODE
 70
     0
  9
$PDSIZE
 40
0.0
  9
$PLINEWID
 40
0.0
  9
$COORDS
 70
     1
  9
$SPLFRAME
 70
     0
  9
$SPLINETYPE
 70
     6
  9
$SPLINESEGS
 70
     8
  9
$ATTDIA
 70
     0
  9
$ATTREQ
 70
     1
  9
$HANDLING
 70
     1
  9
$HANDSEED
  5
595D
  9
$SURFTAB1
 70
     6
  9
$SURFTAB2
 70
     6
  9
$SURFTYPE
 70
     6
  9
$SURFU
 70
     6
  9
$SURFV
 70
     6
  9
$UCSNAME
  2

  9
$UCSORG
 10
0.0
 20
0.0
 30
0.0
  9
$UCSXDIR
 10
1.0
 20
0.0
 30
0.0
  9
$UCSYDIR
 10
0.0
 20
1.0
 30
0.0
  9
$PUCSNAME
  2

  9
$PUCSORG
 10
0.0
 20
0.0
 30
0.0
  9
$PUCSXDIR
 10
1.0
 20
0.0
 30
0.0
  9
$PUCSYDIR
 10
0.0
 20
1.0
 30
0.0
  9
$USERI1
 70
     4
  9
$USERI2
 70
     1
  9
$USERI3
 70
     0
  9
$USERI4
 70
     0
  9
$USERI5
 70
     0
  9
$USERR1
 40
1.0
  9
$USERR2
 40
3.0
  9
$USERR3
 40
3.0
  9
$USERR4
 40
3.0
  9
$USERR5
 40
10.0
  9
$WORLDVIEW
 70
     1
  9
$SHADEDGE
 70
     3
  9
$SHADEDIF
 70
    70
  9
$TILEMODE
 70
     1
  9
$MAXACTVP
 70
    16
  9
$PLIMCHECK
 70
     0
  9
$PEXTMIN
 10
1.0000000000000000E+020
 20
1.0000000000000000E+020
 30
1.0000000000000000E+020
  9
$PEXTMAX
 10
-1.0000000000000000E+020
 20
-1.0000000000000000E+020
 30
-1.0000000000000000E+020
  9
$PLIMMIN
 10
0.0
 20
0.0
  9
$PLIMMAX
 10
12.0
 20
9.0
  9
$UNITMODE
 70
     0
  9
$VISRETAIN
 70
     0
  9
$PLINEGEN
 70
     0
  9
$PSLTSCALE
 70
     0
  0
ENDSEC
  0
SECTION
  2
TABLES
  0
TABLE
  2
VPORT
 70
     1
  0
VPORT
  2
*ACTIVE
 70
     0
 10
0.0
 20
0.0
 11
1.0
 21
1.0
 12
187.49427839065231
 22
177.52205812711131
 13
0.0
 23
0.0
 14
10.0
 24
10.0
 15
10.0
 25
10.0
 16
0.0
 26
0.0
 36
1.0
 17
0.0
 27
0.0
 37
0.0
 40
364.13085016302909
 41
1.755244755244755
 42
50.0
 43
0.0
 44
0.0
 50
0.0
 51
0.0
 71
    16
 72
   100
 73
     1
 74
     0
 75
     0
 76
     0
 77
     0
 78
     0
  0
ENDTAB
  0
TABLE
  2
LTYPE
 70
     3
  0
LTYPE
  2
CONTINUOUS
 70
     0
  3
Solid Line
 72
    65
 73
     0
 40
0.0
  0
LTYPE
  2
PHANTOM2
 70
     0
  3
___ _ _ ___ _ _ ___ _ _ ___ _ _
 72
    65
 73
     6
 40
1.25
 49
0.625
 49
-0.125
 49
0.125
 49
-0.125
 49
0.125
 49
-0.125
  0
LTYPE
  2
CENTER
 70
     0
  3
____ _ ____ _ ____ _ ____ _ ____ _ ____ _ ____
 72
    65
 73
     4
 40
2.0
 49
1.25
 49
-0.25
 49
0.25
 49
-0.25
  0
ENDTAB
  0
TABLE
  2
LAYER
 70
     3
  0
LAYER
  2
0
 70
     0
 62
     7
  6
CONTINUOUS
  0
LAYER
  2
1
 70
     0
 62
     1
  6
CENTER
  0
LAYER
  2
3
 70
     0
 62
     3
  6
CONTINUOUS
  0
ENDTAB
  0
TABLE
  2
STYLE
 70
     3
  0
STYLE
  2
STANDARD
 70
     0
 40
0.0
 41
1.0
 50
0.0
 71
     0
 42
0.2
  3
SIMPLEX
  4
BIGFONT
  0
STYLE
  2
ANNOTATIVE
 70
     0
 40
0.0
 41
1.0
 50
0.0
 71
     0
 42
0.2
  3
txt
  4

  0
STYLE
  2
STANDARD1
 70
     0
 40
0.0
 41
1.0
 50
0.0
 71
     0
 42
3.0
  3
txt
  4

  0
ENDTAB
  0
TABLE
  2
VIEW
 70
     0
  0
ENDTAB
  0
TABLE
  2
UCS
 70
     0
  0
ENDTAB
  0
TABLE
  2
APPID
 70
    29
  0
APPID
  2
ACAD
 70
     0
  0
APPID
  2
ACADANNOTATIVE
 70
     0
  0
APPID
  2
GENIUS_GENOREF_13
 70
     0
  0
APPID
  2
GENIUS_GENOENT_13
 70
     0
  0
APPID
  2
GENIUS_GENBH_13
 70
     0
  0
APPID
  2
GENIUS_GENOBJ_13
 70
     0
  0
APPID
  2
GENIUS_GENODEF_13
 70
     0
  0
APPID
  2
GENIUS_GENOLIS_13
 70
     0
  0
APPID
  2
GENIUS_GENOBJ-NBEHI-BHF_13
 70
     0
  0
APPID
  2
GENIUS_GENOBJ-NBEHI-BHB_13
 70
     0
  0
APPID
  2
GENIUS_GENOBJ-F-PART_13
 70
     0
  0
APPID
  2
GENIUS_GEFSTDP_13
 70
     0
  0
APPID
  2
GENIUS_GENOBJ-N-RSSYM_13
 70
     0
  0
APPID
  2
GENIUS_GENSYMENT_13
 70
     0
  0
APPID
  2
GENIUS_GENOBJ-N-TIT_13
 70
     0
  0
APPID
  2
GENIUS_GENTITLE_13
 70
     0
  0
APPID
  2
GENIUS_GENZVEED_13
 70
     0
  0
APPID
  2
GENIUS_GENOBJ-N-LEADER_13
 70
     0
  0
APPID
  2
GENIUS_GENOBJ-N-FIL_13
 70
     0
  0
APPID
  2
GENIUS_GENOBJ-N-SEC_13
 70
     0
  0
APPID
  2
GENIUS_GENOBJ-N-CRS_13
 70
     0
  0
APPID
  2
GENIUS_GENOBJ-N-ZOO_13
 70
     0
  0
APPID
  2
GENIUS_GENZOO_13
 70
     0
  0
APPID
  2
GENIUS_GENOBJ-F-TOL_13
 70
     0
  0
APPID
  2
GENIUS_GENFIL_13
 70
     0
  0
APPID
  2
GENIUS_GENOBJ-N-CHA_13
 70
     0
  0
APPID
  2
ACAD_EXEMPT_FROM_CAD_STANDARDS
 70
     0
  0
APPID
  2
ACAD_MLEADERVER
 70
     0
  0
APPID
  2
ACAD_NAV_VCDISPLAY
 70
     0
  0
ENDTAB
  0
TABLE
  2
DIMSTYLE
 70
     2
  0
DIMSTYLE
  2
STANDARD
 70
     0
  3

  4

  5

  6

  7

 40
1.0
 41
0.18
 42
0.0625
 43
0.38
 44
0.18
 45
0.0
 46
0.0
 47
0.0
 48
0.0
140
0.18
141
0.09
142
0.0
143
25.399999999999999
144
1.0
145
0.0
146
1.0
147
0.09
 71
     0
 72
     0
 73
     1
 74
     1
 75
     0
 76
     0
 77
     0
 78
     0
170
     0
171
     2
172
     0
173
     0
174
     0
175
     0
176
     0
177
     0
178
     0
  0
DIMSTYLE
  2
ANNOTATIVE
 70
     0
  3

  4

  5

  6

  7

 40
1.0
 41
0.18
 42
0.0625
 43
0.38
 44
0.18
 45
0.0
 46
0.0
 47
0.0
 48
0.0
140
0.18
141
0.09
142
0.0
143
25.399999999999999
144
1.0
145
0.0
146
1.0
147
0.09
 71
     0
 72
     0
 73
     1
 74
     1
 75
     0
 76
     0
 77
     0
 78
     0
170
     0
171
     2
172
     0
173
     0
174
     0
175
     0
176
     0
177
     0
178
     0
  0
ENDTAB
  0
ENDSEC
  0
SECTION
  2
BLOCKS
  0
BLOCK
  8
0
  2
$MODEL_SPACE
 70
     0
 10
0.0
 20
0.0
 30
0.0
  3
$MODEL_SPACE
  1

  0
ENDBLK
  5
5824
  8
0
  0
BLOCK
 67
     1
  8
0
  2
$PAPER_SPACE
 70
     0
 10
0.0
 20
0.0
 30
0.0
  3
$PAPER_SPACE
  1

  0
ENDBLK
  5
5820
 67
     1
  8
0
  0
ENDSEC
  0
SECTION
  2
ENTITIES
  0
LINE
  5
543F
  8
0
 10
164.12915624958151
 20
56.175051515782329
 30
0.0
 11
165.14336094380471
 21
55.160846821559069
 31
0.0
  0
LINE
  5
5446
  8
0
 10
188.6679511077391
 20
43.685436985493652
 30
0.0
 11
188.6679511077391
 21
44.0889473182092
 31
0.0
  0
LINE
  5
544A
  8
0
 10
188.6679511077391
 20
38.38215829696901
 30
0.0
 11
188.6679511077391
 21
43.685436985493652
 31
0.0
  0
LINE
  5
544B
  8
0
 10
184.077787173313
 20
37.88215829696901
 30
0.0
 11
184.077787173313
 21
34.88215829696901
 31
0.0
  0
LINE
  5
544C
  8
0
 10
188.1679511077391
 20
37.88215829696901
 30
0.0
 11
188.6679511077391
 21
38.38215829696901
 31
0.0
  0
LINE
  5
544D
  8
0
 10
182.93024618970639
 20
46.554289444510012
 30
0.0
 11
187.95529899330541
 21
45.046773603430218
 31
0.0
  0
LINE
  5
544E
  8
0
 10
182.9172032599833
 20
46.554289444510012
 30
0.0
 11
182.9172032599833
 21
46.958286678734133
 31
0.0
  0
LINE
  5
544F
  8
0
 10
177.1925412716736
 20
49.423141903526357
 30
0.0
 11
182.2051516056994
 21
47.91593262071865
 31
0.0
  0
LINE
  5
5450
  8
0
 10
170.88106586183741
 20
52.291994362542709
 30
0.0
 11
170.88106586183741
 21
52.695504695258251
 31
0.0
  0
LINE
  5
5451
  8
0
 10
177.1925412716736
 20
49.423141903526357
 30
0.0
 11
177.19254127167369
 21
49.806887046133618
 31
0.0
  0
LINE
  5
5452
  8
0
 10
170.88106586183741
 20
52.291994362542709
 30
0.0
 11
176.45565867746569
 21
50.771650867371378
 31
0.0
  0
LINE
  5
5453
  8
0
 10
165.14336094380471
 20
55.160846821559069
 30
0.0
 11
170.1684137474038
 21
53.653330980479502
 31
0.0
  0
ARC
  5
5454
  8
0
 10
187.6679511077391
 20
44.0889473182092
 30
0.0
 40
1.0
 50
0.0
 51
73.30075576600548
  0
ARC
  5
5455
  8
0
 10
181.91720325998341
 20
46.958286678734133
 30
0.0
 40
1.0
 50
0.0
 51
73.264833729934722
  0
ARC
  5
5456
  8
0
 10
176.19254127167369
 20
49.806887046133618
 30
0.0
 40
1.0
 50
0.0
 51
74.744881296941941
  0
ARC
  5
5457
  8
0
 10
169.88106586183741
 20
52.695504695258251
 30
0.0
 40
1.0
 50
0.0
 51
73.30075576600548
  0
LINE
  5
5458
  8
0
 10
164.12915624958151
 20
56.175051515782329
 30
0.0
 11
162.42204946839499
 21
56.882158296969003
 31
0.0
  0
LINE
  5
545A
  8
0
 10
123.2581150421652
 20
34.88215829696901
 30
0.0
 11
184.077787173313
 21
34.88215829696901
 31
0.0
  0
LINE
  5
545B
  8
0
 10
143.20674596589669
 20
56.175051515782329
 30
0.0
 11
144.91385274708321
 21
56.882158296969003
 31
0.0
  0
ARC
  5
545C
  8
0
 10
137.45483635364079
 20
52.695504695258251
 30
0.0
 40
1.0
 50
106.69924423399451
 51
180.0
  0
ARC
  5
545D
  8
0
 10
131.14336094380451
 20
49.806887046133618
 30
0.0
 40
1.0
 50
105.255118703058
 51
180.0
  0
ARC
  5
545E
  8
0
 10
125.4186989554948
 20
46.958286678734133
 30
0.0
 40
1.0
 50
106.7351662700645
 51
180.0
  0
ARC
  5
545F
  8
0
 10
119.6679511077391
 20
44.0889473182092
 30
0.0
 40
1.0
 50
106.6992442339937
 51
180.0
  0
LINE
  5
5460
  8
0
 10
142.19254127167341
 20
55.160846821559069
 30
0.0
 11
137.16748846807431
 21
53.653330980479502
 31
0.0
  0
LINE
  5
5461
  8
0
 10
136.45483635364079
 20
52.291994362542709
 30
0.0
 11
130.88024353801251
 21
50.771650867371378
 31
0.0
  0
LINE
  5
5462
  8
0
 10
130.14336094380459
 20
49.423141903526357
 30
0.0
 11
130.14336094380451
 21
49.806887046133618
 31
0.0
  0
LINE
  5
5463
  8
0
 10
136.45483635364079
 20
52.291994362542709
 30
0.0
 11
136.45483635364079
 21
52.695504695258251
 31
0.0
  0
LINE
  5
5464
  8
0
 10
130.14336094380459
 20
49.423141903526357
 30
0.0
 11
125.1307506097788
 21
47.91593262071865
 31
0.0
  0
LINE
  5
5465
  8
0
 10
124.4186989554949
 20
46.554289444510012
 30
0.0
 11
124.4186989554949
 21
46.958286678734133
 31
0.0
  0
LINE
  5
5466
  8
0
 10
124.4056560257718
 20
46.554289444510012
 30
0.0
 11
119.3806032221727
 21
45.046773603430218
 31
0.0
  0
LINE
  5
5467
  8
0
 10
119.167951107739
 20
37.88215829696901
 30
0.0
 11
118.6679511077391
 21
38.38215829696901
 31
0.0
  0
LINE
  5
5468
  8
0
 10
123.2581150421652
 20
37.88215829696901
 30
0.0
 11
123.2581150421652
 21
34.88215829696901
 31
0.0
  0
LINE
  5
5469
  8
0
 10
118.6679511077391
 20
38.38215829696901
 30
0.0
 11
118.6679511077391
 21
43.685436985493652
 31
0.0
  0
LINE
  5
5470
  8
0
 10
118.6679511077391
 20
43.685436985493652
 30
0.0
 11
118.6679511077391
 21
44.0889473182092
 31
0.0
  0
LINE
  5
5471
  8
0
 10
144.91385274708321
 20
56.882158296969003
 30
0.0
 11
162.42204946839499
 21
56.882158296969031
 31
0.0
  0
LINE
  5
5472
  8
0
 10
142.19254127167341
 20
55.160846821559069
 30
0.0
 11
165.14336094380471
 21
55.160846821559069
 31
0.0
  0
LINE
  5
5473
  8
0
 10
136.45483635364079
 20
52.291994362542709
 30
0.0
 11
170.8810658618375
 21
52.291994362542709
 31
0.0
  0
LINE
  5
5474
  8
0
 10
130.14336094380459
 20
49.423141903526357
 30
0.0
 11
177.1925412716736
 21
49.423141903526357
 31
0.0
  0
LINE
  5
5475
  8
0
 10
124.4056560257718
 20
46.554289444510012
 30
0.0
 11
182.93024618970639
 21
46.554289444510012
 31
0.0
  0
LINE
  5
5476
  8
0
 10
119.167951107739
 20
37.88215829696901
 30
0.0
 11
188.1679511077391
 21
37.88215829696901
 31
0.0
  0
LINE
  5
5477
  8
0
 10
118.6679511077391
 20
43.685436985493652
 30
0.0
 11
188.6679511077391
 21
43.685436985493652
 31
0.0
  0
LINE
  5
5478
  8
0
 10
143.20674596589669
 20
56.175051515782329
 30
0.0
 11
142.19254127167341
 21
55.160846821559069
 31
0.0
  0
LINE
  5
5479
  8
1
 10
86.667918349028682
 20
229.16246359373369
 30
0.0
 11
6.6679183490286951
 21
229.16246359373369
 31
0.0
  0
LINE
  5
547A
  8
1
 10
46.667918349028689
 20
269.16246359373372
 30
0.0
 11
46.667918349028689
 21
189.16246359373341
 31
0.0
  0
CIRCLE
  5
547B
  8
0
 10
46.667918349028689
 20
229.16246359373369
 30
0.0
 40
17.213114754098338
  0
CIRCLE
  5
547C
  8
0
 10
46.667918349028689
 20
229.16246359373349
 30
0.0
 40
23.52459016393448
  0
CIRCLE
  5
547D
  8
0
 10
46.667918349028689
 20
229.16246359373349
 30
0.0
 40
29.249252152244249
  0
CIRCLE
  5
547E
  8
0
 10
46.667918349028689
 20
229.16246359373369
 30
0.0
 40
35.00000000000005
  0
LINE
  5
547F
  8
0
 10
36.206713207186347
 20
56.175051515782329
 30
0.0
 11
35.192508512963059
 21
55.160846821559069
 31
0.0
  0
LINE
  5
5480
  8
0
 10
11.667918349028691
 20
43.685436985493652
 30
0.0
 11
81.667918349028696
 21
43.685436985493652
 31
0.0
  0
LINE
  5
5481
  8
0
 10
12.167918349028691
 20
37.88215829696901
 30
0.0
 11
81.167918349028696
 21
37.88215829696901
 31
0.0
  0
LINE
  5
5482
  8
0
 10
17.405623267061401
 20
46.554289444510012
 30
0.0
 11
75.930213430996034
 21
46.554289444509998
 31
0.0
  0
LINE
  5
5483
  8
0
 10
23.143328185094209
 20
49.423141903526357
 30
0.0
 11
70.192508512963173
 21
49.423141903526357
 31
0.0
  0
LINE
  5
5484
  8
0
 10
29.454803594930361
 20
52.291994362542709
 30
0.0
 11
63.881033103127038
 21
52.291994362542709
 31
0.0
  0
LINE
  5
5485
  8
0
 10
35.192508512963059
 20
55.160846821559069
 30
0.0
 11
58.14332818509434
 21
55.160846821559069
 31
0.0
  0
LINE
  5
5486
  8
0
 10
37.913819988372772
 20
56.882158296969003
 30
0.0
 11
55.422016709684613
 21
56.88215829696901
 31
0.0
  0
LINE
  5
5487
  8
0
 10
11.667918349028691
 20
43.685436985493652
 30
0.0
 11
11.667918349028691
 21
44.088947318209193
 31
0.0
  0
LINE
  5
548E
  8
0
 10
11.667918349028691
 20
38.38215829696901
 30
0.0
 11
11.667918349028691
 21
43.685436985493652
 31
0.0
  0
LINE
  5
548F
  8
0
 10
16.258082283454769
 20
37.88215829696901
 30
0.0
 11
16.258082283454769
 21
34.88215829696901
 31
0.0
  0
LINE
  5
5490
  8
0
 10
12.167918349028691
 20
37.88215829696901
 30
0.0
 11
11.667918349028691
 21
38.38215829696901
 31
0.0
  0
LINE
  5
5491
  8
0
 10
17.405623267061401
 20
46.554289444510012
 30
0.0
 11
12.38057046346227
 21
45.046773603430211
 31
0.0
  0
LINE
  5
5492
  8
0
 10
17.418666196784439
 20
46.554289444510012
 30
0.0
 11
17.418666196784439
 21
46.958286678734112
 31
0.0
  0
LINE
  5
5493
  8
0
 10
23.143328185094209
 20
49.423141903526357
 30
0.0
 11
18.130717851068422
 21
47.91593262071865
 31
0.0
  0
LINE
  5
5494
  8
0
 10
29.454803594930361
 20
52.291994362542709
 30
0.0
 11
29.454803594930361
 21
52.695504695258251
 31
0.0
  0
LINE
  5
5495
  8
0
 10
23.143328185094209
 20
49.423141903526357
 30
0.0
 11
23.143328185094109
 21
49.806887046133618
 31
0.0
  0
LINE
  5
5496
  8
0
 10
29.454803594930361
 20
52.291994362542709
 30
0.0
 11
23.88021077930205
 21
50.771650867371363
 31
0.0
  0
LINE
  5
5497
  8
0
 10
35.192508512963059
 20
55.160846821559069
 30
0.0
 11
30.167455709363932
 21
53.653330980479502
 31
0.0
  0
ARC
  5
5498
  8
0
 10
12.667918349028691
 20
44.088947318209193
 30
0.0
 40
1.0
 50
106.6992442339937
 51
180.0
  0
ARC
  5
5499
  8
0
 10
18.418666196784439
 20
46.958286678734112
 30
0.0
 40
1.0
 50
106.7351662700647
 51
180.0
  0
ARC
  5
549A
  8
0
 10
24.143328185094109
 20
49.806887046133618
 30
0.0
 40
1.0
 50
105.2551187030578
 51
180.0
  0
ARC
  5
549B
  8
0
 10
30.454803594930361
 20
52.695504695258251
 30
0.0
 40
1.0
 50
106.69924423399389
 51
180.0
  0
LINE
  5
549C
  8
0
 10
36.206713207186347
 20
56.175051515782329
 30
0.0
 11
37.913819988372772
 21
56.882158296969003
 31
0.0
  0
LINE
  5
549D
  8
0
 10
16.258082283454769
 20
34.88215829696901
 30
0.0
 11
77.077754414602623
 21
34.88215829696901
 31
0.0
  0
LINE
  5
549F
  8
0
 10
57.129123490871052
 20
56.175051515782329
 30
0.0
 11
55.422016709684613
 21
56.882158296969003
 31
0.0
  0
ARC
  5
54A0
  8
0
 10
62.881033103127031
 20
52.695504695258251
 30
0.0
 40
1.0
 50
0.0
 51
73.300755766005878
  0
ARC
  5
54A1
  8
0
 10
69.192508512963286
 20
49.806887046133618
 30
0.0
 40
1.0
 50
0.0
 51
74.744881296941827
  0
ARC
  5
54A2
  8
0
 10
74.917170501272949
 20
46.958286678734112
 30
0.0
 40
1.0
 50
0.0
 51
73.264833729935503
  0
ARC
  5
54A3
  8
0
 10
80.667918349028696
 20
44.088947318209193
 30
0.0
 40
1.0
 50
0.0
 51
73.300755766006148
  0
LINE
  5
54A4
  8
0
 10
58.143328185094319
 20
55.160846821559069
 30
0.0
 11
63.168380988693457
 21
53.653330980479502
 31
0.0
  0
LINE
  5
54A5
  8
0
 10
63.881033103127038
 20
52.291994362542709
 30
0.0
 11
69.455625918755345
 21
50.771650867371363
 31
0.0
  0
LINE
  5
54A6
  8
0
 10
70.192508512963173
 20
49.423141903526357
 30
0.0
 11
70.192508512963286
 21
49.806887046133618
 31
0.0
  0
LINE
  5
54A7
  8
0
 10
63.881033103127038
 20
52.291994362542709
 30
0.0
 11
63.881033103127038
 21
52.695504695258251
 31
0.0
  0
LINE
  5
54A8
  8
0
 10
70.192508512963173
 20
49.423141903526357
 30
0.0
 11
75.205118846988952
 21
47.91593262071865
 31
0.0
  0
LINE
  5
54A9
  8
0
 10
75.917170501272949
 20
46.554289444510012
 30
0.0
 11
75.917170501272949
 21
46.958286678734112
 31
0.0
  0
LINE
  5
54AA
  8
0
 10
75.930213430995991
 20
46.554289444510012
 30
0.0
 11
80.955266234595115
 21
45.046773603430211
 31
0.0
  0
LINE
  5
54AB
  8
0
 10
81.167918349028696
 20
37.88215829696901
 30
0.0
 11
81.667918349028696
 21
38.38215829696901
 31
0.0
  0
LINE
  5
54AC
  8
0
 10
77.077754414602623
 20
37.88215829696901
 30
0.0
 11
77.077754414602623
 21
34.88215829696901
 31
0.0
  0
LINE
  5
54AD
  8
0
 10
81.667918349028696
 20
38.38215829696901
 30
0.0
 11
81.667918349028696
 21
43.685436985493652
 31
0.0
  0
LINE
  5
54B4
  8
0
 10
81.667918349028696
 20
43.685436985493652
 30
0.0
 11
81.667918349028696
 21
44.088947318209193
 31
0.0
  0
LINE
  5
54BC
  8
0
 10
57.129123490871052
 20
56.175051515782329
 30
0.0
 11
58.143328185094319
 21
55.160846821559069
 31
0.0
  0
LINE
  5
54CC
  8
0
 10
53.596121579304047
 20
241.16246359373369
 30
0.0
 11
39.739715118753111
 21
241.16246359373369
 31
0.0
  0
LINE
  5
54CD
  8
0
 10
39.739715118753111
 20
241.16246359373369
 30
0.0
 11
32.811511888477533
 21
229.16246359373369
 31
0.0
  0
LINE
  5
54CE
  8
0
 10
32.811511888477533
 20
229.16246359373369
 30
0.0
 11
39.739715118753111
 21
217.16246359373369
 31
0.0
  0
LINE
  5
54CF
  8
0
 10
39.739715118753111
 20
217.16246359373369
 30
0.0
 11
53.596121579304047
 21
217.16246359373369
 31
0.0
  0
LINE
  5
54D0
  8
0
 10
53.596121579304047
 20
217.16246359373369
 30
0.0
 11
60.524324809579639
 21
229.16246359373369
 31
0.0
  0
LINE
  5
54D1
  8
0
 10
60.524324809579639
 20
229.16246359373369
 30
0.0
 11
53.596121579304047
 21
241.16246359373369
 31
0.0
  0
CIRCLE
  5
54D2
  8
0
 10
46.667918349028689
 20
229.16246359373369
 30
0.0
 40
11.5
  0
CIRCLE
  5
54D3
  8
0
 10
46.667918349028689
 20
229.16246359373369
 30
0.0
 40
8.0
  0
CIRCLE
  5
54D4
  8
3
 10
46.667918349028689
 20
229.16246359373369
 30
0.0
 40
6.9175000000000004
  0
LINE
  5
54D5
  8
0
 10
41.167918349028007
 20
56.882158296969003
 30
0.0
 11
41.167918349028007
 21
59.882158296968782
 31
0.0
  0
LINE
  5
54D6
  8
0
 10
52.167918349028
 20
56.882158296969003
 30
0.0
 11
52.167918349028
 21
59.882158296968782
 31
0.0
  0
ARC
  5
54D7
  8
0
 10
46.667918349028483
 20
82.453955068804248
 30
0.0
 40
22.928203228139491
 50
72.412046224314139
 51
107.5879537756858
  0
ARC
  5
54D8
  8
0
 10
36.275613503614977
 20
99.248183701222928
 30
0.0
 40
6.1339745957208196
 50
55.615752528788647
 51
115.6157525301451
  0
LINE
  5
54D9
  8
0
 10
32.81151188845547
 20
104.31036152711459
 30
0.0
 11
35.167918349136237
 21
105.6708334315088
 31
0.0
  0
LINE
  5
54DA
  8
0
 10
32.81151188845547
 20
94.031305335928195
 30
0.0
 11
35.167918349136237
 21
92.670833431533978
 31
0.0
  0
ARC
  5
54DB
  8
0
 10
36.275613503614977
 20
99.093483161819677
 30
0.0
 40
6.1339745957208196
 50
244.38424746985481
 51
304.38424747121132
  0
ARC
  5
54DC
  8
0
 10
46.667918349028483
 20
115.8877117942384
 30
0.0
 40
22.928203228139491
 50
252.41204622431411
 51
287.58795377568589
  0
LINE
  5
54DD
  8
0
 10
32.811511888477298
 20
104.31036152711459
 30
0.0
 11
32.811511888477298
 21
94.031305335915476
 31
0.0
  0
LINE
  5
54DE
  8
0
 10
39.739715118753111
 20
104.31036152711459
 30
0.0
 11
39.739715118753111
 21
94.031305335928195
 31
0.0
  0
LINE
  5
54DF
  8
0
 10
53.596121579303812
 20
104.31036152711459
 30
0.0
 11
53.596121579303812
 21
94.031305335928195
 31
0.0
  0
LINE
  5
54E0
  8
0
 10
60.524324809579639
 20
104.31036152711459
 30
0.0
 11
60.524324809579639
 21
94.031305335915476
 31
0.0
  0
ARC
  5
54E1
  8
0
 10
57.06022319444196
 20
99.093483161819677
 30
0.0
 40
6.1339745957208196
 50
235.6157525287887
 51
295.61575253014507
  0
LINE
  5
54E2
  8
0
 10
60.524324809601453
 20
94.031305335928195
 30
0.0
 11
58.167918348920679
 21
92.670833431533978
 31
0.0
  0
LINE
  5
54E3
  8
0
 10
60.524324809601453
 20
104.31036152711459
 30
0.0
 11
58.167918348920679
 21
105.6708334315088
 31
0.0
  0
ARC
  5
54E4
  8
0
 10
57.06022319444196
 20
99.248183701222928
 30
0.0
 40
6.1339745957208196
 50
64.384247469854927
 51
124.3842474712113
  0
LINE
  5
54E5
  8
0
 10
35.167918349028469
 20
105.6708334315088
 30
0.0
 11
58.167918348920679
 21
105.6708334315088
 31
0.0
  0
LINE
  5
54E6
  8
0
 10
58.167918348920679
 20
92.670833431533978
 30
0.0
 11
35.167918349136237
 21
92.670833431533978
 31
0.0
  0
LINE
  5
54E7
  8
3
 10
53.585418349028707
 20
67.88215829696901
 30
0.0
 11
54.66791834902871
 21
66.007213297775706
 31
0.0
  0
LINE
  5
54E8
  8
3
 10
39.750418349028678
 20
67.88215829696901
 30
0.0
 11
38.667918349028689
 21
66.007213297775706
 31
0.0
  0
LINE
  5
54E9
  8
0
 10
38.667918349028689
 20
67.88215829696901
 30
0.0
 11
54.66791834902871
 21
67.88215829696901
 31
0.0
  0
LINE
  5
54EA
  8
0
 10
54.66791834902871
 20
171.88215829696901
 30
0.0
 11
38.667918349028689
 21
171.88215829696901
 31
0.0
  0
LINE
  5
54EB
  8
0
 10
52.667918349028689
 20
173.88215829696901
 30
0.0
 11
54.66791834902871
 21
171.88215829696901
 31
0.0
  0
LINE
  5
54EC
  8
0
 10
38.667918349028689
 20
171.88215829696901
 30
0.0
 11
40.667918349028682
 21
173.88215829696901
 31
0.0
  0
LINE
  5
54ED
  8
0
 10
38.667918349028689
 20
65.746311174806351
 30
0.0
 11
38.667918349028689
 21
92.670833431533978
 31
0.0
  0
LINE
  5
54EE
  8
3
 10
39.750418349028678
 20
67.88215829696901
 30
0.0
 11
39.750418349028678
 21
92.670833431533765
 31
0.0
  0
LINE
  5
54EF
  8
3
 10
53.585418349028707
 20
67.88215829696901
 30
0.0
 11
53.585418349028707
 21
92.670833431533765
 31
0.0
  0
LINE
  5
54F0
  8
0
 10
54.66791834902871
 20
65.746311174805669
 30
0.0
 11
54.66791834902871
 21
92.670833431533765
 31
0.0
  0
LINE
  5
54F1
  8
0
 10
40.667918349028682
 20
173.88215829696901
 30
0.0
 11
52.667918349028689
 21
173.88215829696901
 31
0.0
  0
ARC
  5
54F2
  8
0
 10
50.667918349028241
 20
54.192893162178741
 30
0.0
 40
11.55341801262729
 50
69.743841999608421
 51
110.25615800039159
  0
LINE
  5
54F3
  8
0
 10
54.667918349028241
 20
65.746311174806124
 30
0.0
 11
54.432624231380153
 21
65.882158296968782
 31
0.0
  0
LINE
  5
54F4
  8
0
 10
54.667918349028241
 20
60.018005419130979
 30
0.0
 11
54.432624231380153
 21
59.8821582969681
 31
0.0
  0
ARC
  5
54F5
  8
0
 10
50.667918349028241
 20
71.571423431758376
 30
0.0
 40
11.55341801262729
 50
249.74384199960841
 51
290.25615800039151
  0
LINE
  5
54F6
  8
0
 10
54.667918349028241
 20
65.746311174806124
 30
0.0
 11
54.667918349028241
 21
60.018005419130979
 31
0.0
  0
LINE
  5
54F7
  8
0
 10
46.667918349028241
 20
65.031779994990075
 30
0.0
 11
46.667918349028241
 21
60.732536598946822
 31
0.0
  0
LINE
  5
54F8
  8
0
 10
38.667918349028142
 20
65.746311174806124
 30
0.0
 11
38.667918349028241
 21
60.018005419130979
 31
0.0
  0
LINE
  5
54F9
  8
0
 10
38.667918349028142
 20
60.018005419130979
 30
0.0
 11
38.90321246667623
 21
59.8821582969681
 31
0.0
  0
ARC
  5
54FA
  8
0
 10
42.667918349028241
 20
71.571423431758376
 30
0.0
 40
11.55341801262729
 50
249.74384199960841
 51
290.25615800039151
  0
LINE
  5
54FB
  8
0
 10
38.667918349028142
 20
65.746311174806124
 30
0.0
 11
38.90321246667623
 21
65.882158296968782
 31
0.0
  0
ARC
  5
54FC
  8
0
 10
42.667918349028241
 20
54.192893162178741
 30
0.0
 40
11.55341801262729
 50
69.743841999608421
 51
110.25615800039159
  0
LINE
  5
54FD
  8
0
 10
54.432624231380032
 20
65.882158296968782
 30
0.0
 11
38.90321246667623
 21
65.882158296968782
 31
0.0
  0
LINE
  5
54FE
  8
0
 10
38.903212466675207
 20
59.882158296968782
 30
0.0
 11
54.432624231381169
 21
59.882158296968782
 31
0.0
  0
LINE
  5
54FF
  8
3
 10
53.585418349028707
 20
105.6708334315088
 30
0.0
 11
53.585418349028707
 21
172.96465829696899
 31
0.0
  0
LINE
  5
5500
  8
0
 10
54.66791834902871
 20
105.6708334315088
 30
0.0
 11
54.66791834902871
 21
171.88215829696901
 31
0.0
  0
LINE
  5
5501
  8
3
 10
39.750418349028678
 20
105.6708334315088
 30
0.0
 11
39.750418349028678
 21
172.96465829696899
 31
0.0
  0
LINE
  5
5502
  8
0
 10
38.667918349028689
 20
105.6708334315088
 30
0.0
 11
38.667918349028689
 21
171.88215829696901
 31
0.0
  0
LINE
  5
5503
  8
1
 10
46.667918349028689
 20
29.88215829696901
 30
0.0
 11
46.667918349028689
 21
178.88215829696901
 31
0.0
  0
LINE
  5
5504
  8
0
 10
159.16795110774009
 20
56.882158296968782
 30
0.0
 11
159.16795110774009
 21
59.882158296968548
 31
0.0
  0
LINE
  5
5505
  8
0
 10
148.16795110774021
 20
56.882158296968782
 30
0.0
 11
148.16795110774021
 21
59.882158296968548
 31
0.0
  0
ARC
  5
5506
  8
0
 10
159.6679511077395
 20
88.052031279629773
 30
0.0
 40
17.330127017333279
 50
69.743841997643003
 51
110.256158002357
  0
LINE
  5
5507
  8
0
 10
165.6679511077545
 20
105.3821582969631
 30
0.0
 11
165.1679511077395
 21
105.67083343156651
 31
0.0
  0
LINE
  5
5508
  8
0
 10
165.6679511077545
 20
92.959508566118188
 30
0.0
 11
165.1679511077395
 21
92.670833431514779
 31
0.0
  0
ARC
  5
5509
  8
0
 10
159.6679511077395
 20
110.2896355834515
 30
0.0
 40
17.330127017333279
 50
249.7438419976429
 51
290.25615800235693
  0
LINE
  5
550A
  8
0
 10
165.6679511077545
 20
105.3821582969631
 30
0.0
 11
165.6679511077395
 21
92.959508566109548
 31
0.0
  0
LINE
  5
550B
  8
0
 10
153.6679511077395
 20
94.031305335947422
 30
0.0
 11
153.6679511077395
 21
104.31036152713379
 31
0.0
  0
LINE
  5
550C
  8
0
 10
141.66795110772441
 20
105.3821582969631
 30
0.0
 11
141.6679511077395
 21
92.959508566109548
 31
0.0
  0
ARC
  5
550D
  8
0
 10
147.6679511077395
 20
110.2896355834515
 30
0.0
 40
17.330127017333279
 50
249.7438419976429
 51
290.25615800235693
  0
LINE
  5
550E
  8
0
 10
141.66795110772441
 20
92.959508566118188
 30
0.0
 11
142.1679511077395
 21
92.670833431514779
 31
0.0
  0
LINE
  5
550F
  8
0
 10
141.66795110772441
 20
105.3821582969631
 30
0.0
 11
142.1679511077395
 21
105.67083343156651
 31
0.0
  0
ARC
  5
5510
  8
0
 10
147.6679511077395
 20
88.052031279629773
 30
0.0
 40
17.330127017333279
 50
69.743841997643003
 51
110.256158002357
  0
LINE
  5
5511
  8
0
 10
142.1679511076731
 20
105.670833431528
 30
0.0
 11
165.1679511077395
 21
105.67083343156651
 31
0.0
  0
LINE
  5
5512
  8
0
 10
165.1679511077395
 20
92.670833431514779
 30
0.0
 11
142.1679511076731
 21
92.670833431553206
 31
0.0
  0
ARC
  5
5513
  8
0
 10
146.7397478774636
 20
61.656994777325053
 30
0.0
 40
4.0893163974808306
 50
55.615752531995142
 51
115.61575253211289
  0
ARC
  5
5514
  8
0
 10
153.66795110773859
 20
50.460842354601937
 30
0.0
 40
15.28546882020385
 50
72.412046226030085
 51
107.5879537739699
  0
LINE
  5
5515
  8
0
 10
144.43034680070519
 20
65.031779994990302
 30
0.0
 11
145.9032452253862
 21
65.88215829696901
 31
0.0
  0
LINE
  5
5516
  8
0
 10
144.43034680070519
 20
60.73253659894727
 30
0.0
 11
145.9032452253862
 21
59.882158296968548
 31
0.0
  0
ARC
  5
5517
  8
0
 10
146.7397478774636
 20
64.107321816612512
 30
0.0
 40
4.0893163974808306
 50
244.38424746788701
 51
304.38424746800479
  0
ARC
  5
5518
  8
0
 10
153.66795110773859
 20
75.303474239335401
 30
0.0
 40
15.28546882020385
 50
252.4120462260301
 51
287.58795377396979
  0
LINE
  5
5519
  8
0
 10
144.43034680070519
 20
65.031779994990302
 30
0.0
 11
144.43034680070519
 21
60.73253659894727
 31
0.0
  0
LINE
  5
551A
  8
0
 10
149.0491489542211
 20
65.031779994990302
 30
0.0
 11
149.04914895422181
 21
60.732536598946822
 31
0.0
  0
LINE
  5
551B
  8
0
 10
158.2867532612571
 20
65.031779994990302
 30
0.0
 11
158.28675326125639
 21
60.732536598946822
 31
0.0
  0
LINE
  5
551C
  8
0
 10
162.905555414773
 20
65.031779994990302
 30
0.0
 11
162.905555414773
 21
60.73253659894727
 31
0.0
  0
ARC
  5
551D
  8
0
 10
160.5961543380144
 20
64.107321816612512
 30
0.0
 40
4.0893163974808306
 50
235.61575253199521
 51
295.61575253211288
  0
LINE
  5
551E
  8
0
 10
162.905555414773
 20
60.73253659894727
 30
0.0
 11
161.43265699009211
 21
59.882158296968548
 31
0.0
  0
LINE
  5
551F
  8
0
 10
162.905555414773
 20
65.031779994990302
 30
0.0
 11
161.43265699009211
 21
65.88215829696901
 31
0.0
  0
ARC
  5
5520
  8
0
 10
160.5961543380144
 20
61.656994777325053
 30
0.0
 40
4.0893163974808306
 50
64.384247467887079
 51
124.3842474680048
  0
LINE
  5
5521
  8
0
 10
145.9032452253862
 20
65.88215829696901
 30
0.0
 11
161.43265699009231
 21
65.882158296968555
 31
0.0
  0
LINE
  5
5522
  8
0
 10
161.43265699009231
 20
59.882158296968782
 30
0.0
 11
145.9032452253858
 21
59.882158296968782
 31
0.0
  0
LINE
  5
5523
  8
0
 10
147.66795110774001
 20
173.88215829696881
 30
0.0
 11
159.66795110774001
 21
173.8821582969685
 31
0.0
  0
LINE
  5
5524
  8
0
 10
161.66795110774009
 20
65.746311174805669
 30
0.0
 11
161.66795110774001
 21
92.670833431520435
 31
0.0
  0
LINE
  5
5525
  8
3
 10
160.58545110774
 20
67.882158296968782
 30
0.0
 11
160.58545110774
 21
92.67083343152251
 31
0.0
  0
LINE
  5
5526
  8
0
 10
159.66795110774001
 20
173.8821582969685
 30
0.0
 11
161.66795110774001
 21
171.8821582969685
 31
0.0
  0
LINE
  5
5527
  8
0
 10
161.66795110774001
 20
171.8821582969685
 30
0.0
 11
145.66795110774001
 21
171.88215829696881
 31
0.0
  0
LINE
  5
5528
  8
0
 10
145.66795110774001
 20
67.882158296968782
 30
0.0
 11
161.66795110774001
 21
67.882158296968782
 31
0.0
  0
LINE
  5
5529
  8
3
 10
160.58545110774
 20
67.882158296968782
 30
0.0
 11
161.66795110774001
 21
66.007213297775479
 31
0.0
  0
LINE
  5
552A
  8
3
 10
146.75045110773999
 20
67.882158296968782
 30
0.0
 11
146.75045110773999
 21
92.670833431545461
 31
0.0
  0
LINE
  5
552B
  8
0
 10
145.66795110774001
 20
65.746311174806124
 30
0.0
 11
145.66795110774009
 21
92.670833431547294
 31
0.0
  0
LINE
  5
552C
  8
0
 10
145.66795110774001
 20
171.88215829696901
 30
0.0
 11
147.66795110774001
 21
173.88215829696881
 31
0.0
  0
LINE
  5
552D
  8
3
 10
146.75045110773999
 20
67.882158296968782
 30
0.0
 11
145.66795110774001
 21
66.007213297775479
 31
0.0
  0
LINE
  5
552E
  8
3
 10
146.75045110773999
 20
105.6708334315358
 30
0.0
 11
146.75045110773999
 21
172.96465829696871
 31
0.0
  0
LINE
  5
552F
  8
0
 10
145.66795110774009
 20
105.67083343153401
 30
0.0
 11
145.66795110774001
 21
171.88215829696901
 31
0.0
  0
LINE
  5
5530
  8
0
 10
161.66795110774001
 20
105.67083343156079
 30
0.0
 11
161.66795110774001
 21
171.8821582969685
 31
0.0
  0
LINE
  5
5531
  8
3
 10
160.58545110774
 20
105.670833431559
 30
0.0
 11
160.58545110774
 21
172.96465829696851
 31
0.0
  0
LINE
  5
5532
  8
1
 10
153.66795110773899
 20
29.88215829696901
 30
0.0
 11
153.66795110774001
 21
178.88215829696881
 31
0.0
  0
TEXT
  5
58A4
  8
0
 62
     3
 10
0.0
 20
0.0
 30
0.0
 40
10.0
  1
LVER70S16B-SUS
  7
STANDARD1
  0
ENDSEC
  0
EOF
