  0
SECTION
  2
HEADER
  9
$ACADVER
  1
AC1009
  9
$INSBASE
 10
0.0
 20
0.0
 30
0.0
  9
$EXTMIN
 10
0.0
 20
-2.960436562073669
 30
0.0
  9
$EXTMAX
 10
187.6891541428943
 20
203.44230678873009
 30
0.0
  9
$LIMMIN
 10
0.0
 20
0.0
  9
$LIMMAX
 10
375.0
 20
270.0
  9
$ORTHOMODE
 70
     1
  9
$REGENMODE
 70
     1
  9
$FILLMODE
 70
     1
  9
$QTEXTMODE
 70
     0
  9
$MIRRTEXT
 70
     0
  9
$DRAGMODE
 70
     2
  9
$LTSCALE
 40
6.0
  9
$OSMODE
 70
    37
  9
$ATTMODE
 70
     1
  9
$TEXTSIZE
 40
0.2
  9
$TRACEWID
 40
0.05
  9
$TEXTSTYLE
  7
STANDARD
  9
$CLAYER
  8
0
  9
$CELTYPE
  6
BYLAYER
  9
$CECOLOR
 62
   256
  9
$DIMSCALE
 40
1.0
  9
$DIMASZ
 40
3.0
  9
$DIMEXO
 40
1.0
  9
$DIMDLI
 40
6.0
  9
$DIMRND
 40
0.0
  9
$DIMDLE
 40
0.0
  9
$DIMEXE
 40
1.0
  9
$DIMTP
 40
495.0
  9
$DIMTM
 40
0.0
  9
$DIMTXT
 40
3.0
  9
$DIMCEN
 40
0.0
  9
$DIMTSZ
 40
0.0
  9
$DIMTOL
 70
     0
  9
$DIMLIM
 70
     0
  9
$DIMTIH
 70
     0
  9
$DIMTOH
 70
     0
  9
$DIMSE1
 70
     0
  9
$DIMSE2
 70
     0
  9
$DIMTAD
 70
     1
  9
$DIMZIN
 70
     0
  9
$DIMBLK
  1

  9
$DIMASO
 70
     0
  9
$DIMSHO
 70
     0
  9
$DIMPOST
  1

  9
$DIMAPOST
  1

  9
$DIMALT
 70
     0
  9
$DIMALTD
 70
     2
  9
$DIMALTF
 40
25.399999999999999
  9
$DIMLFAC
 40
1.0
  9
$DIMTOFL
 70
     1
  9
$DIMTVP
 40
0.0
  9
$DIMTIX
 70
     1
  9
$DIMSOXD
 70
     0
  9
$DIMSAH
 70
     0
  9
$DIMBLK1
  1

  9
$DIMBLK2
  1

  9
$DIMSTYLE
  2
STANDARD
  9
$DIMCLRD
 70
     0
  9
$DIMCLRE
 70
     0
  9
$DIMCLRT
 70
     4
  9
$DIMTFAC
 40
1.0
  9
$DIMGAP
 40
1.0
  9
$LUNITS
 70
     2
  9
$LUPREC
 70
     4
  9
$SKETCHINC
 40
0.1
  9
$FILLETRAD
 40
2.0
  9
$AUNITS
 70
     0
  9
$AUPREC
 70
     0
  9
$MENU
  1
C:\R13\WIN\SUPPORT\ACAD-I
  9
$ELEVATION
 40
0.0
  9
$PELEVATION
 40
0.0
  9
$THICKNESS
 40
0.0
  9
$LIMCHECK
 70
     0
  9
$BLIPMODE
 70
     0
  9
$CHAMFERA
 40
0.0
  9
$CHAMFERB
 40
0.0
  9
$SKPOLY
 70
     0
  9
$TDCREATE
 40
2451962.427653553
  9
$TDUPDATE
 40
2456598.72265669
  9
$TDINDWG
 40
0.0315005671
  9
$TDUSRTIMER
 40
2456598.0713399542
  9
$USRTIMER
 70
     1
  9
$ANGBASE
 50
0.0
  9
$ANGDIR
 70
     0
  9
$PDMODE
 70
     0
  9
$PDSIZE
 40
0.0
  9
$PLINEWID
 40
0.0
  9
$COORDS
 70
     1
  9
$SPLFRAME
 70
     0
  9
$SPLINETYPE
 70
     6
  9
$SPLINESEGS
 70
     8
  9
$ATTDIA
 70
     0
  9
$ATTREQ
 70
     1
  9
$HANDLING
 70
     1
  9
$HANDSEED
  5
4B32
  9
$SURFTAB1
 70
     6
  9
$SURFTAB2
 70
     6
  9
$SURFTYPE
 70
     6
  9
$SURFU
 70
     6
  9
$SURFV
 70
     6
  9
$UCSNAME
  2

  9
$UCSORG
 10
0.0
 20
0.0
 30
0.0
  9
$UCSXDIR
 10
1.0
 20
0.0
 30
0.0
  9
$UCSYDIR
 10
0.0
 20
1.0
 30
0.0
  9
$PUCSNAME
  2

  9
$PUCSORG
 10
0.0
 20
0.0
 30
0.0
  9
$PUCSXDIR
 10
1.0
 20
0.0
 30
0.0
  9
$PUCSYDIR
 10
0.0
 20
1.0
 30
0.0
  9
$USERI1
 70
     4
  9
$USERI2
 70
     1
  9
$USERI3
 70
     0
  9
$USERI4
 70
     0
  9
$USERI5
 70
     0
  9
$USERR1
 40
1.0
  9
$USERR2
 40
3.0
  9
$USERR3
 40
3.0
  9
$USERR4
 40
3.0
  9
$USERR5
 40
10.0
  9
$WORLDVIEW
 70
     1
  9
$SHADEDGE
 70
     3
  9
$SHADEDIF
 70
    70
  9
$TILEMODE
 70
     1
  9
$MAXACTVP
 70
    16
  9
$PLIMCHECK
 70
     0
  9
$PEXTMIN
 10
1.0000000000000000E+020
 20
1.0000000000000000E+020
 30
1.0000000000000000E+020
  9
$PEXTMAX
 10
-1.0000000000000000E+020
 20
-1.0000000000000000E+020
 30
-1.0000000000000000E+020
  9
$PLIMMIN
 10
0.0
 20
0.0
  9
$PLIMMAX
 10
12.0
 20
9.0
  9
$UNITMODE
 70
     0
  9
$VISRETAIN
 70
     0
  9
$PLINEGEN
 70
     0
  9
$PSLTSCALE
 70
     0
  0
ENDSEC
  0
SECTION
  2
TABLES
  0
TABLE
  2
VPORT
 70
     1
  0
VPORT
  2
*ACTIVE
 70
     0
 10
0.0
 20
0.0
 11
1.0
 21
1.0
 12
187.49427839065231
 22
177.52205812711131
 13
0.0
 23
0.0
 14
10.0
 24
10.0
 15
10.0
 25
10.0
 16
0.0
 26
0.0
 36
1.0
 17
0.0
 27
0.0
 37
0.0
 40
364.13085016302909
 41
1.755244755244755
 42
50.0
 43
0.0
 44
0.0
 50
0.0
 51
0.0
 71
    16
 72
   100
 73
     1
 74
     0
 75
     0
 76
     0
 77
     0
 78
     0
  0
ENDTAB
  0
TABLE
  2
LTYPE
 70
     3
  0
LTYPE
  2
CONTINUOUS
 70
     0
  3
Solid Line
 72
    65
 73
     0
 40
0.0
  0
LTYPE
  2
PHANTOM2
 70
     0
  3
___ _ _ ___ _ _ ___ _ _ ___ _ _
 72
    65
 73
     6
 40
1.25
 49
0.625
 49
-0.125
 49
0.125
 49
-0.125
 49
0.125
 49
-0.125
  0
LTYPE
  2
CENTER
 70
     0
  3
____ _ ____ _ ____ _ ____ _ ____ _ ____ _ ____
 72
    65
 73
     4
 40
2.0
 49
1.25
 49
-0.25
 49
0.25
 49
-0.25
  0
ENDTAB
  0
TABLE
  2
LAYER
 70
     3
  0
LAYER
  2
0
 70
     0
 62
     7
  6
CONTINUOUS
  0
LAYER
  2
1
 70
     0
 62
     1
  6
CENTER
  0
LAYER
  2
3
 70
     0
 62
     3
  6
CONTINUOUS
  0
ENDTAB
  0
TABLE
  2
STYLE
 70
     3
  0
STYLE
  2
STANDARD
 70
     0
 40
0.0
 41
1.0
 50
0.0
 71
     0
 42
0.2
  3
SIMPLEX
  4
BIGFONT
  0
STYLE
  2
ANNOTATIVE
 70
     0
 40
0.0
 41
1.0
 50
0.0
 71
     0
 42
0.2
  3
txt
  4

  0
STYLE
  2
STANDARD1
 70
     0
 40
0.0
 41
1.0
 50
0.0
 71
     0
 42
3.0
  3
txt
  4

  0
ENDTAB
  0
TABLE
  2
VIEW
 70
     0
  0
ENDTAB
  0
TABLE
  2
UCS
 70
     0
  0
ENDTAB
  0
TABLE
  2
APPID
 70
    29
  0
APPID
  2
ACAD
 70
     0
  0
APPID
  2
ACADANNOTATIVE
 70
     0
  0
APPID
  2
GENIUS_GENOREF_13
 70
     0
  0
APPID
  2
GENIUS_GENOENT_13
 70
     0
  0
APPID
  2
GENIUS_GENBH_13
 70
     0
  0
APPID
  2
GENIUS_GENOBJ_13
 70
     0
  0
APPID
  2
GENIUS_GENODEF_13
 70
     0
  0
APPID
  2
GENIUS_GENOLIS_13
 70
     0
  0
APPID
  2
GENIUS_GENOBJ-NBEHI-BHF_13
 70
     0
  0
APPID
  2
GENIUS_GENOBJ-NBEHI-BHB_13
 70
     0
  0
APPID
  2
GENIUS_GENOBJ-F-PART_13
 70
     0
  0
APPID
  2
GENIUS_GEFSTDP_13
 70
     0
  0
APPID
  2
GENIUS_GENOBJ-N-RSSYM_13
 70
     0
  0
APPID
  2
GENIUS_GENSYMENT_13
 70
     0
  0
APPID
  2
GENIUS_GENOBJ-N-TIT_13
 70
     0
  0
APPID
  2
GENIUS_GENTITLE_13
 70
     0
  0
APPID
  2
GENIUS_GENZVEED_13
 70
     0
  0
APPID
  2
GENIUS_GENOBJ-N-LEADER_13
 70
     0
  0
APPID
  2
GENIUS_GENOBJ-N-FIL_13
 70
     0
  0
APPID
  2
GENIUS_GENOBJ-N-SEC_13
 70
     0
  0
APPID
  2
GENIUS_GENOBJ-N-CRS_13
 70
     0
  0
APPID
  2
GENIUS_GENOBJ-N-ZOO_13
 70
     0
  0
APPID
  2
GENIUS_GENZOO_13
 70
     0
  0
APPID
  2
GENIUS_GENOBJ-F-TOL_13
 70
     0
  0
APPID
  2
GENIUS_GENFIL_13
 70
     0
  0
APPID
  2
GENIUS_GENOBJ-N-CHA_13
 70
     0
  0
APPID
  2
ACAD_EXEMPT_FROM_CAD_STANDARDS
 70
     0
  0
APPID
  2
ACAD_MLEADERVER
 70
     0
  0
APPID
  2
ACAD_NAV_VCDISPLAY
 70
     0
  0
ENDTAB
  0
TABLE
  2
DIMSTYLE
 70
     2
  0
DIMSTYLE
  2
STANDARD
 70
     0
  3

  4

  5

  6

  7

 40
1.0
 41
0.18
 42
0.0625
 43
0.38
 44
0.18
 45
0.0
 46
0.0
 47
0.0
 48
0.0
140
0.18
141
0.09
142
0.0
143
25.399999999999999
144
1.0
145
0.0
146
1.0
147
0.09
 71
     0
 72
     0
 73
     1
 74
     1
 75
     0
 76
     0
 77
     0
 78
     0
170
     0
171
     2
172
     0
173
     0
174
     0
175
     0
176
     0
177
     0
178
     0
  0
DIMSTYLE
  2
ANNOTATIVE
 70
     0
  3

  4

  5

  6

  7

 40
1.0
 41
0.18
 42
0.0625
 43
0.38
 44
0.18
 45
0.0
 46
0.0
 47
0.0
 48
0.0
140
0.18
141
0.09
142
0.0
143
25.399999999999999
144
1.0
145
0.0
146
1.0
147
0.09
 71
     0
 72
     0
 73
     1
 74
     1
 75
     0
 76
     0
 77
     0
 78
     0
170
     0
171
     2
172
     0
173
     0
174
     0
175
     0
176
     0
177
     0
178
     0
  0
ENDTAB
  0
ENDSEC
  0
SECTION
  2
BLOCKS
  0
BLOCK
  8
0
  2
$MODEL_SPACE
 70
     0
 10
0.0
 20
0.0
 30
0.0
  3
$MODEL_SPACE
  1

  0
ENDBLK
  5
49F9
  8
0
  0
BLOCK
 67
     1
  8
0
  2
$PAPER_SPACE
 70
     0
 10
0.0
 20
0.0
 30
0.0
  3
$PAPER_SPACE
  1

  0
ENDBLK
  5
49F5
 67
     1
  8
0
  0
ENDSEC
  0
SECTION
  2
ENTITIES
  0
CIRCLE
  5
4627
  8
0
 10
45.68912138418294
 20
163.44230678873009
 30
0.0
 40
8.25
  0
LINE
  5
4628
  8
0
 10
35.874166807959398
 20
163.44230678873009
 30
0.0
 11
40.781644096071098
 21
154.94230678873009
 31
0.0
  0
LINE
  5
4629
  8
0
 10
40.781644096071197
 20
171.94230678873009
 30
0.0
 11
35.874166807959398
 21
163.44230678873009
 31
0.0
  0
LINE
  5
462A
  8
0
 10
50.59659867229481
 20
171.94230678873009
 30
0.0
 11
40.781644096071197
 21
171.94230678873009
 31
0.0
  0
LINE
  5
462B
  8
0
 10
55.504075960406617
 20
163.44230678873009
 30
0.0
 11
50.59659867229481
 21
171.94230678873009
 31
0.0
  0
LINE
  5
462C
  8
0
 10
50.59659867229481
 20
154.94230678873009
 30
0.0
 11
55.504075960406617
 21
163.44230678873009
 31
0.0
  0
LINE
  5
462D
  8
0
 10
40.781644096071098
 20
154.94230678873009
 30
0.0
 11
50.59659867229481
 21
154.94230678873009
 31
0.0
  0
CIRCLE
  5
462E
  8
3
 10
45.68912138418294
 20
163.44230678873009
 30
0.0
 40
4.1879999999999979
  0
CIRCLE
  5
462F
  8
0
 10
45.68912138418294
 20
163.44230678873009
 30
0.0
 40
5.0
  0
LINE
  5
4630
  8
0
 10
158.18915414289441
 20
45.170237067830961
 30
0.0
 11
158.18915414289441
 21
49.170237067830492
 31
0.0
  0
LINE
  5
4631
  8
0
 10
147.1891541428943
 20
45.170237067830961
 30
0.0
 11
147.1891541428943
 21
49.170237067830492
 31
0.0
  0
ARC
  5
4632
  8
0
 10
146.6269763164033
 20
50.436644762947701
 30
0.0
 40
3.5781518477924039
 50
55.615752531961242
 51
115.6157525321741
  0
ARC
  5
4633
  8
0
 10
152.68915414289529
 20
40.64001139308629
 30
0.0
 40
13.374785217653811
 50
72.412046225995169
 51
107.5879537740048
  0
LINE
  5
4634
  8
0
 10
144.60625037423941
 20
53.389581828400807
 30
0.0
 11
145.95838491212621
 21
54.170237067830371
 31
0.0
  0
LINE
  5
4635
  8
0
 10
144.60625037423941
 20
49.950892307260013
 30
0.0
 11
145.95838491212621
 21
49.170237067830492
 31
0.0
  0
ARC
  5
4636
  8
0
 10
146.6269763164033
 20
52.903829372713169
 30
0.0
 40
3.5781518477924039
 50
244.38424746782579
 51
304.38424746803872
  0
ARC
  5
4637
  8
0
 10
152.68915414289529
 20
62.700462742574473
 30
0.0
 40
13.374785217653811
 50
252.4120462259952
 51
287.5879537740048
  0
LINE
  5
4638
  8
0
 10
144.60625037423941
 20
53.389581828400807
 30
0.0
 11
144.60625037423941
 21
49.950892307260013
 31
0.0
  0
LINE
  5
4639
  8
0
 10
148.64770225856859
 20
53.389581828399621
 30
0.0
 11
148.6477022585668
 21
49.950892307261711
 31
0.0
  0
LINE
  5
463A
  8
0
 10
156.73060602721981
 20
53.389581828401333
 30
0.0
 11
156.73060602722171
 21
49.950892307261711
 31
0.0
  0
LINE
  5
463B
  8
0
 10
160.77205791154901
 20
53.389581828400871
 30
0.0
 11
160.77205791154901
 21
49.950892307260013
 31
0.0
  0
ARC
  5
463C
  8
0
 10
158.75133196938521
 20
52.903829372713169
 30
0.0
 40
3.5781518477924039
 50
235.61575253196131
 51
295.61575253217421
  0
LINE
  5
463D
  8
0
 10
160.77205791154901
 20
49.950892307260013
 30
0.0
 11
159.4199233736623
 21
49.170237067830492
 31
0.0
  0
LINE
  5
463E
  8
0
 10
160.77205791154901
 20
53.389581828400807
 30
0.0
 11
159.4199233736623
 21
54.170237067830371
 31
0.0
  0
ARC
  5
463F
  8
0
 10
158.75133196938521
 20
50.436644762947701
 30
0.0
 40
3.5781518477924039
 50
64.38424746782583
 51
124.38424746803869
  0
LINE
  5
4640
  8
0
 10
145.9583849121251
 20
54.170237067830371
 30
0.0
 11
159.4199233736621
 21
54.170237067830371
 31
0.0
  0
LINE
  5
4641
  8
0
 10
159.4199233736623
 20
49.170237067830492
 30
0.0
 11
145.9583849121266
 21
49.170237067830492
 31
0.0
  0
ARC
  5
4642
  8
0
 10
156.93915414289421
 20
61.750392862116144
 30
0.0
 40
12.275506638416489
 50
69.743841999604257
 51
110.2561580003956
  0
LINE
  5
4643
  8
0
 10
161.18915414289441
 20
74.02589950053266
 30
0.0
 11
160.93915414289319
 21
74.170237067830655
 31
0.0
  0
LINE
  5
4644
  8
0
 10
161.18915414289441
 20
66.314574635128281
 30
0.0
 11
160.93915414289319
 21
66.170237067830271
 31
0.0
  0
ARC
  5
4645
  8
0
 10
156.93915414289421
 20
78.59008127354474
 30
0.0
 40
12.275506638416489
 50
249.7438419996042
 51
290.25615800039589
  0
LINE
  5
4646
  8
0
 10
161.18915414289441
 20
74.02589950053266
 30
0.0
 11
161.18915414289421
 21
66.314574635128281
 31
0.0
  0
LINE
  5
4647
  8
0
 10
152.6891541428943
 20
73.266710121978292
 30
0.0
 11
152.6891541428943
 21
67.073764013682364
 31
0.0
  0
LINE
  5
4648
  8
0
 10
144.18915414289421
 20
74.02589950053266
 30
0.0
 11
144.18915414289421
 21
66.314574635128281
 31
0.0
  0
LINE
  5
4649
  8
0
 10
144.18915414289421
 20
66.314574635128281
 30
0.0
 11
144.43915414289529
 21
66.170237067830271
 31
0.0
  0
ARC
  5
464A
  8
0
 10
148.4391541428943
 20
78.59008127354474
 30
0.0
 40
12.275506638416489
 50
249.7438419996042
 51
290.25615800039589
  0
LINE
  5
464B
  8
0
 10
144.18915414289421
 20
74.02589950053266
 30
0.0
 11
144.43915414289529
 21
74.170237067830655
 31
0.0
  0
ARC
  5
464C
  8
0
 10
148.4391541428943
 20
61.750392862116144
 30
0.0
 40
12.275506638416489
 50
69.743841999604257
 51
110.2561580003956
  0
LINE
  5
464D
  8
0
 10
160.93915414289319
 20
74.170237067830655
 30
0.0
 11
144.43915414289529
 21
74.170237067830655
 31
0.0
  0
LINE
  5
464E
  8
0
 10
144.43915414289421
 20
66.170237067830897
 30
0.0
 11
160.9391541428943
 21
66.170237067830897
 31
0.0
  0
LINE
  5
464F
  8
0
 10
147.68915414289421
 20
95.670237067831025
 30
0.0
 11
157.68915414289421
 21
95.670237067830911
 31
0.0
  0
LINE
  5
4650
  8
3
 10
156.8771541428942
 20
56.170237067830541
 30
0.0
 11
157.6891541428941
 21
54.763811812084782
 31
0.0
  0
LINE
  5
4651
  8
3
 10
148.50115414289411
 20
56.170237067830541
 30
0.0
 11
147.6891541428941
 21
54.763811812084782
 31
0.0
  0
LINE
  5
4652
  8
0
 10
147.68915414289421
 20
56.170237067830541
 30
0.0
 11
157.68915414289421
 21
56.170237067830442
 31
0.0
  0
LINE
  5
4653
  8
0
 10
156.1891541428941
 20
97.170237067830911
 30
0.0
 11
157.68915414289421
 21
95.670237067830911
 31
0.0
  0
LINE
  5
4654
  8
0
 10
147.68915414289421
 20
95.670237067831025
 30
0.0
 11
149.1891541428941
 21
97.170237067830982
 31
0.0
  0
LINE
  5
4655
  8
3
 10
148.50115414289411
 20
56.170237067830499
 30
0.0
 11
148.50115414289431
 21
66.170237067830897
 31
0.0
  0
LINE
  5
4656
  8
3
 10
156.87715414289451
 20
56.170237067830371
 30
0.0
 11
156.87715414289451
 21
66.170237067830897
 31
0.0
  0
LINE
  5
4657
  8
0
 10
149.1891541428941
 20
97.170237067830982
 30
0.0
 11
156.1891541428941
 21
97.170237067830911
 31
0.0
  0
LINE
  5
4658
  8
0
 10
147.68915414289421
 20
54.170237067830371
 30
0.0
 11
147.68915414289421
 21
66.170237067830897
 31
0.0
  0
LINE
  5
4659
  8
0
 10
157.68915414289421
 20
54.170237067830371
 30
0.0
 11
157.68915414289421
 21
66.170237067830897
 31
0.0
  0
LINE
  5
465A
  8
3
 10
156.87715414289451
 20
74.170237067830655
 30
0.0
 11
156.8771541428944
 21
96.482237067830852
 31
0.0
  0
LINE
  5
465B
  8
0
 10
157.68915414289421
 20
74.170237067830655
 30
0.0
 11
157.68915414289421
 21
95.670237067830911
 31
0.0
  0
LINE
  5
465C
  8
0
 10
147.68915414289421
 20
74.170237067830655
 30
0.0
 11
147.68915414289421
 21
95.670237067831025
 31
0.0
  0
LINE
  5
465D
  8
3
 10
148.50115414289411
 20
74.170237067830655
 30
0.0
 11
148.50115414289411
 21
96.482237067830923
 31
0.0
  0
LINE
  5
465E
  8
0
 10
40.689121384182918
 20
74.170237067830826
 30
0.0
 11
40.689121384182947
 21
95.670237067831025
 31
0.0
  0
LINE
  5
465F
  8
3
 10
41.501121384182809
 20
74.170237067830826
 30
0.0
 11
41.501121384182852
 21
96.482237067830923
 31
0.0
  0
LINE
  5
4660
  8
0
 10
50.689121384182918
 20
74.170237067830726
 30
0.0
 11
50.68912138418294
 21
95.670237067830911
 31
0.0
  0
LINE
  5
4661
  8
3
 10
49.877121384182999
 20
74.170237067830726
 30
0.0
 11
49.877121384182999
 21
96.482237067830852
 31
0.0
  0
LINE
  5
4662
  8
0
 10
40.689121384182897
 20
95.670237067831025
 30
0.0
 11
50.689121384182911
 21
95.670237067830911
 31
0.0
  0
LINE
  5
4663
  8
3
 10
49.877121384182999
 20
56.170237067831167
 30
0.0
 11
50.689121384182911
 21
54.763811812085351
 31
0.0
  0
LINE
  5
4664
  8
3
 10
41.501121384182781
 20
56.170237067831167
 30
0.0
 11
40.689121384182897
 21
54.763811812085351
 31
0.0
  0
LINE
  5
4665
  8
0
 10
40.689121384182897
 20
56.170237067831167
 30
0.0
 11
50.689121384182911
 21
56.17023706783106
 31
0.0
  0
LINE
  5
4666
  8
0
 10
49.189121384182961
 20
97.170237067830911
 30
0.0
 11
50.68912138418294
 21
95.670237067830911
 31
0.0
  0
LINE
  5
4667
  8
0
 10
40.689121384182947
 20
95.670237067831025
 30
0.0
 11
42.189121384182947
 21
97.170237067830982
 31
0.0
  0
LINE
  5
4668
  8
0
 10
40.689121384182897
 20
54.170237067830833
 30
0.0
 11
40.689121384182918
 21
66.170237067830897
 31
0.0
  0
LINE
  5
4669
  8
3
 10
41.501121384182809
 20
56.170237067831167
 30
0.0
 11
41.501121384182809
 21
66.170237067830897
 31
0.0
  0
LINE
  5
466A
  8
3
 10
49.877121384182999
 20
56.17023706783106
 30
0.0
 11
49.877121384183063
 21
66.170237067830897
 31
0.0
  0
LINE
  5
466B
  8
0
 10
50.689121384182911
 20
54.170237067830783
 30
0.0
 11
50.689121384182911
 21
66.170237067830897
 31
0.0
  0
LINE
  5
466C
  8
0
 10
42.189121384182947
 20
97.170237067830982
 30
0.0
 11
49.189121384182961
 21
97.170237067830911
 31
0.0
  0
LINE
  5
466D
  8
0
 10
53.939121384183807
 20
66.170237067830897
 30
0.0
 11
37.439121384183132
 21
66.170237067830897
 31
0.0
  0
LINE
  5
466E
  8
0
 10
37.439121384183473
 20
74.170237067830897
 30
0.0
 11
53.93912138418375
 21
74.170237067830655
 31
0.0
  0
ARC
  5
466F
  8
0
 10
53.050337316351197
 20
69.681000828209278
 30
0.0
 40
4.3448986723233833
 50
64.38424746789137
 51
124.3842474680047
  0
LINE
  5
4670
  8
0
 10
55.504075960407022
 20
73.26671012197869
 30
0.0
 11
53.939121384183473
 21
74.170237067830897
 31
0.0
  0
LINE
  5
4671
  8
0
 10
55.504075960407022
 20
67.073764013682876
 30
0.0
 11
53.939121384183473
 21
66.170237067830655
 31
0.0
  0
ARC
  5
4672
  8
0
 10
53.050337316351197
 20
70.659473307452274
 30
0.0
 40
4.3448986723233833
 50
235.61575253199521
 51
295.61575253210867
  0
LINE
  5
4673
  8
0
 10
55.504075960407022
 20
73.266710121978633
 30
0.0
 11
55.504075960407022
 21
67.073764013682933
 31
0.0
  0
LINE
  5
4674
  8
0
 10
50.596598672296302
 20
73.26671012197869
 30
0.0
 11
50.596598672295677
 21
67.073764013682705
 31
0.0
  0
LINE
  5
4675
  8
0
 10
40.781644096070629
 20
73.26671012197869
 30
0.0
 11
40.781644096071268
 21
67.073764013682705
 31
0.0
  0
LINE
  5
4676
  8
0
 10
35.874166807959902
 20
73.266710121978633
 30
0.0
 11
35.874166807959902
 21
67.073764013682933
 31
0.0
  0
ARC
  5
4677
  8
0
 10
45.68912138418294
 20
82.555385256595514
 30
0.0
 40
16.24081062146659
 50
252.4120462260276
 51
287.5879537739724
  0
ARC
  5
4678
  8
0
 10
38.327905452015727
 20
70.659473307452274
 30
0.0
 40
4.3448986723233833
 50
244.3842474678913
 51
304.38424746800467
  0
LINE
  5
4679
  8
0
 10
35.874166807959902
 20
67.073764013682876
 30
0.0
 11
37.439121384183473
 21
66.170237067830655
 31
0.0
  0
LINE
  5
467A
  8
0
 10
35.874166807959902
 20
73.26671012197869
 30
0.0
 11
37.439121384183473
 21
74.170237067830897
 31
0.0
  0
ARC
  5
467B
  8
0
 10
45.68912138418294
 20
57.785088879066038
 30
0.0
 40
16.24081062146659
 50
72.412046226027599
 51
107.5879537739724
  0
ARC
  5
467C
  8
0
 10
38.327905452015727
 20
69.681000828209278
 30
0.0
 40
4.3448986723233833
 50
55.615752531995213
 51
115.6157525321086
  0
LINE
  5
467D
  8
0
 10
51.189121384182769
 20
45.170237067830961
 30
0.0
 11
51.189121384182769
 21
49.17023706783079
 31
0.0
  0
LINE
  5
467E
  8
0
 10
40.189121384182783
 20
45.170237067830961
 30
0.0
 11
40.189121384182783
 21
49.17023706783079
 31
0.0
  0
LINE
  5
467F
  8
0
 10
45.68912138418267
 20
53.389581828401333
 30
0.0
 11
45.68912138418267
 21
49.950892307260233
 31
0.0
  0
LINE
  5
4680
  8
0
 10
38.68912138418267
 20
54.014796610740511
 30
0.0
 11
38.68912138418267
 21
49.325677524920991
 31
0.0
  0
LINE
  5
4681
  8
0
 10
52.68912138418267
 20
54.014796610740511
 30
0.0
 11
52.68912138418267
 21
49.325677524920991
 31
0.0
  0
LINE
  5
4682
  8
0
 10
52.419890614950702
 20
54.170237067830783
 30
0.0
 11
38.958352153414637
 21
54.170237067830783
 31
0.0
  0
ARC
  5
4683
  8
0
 10
42.189121384182783
 20
43.905555849703077
 30
0.0
 40
10.10924076103746
 50
69.743841999583083
 51
110.2561580004169
  0
LINE
  5
4684
  8
0
 10
38.68912138418267
 20
54.014796610740511
 30
0.0
 11
38.958352153414637
 21
54.170237067830783
 31
0.0
  0
LINE
  5
4685
  8
0
 10
52.68912138418267
 20
54.014796610740511
 30
0.0
 11
52.419890614950702
 21
54.170237067830783
 31
0.0
  0
ARC
  5
4686
  8
0
 10
49.189121384182563
 20
43.905555849703077
 30
0.0
 40
10.10924076103746
 50
69.743841999583083
 51
110.2561580004169
  0
LINE
  5
4687
  8
0
 10
52.419890614950702
 20
49.17023706783079
 30
0.0
 11
38.958352153414637
 21
49.17023706783079
 31
0.0
  0
ARC
  5
4688
  8
0
 10
42.189121384182783
 20
59.434918285958418
 30
0.0
 40
10.10924076103746
 50
249.74384199958311
 51
290.25615800041692
  0
LINE
  5
4689
  8
0
 10
38.68912138418267
 20
49.325677524920991
 30
0.0
 11
38.958352153414637
 21
49.17023706783079
 31
0.0
  0
LINE
  5
468A
  8
0
 10
52.68912138418267
 20
49.325677524920991
 30
0.0
 11
52.419890614950702
 21
49.17023706783079
 31
0.0
  0
ARC
  5
468B
  8
0
 10
49.189121384182563
 20
59.434918285958418
 30
0.0
 40
10.10924076103746
 50
249.74384199958311
 51
290.25615800041692
  0
LINE
  5
469B
  8
0
 10
56.150326526025317
 20
44.4631302866444
 30
0.0
 11
57.164531220248591
 21
43.44892559242107
 31
0.0
  0
LINE
  5
46A3
  8
0
 10
80.68912138418294
 20
31.973515756355479
 30
0.0
 11
80.68912138418294
 21
32.37702608907103
 31
0.0
  0
LINE
  5
46AA
  8
0
 10
80.68912138418294
 20
26.67023706783095
 30
0.0
 11
80.68912138418294
 21
31.973515756355479
 31
0.0
  0
LINE
  5
46AB
  8
0
 10
76.098957449756867
 20
26.17023706783095
 30
0.0
 11
76.098957449756867
 21
23.170237067830939
 31
0.0
  0
LINE
  5
46AC
  8
0
 10
80.189121384182926
 20
26.17023706783095
 30
0.0
 11
80.68912138418294
 21
26.67023706783095
 31
0.0
  0
LINE
  5
46AD
  8
0
 10
74.951416466150221
 20
34.842368215371891
 30
0.0
 11
79.976469269749373
 21
33.334852374292147
 31
0.0
  0
LINE
  5
46AE
  8
0
 10
74.938373536427207
 20
34.842368215371891
 30
0.0
 11
74.938373536427207
 21
35.246365449596169
 31
0.0
  0
LINE
  5
46AF
  8
0
 10
69.213711548117431
 20
37.711220674388301
 30
0.0
 11
74.226321882143225
 21
36.20401139158065
 31
0.0
  0
LINE
  5
46B0
  8
0
 10
62.902236138281282
 20
40.580073133404653
 30
0.0
 11
62.902236138281282
 21
40.983583466120137
 31
0.0
  0
LINE
  5
46B1
  8
0
 10
69.213711548117431
 20
37.711220674388187
 30
0.0
 11
69.213711548117544
 21
38.094965816995568
 31
0.0
  0
LINE
  5
46B2
  8
0
 10
62.902236138281282
 20
40.580073133404653
 30
0.0
 11
68.476828953909603
 21
39.059729638233307
 31
0.0
  0
LINE
  5
46B3
  8
0
 10
57.164531220248591
 20
43.44892559242107
 30
0.0
 11
62.189584023847701
 21
41.941409751341311
 31
0.0
  0
ARC
  5
46B4
  8
0
 10
79.68912138418294
 20
32.37702608907103
 30
0.0
 40
1.0
 50
0.0
 51
73.300755766006262
  0
ARC
  5
46B5
  8
0
 10
73.938373536427207
 20
35.246365449596169
 30
0.0
 40
1.0
 50
0.0
 51
73.264833729935603
  0
ARC
  5
46B6
  8
0
 10
68.213711548117544
 20
38.094965816995568
 30
0.0
 40
1.0
 50
0.0
 51
74.744881296941827
  0
ARC
  5
46B7
  8
0
 10
61.902236138281303
 20
40.983583466120137
 30
0.0
 40
1.0
 50
0.0
 51
73.300755766005878
  0
LINE
  5
46B8
  8
0
 10
56.150326526025317
 20
44.4631302866444
 30
0.0
 11
54.443219744838871
 21
45.170237067830961
 31
0.0
  0
LINE
  5
46BA
  8
0
 10
15.27928531860903
 20
23.170237067830939
 30
0.0
 11
76.098957449756867
 21
23.170237067830939
 31
0.0
  0
LINE
  5
46BB
  8
0
 10
35.227916242340612
 20
44.4631302866444
 30
0.0
 11
36.935023023527037
 21
45.170237067830961
 31
0.0
  0
ARC
  5
46BC
  8
0
 10
29.476006630084608
 20
40.983583466120137
 30
0.0
 40
1.0
 50
106.69924423399389
 51
180.0
  0
ARC
  5
46BD
  8
0
 10
23.16453122024836
 20
38.094965816995568
 30
0.0
 40
1.0
 50
105.2551187030578
 51
180.0
  0
ARC
  5
46BE
  8
0
 10
17.439869231938701
 20
35.246365449596169
 30
0.0
 40
1.0
 50
106.7351662700646
 51
180.0
  0
ARC
  5
46BF
  8
0
 10
11.68912138418295
 20
32.37702608907103
 30
0.0
 40
1.0
 50
106.6992442339936
 51
180.0
  0
LINE
  5
46C0
  8
0
 10
34.213711548117317
 20
43.44892559242107
 30
0.0
 11
29.1886587445182
 21
41.941409751341311
 31
0.0
  0
LINE
  5
46C1
  8
0
 10
28.476006630084608
 20
40.580073133404653
 30
0.0
 11
22.901413814456301
 21
39.059729638233307
 31
0.0
  0
LINE
  5
46C2
  8
0
 10
22.164531220248481
 20
37.711220674388187
 30
0.0
 11
22.16453122024836
 21
38.094965816995568
 31
0.0
  0
LINE
  5
46C3
  8
0
 10
28.476006630084608
 20
40.580073133404653
 30
0.0
 11
28.476006630084608
 21
40.983583466120137
 31
0.0
  0
LINE
  5
46C4
  8
0
 10
22.164531220248481
 20
37.711220674388301
 30
0.0
 11
17.15192088622268
 21
36.20401139158065
 31
0.0
  0
LINE
  5
46C5
  8
0
 10
16.43986923193869
 20
34.842368215371891
 30
0.0
 11
16.43986923193869
 21
35.246365449596169
 31
0.0
  0
LINE
  5
46C6
  8
0
 10
16.426826302215659
 20
34.842368215371891
 30
0.0
 11
11.401773498616519
 21
33.334852374292147
 31
0.0
  0
LINE
  5
46C7
  8
0
 10
11.18912138418295
 20
26.17023706783095
 30
0.0
 11
10.68912138418295
 21
26.67023706783095
 31
0.0
  0
LINE
  5
46C8
  8
0
 10
15.27928531860903
 20
26.17023706783095
 30
0.0
 11
15.27928531860903
 21
23.170237067830939
 31
0.0
  0
LINE
  5
46C9
  8
0
 10
10.68912138418295
 20
26.67023706783095
 30
0.0
 11
10.68912138418295
 21
31.973515756355479
 31
0.0
  0
LINE
  5
46D0
  8
0
 10
10.68912138418295
 20
31.973515756355479
 30
0.0
 11
10.68912138418295
 21
32.37702608907103
 31
0.0
  0
LINE
  5
46D1
  8
0
 10
36.935023023527037
 20
45.170237067830961
 30
0.0
 11
54.443219744838871
 21
45.170237067830961
 31
0.0
  0
LINE
  5
46D2
  8
0
 10
34.213711548117317
 20
43.44892559242107
 30
0.0
 11
57.164531220248577
 21
43.448925592421062
 31
0.0
  0
LINE
  5
46D3
  8
0
 10
28.476006630084608
 20
40.580073133404653
 30
0.0
 11
62.902236138281289
 21
40.580073133404653
 31
0.0
  0
LINE
  5
46D4
  8
0
 10
22.164531220248481
 20
37.711220674388301
 30
0.0
 11
69.213711548117416
 21
37.711220674388301
 31
0.0
  0
LINE
  5
46D5
  8
0
 10
16.426826302215659
 20
34.842368215371891
 30
0.0
 11
74.951416466150221
 21
34.842368215371891
 31
0.0
  0
LINE
  5
46D6
  8
0
 10
11.18912138418295
 20
26.17023706783095
 30
0.0
 11
80.189121384182926
 21
26.17023706783095
 31
0.0
  0
LINE
  5
46D7
  8
0
 10
10.68912138418295
 20
31.973515756355479
 30
0.0
 11
80.68912138418294
 21
31.973515756355479
 31
0.0
  0
LINE
  5
46D8
  8
0
 10
35.227916242340612
 20
44.4631302866444
 30
0.0
 11
34.213711548117317
 21
43.44892559242107
 31
0.0
  0
CIRCLE
  5
46D9
  8
0
 10
45.68912138418294
 20
163.44230678873009
 30
0.0
 40
35.00000000000005
  0
CIRCLE
  5
46DA
  8
0
 10
45.68912138418294
 20
163.44230678873001
 30
0.0
 40
29.249252152244249
  0
CIRCLE
  5
46DB
  8
0
 10
45.68912138418294
 20
163.44230678873001
 30
0.0
 40
23.52459016393453
  0
CIRCLE
  5
46DC
  8
0
 10
45.68912138418294
 20
163.44230678873009
 30
0.0
 40
17.213114754098338
  0
CIRCLE
  5
46DD
  8
0
 10
45.68912138418294
 20
163.44230678873009
 30
0.0
 40
11.47540983606563
  0
LINE
  5
46DF
  8
1
 10
45.68912138418294
 20
203.44230678873009
 30
0.0
 11
45.68912138418294
 21
123.44230678872979
 31
0.0
  0
LINE
  5
46E0
  8
1
 10
85.68912138418294
 20
163.44230678873009
 30
0.0
 11
5.6891213841829531
 21
163.44230678873009
 31
0.0
  0
LINE
  5
46E1
  8
1
 10
45.68912138418294
 20
18.17023706783095
 30
0.0
 11
45.68912138418294
 21
102.1702370678309
 31
0.0
  0
LINE
  5
46E2
  8
1
 10
152.6891541428943
 20
18.17023706783095
 30
0.0
 11
152.6891541428943
 21
102.1702370678309
 31
0.0
  0
LINE
  5
46E3
  8
0
 10
142.2279490010518
 20
44.4631302866444
 30
0.0
 11
141.2137443068286
 21
43.44892559242107
 31
0.0
  0
LINE
  5
46E4
  8
0
 10
117.6891541428942
 20
31.973515756355479
 30
0.0
 11
187.6891541428943
 21
31.973515756355479
 31
0.0
  0
LINE
  5
46E5
  8
0
 10
118.1891541428942
 20
26.17023706783095
 30
0.0
 11
187.18915414289421
 21
26.17023706783095
 31
0.0
  0
LINE
  5
46E6
  8
0
 10
123.4268590609269
 20
34.842368215371891
 30
0.0
 11
181.95144922486131
 21
34.842368215371891
 31
0.0
  0
LINE
  5
46E7
  8
0
 10
129.16456397895971
 20
37.711220674388301
 30
0.0
 11
176.21374430682869
 21
37.711220674388301
 31
0.0
  0
LINE
  5
46E8
  8
0
 10
135.4760393887957
 20
40.580073133404653
 30
0.0
 11
169.9022688969925
 21
40.580073133404653
 31
0.0
  0
LINE
  5
46E9
  8
0
 10
141.2137443068286
 20
43.44892559242107
 30
0.0
 11
164.16456397895979
 21
43.44892559242107
 31
0.0
  0
LINE
  5
46EA
  8
0
 10
143.93505578223821
 20
45.170237067830961
 30
0.0
 11
161.44325250355001
 21
45.170237067830961
 31
0.0
  0
LINE
  5
46EB
  8
0
 10
117.6891541428942
 20
31.973515756355479
 30
0.0
 11
117.6891541428942
 21
32.37702608907103
 31
0.0
  0
LINE
  5
46F2
  8
0
 10
117.6891541428942
 20
26.67023706783095
 30
0.0
 11
117.6891541428942
 21
31.973515756355479
 31
0.0
  0
LINE
  5
46F3
  8
0
 10
122.2793180773203
 20
26.17023706783095
 30
0.0
 11
122.2793180773203
 21
23.170237067830939
 31
0.0
  0
LINE
  5
46F4
  8
0
 10
118.1891541428942
 20
26.17023706783095
 30
0.0
 11
117.6891541428942
 21
26.67023706783095
 31
0.0
  0
LINE
  5
46F5
  8
0
 10
123.4268590609269
 20
34.842368215371891
 30
0.0
 11
118.40180625732781
 21
33.334852374292147
 31
0.0
  0
LINE
  5
46F6
  8
0
 10
123.4399019906499
 20
34.842368215371891
 30
0.0
 11
123.4399019906499
 21
35.246365449596169
 31
0.0
  0
LINE
  5
46F7
  8
0
 10
129.16456397895971
 20
37.711220674388301
 30
0.0
 11
124.1519536449339
 21
36.20401139158065
 31
0.0
  0
LINE
  5
46F8
  8
0
 10
135.4760393887957
 20
40.580073133404653
 30
0.0
 11
135.4760393887957
 21
40.983583466120137
 31
0.0
  0
LINE
  5
46F9
  8
0
 10
129.16456397895971
 20
37.711220674388187
 30
0.0
 11
129.16456397895971
 21
38.094965816995568
 31
0.0
  0
LINE
  5
46FA
  8
0
 10
135.4760393887957
 20
40.580073133404653
 30
0.0
 11
129.9014465731675
 21
39.059729638233307
 31
0.0
  0
LINE
  5
46FB
  8
0
 10
141.2137443068286
 20
43.44892559242107
 30
0.0
 11
136.18869150322939
 21
41.941409751341311
 31
0.0
  0
ARC
  5
46FC
  8
0
 10
118.6891541428942
 20
32.37702608907103
 30
0.0
 40
1.0
 50
106.6992442339937
 51
180.0
  0
ARC
  5
46FD
  8
0
 10
124.4399019906499
 20
35.246365449596169
 30
0.0
 40
1.0
 50
106.7351662700644
 51
180.0
  0
ARC
  5
46FE
  8
0
 10
130.16456397895971
 20
38.094965816995568
 30
0.0
 40
1.0
 50
105.2551187030581
 51
180.0
  0
ARC
  5
46FF
  8
0
 10
136.47603938879581
 20
40.983583466120137
 30
0.0
 40
1.0
 50
106.69924423399451
 51
180.0
  0
LINE
  5
4700
  8
0
 10
142.2279490010518
 20
44.4631302866444
 30
0.0
 11
143.93505578223821
 21
45.170237067830961
 31
0.0
  0
LINE
  5
4701
  8
0
 10
122.2793180773203
 20
23.170237067830939
 30
0.0
 11
183.09899020846811
 21
23.170237067830939
 31
0.0
  0
LINE
  5
4703
  8
0
 10
163.1503592847366
 20
44.4631302866444
 30
0.0
 11
161.44325250355001
 21
45.170237067830961
 31
0.0
  0
ARC
  5
4704
  8
0
 10
168.90226889699261
 20
40.983583466120137
 30
0.0
 40
1.0
 50
0.0
 51
73.30075576600548
  0
ARC
  5
4705
  8
0
 10
175.21374430682869
 20
38.094965816995568
 30
0.0
 40
1.0
 50
0.0
 51
74.744881296941827
  0
ARC
  5
4706
  8
0
 10
180.93840629513841
 20
35.246365449596169
 30
0.0
 40
1.0
 50
0.0
 51
73.264833729934836
  0
ARC
  5
4707
  8
0
 10
186.6891541428941
 20
32.37702608907103
 30
0.0
 40
1.0
 50
0.0
 51
73.30075576600548
  0
LINE
  5
4708
  8
0
 10
164.16456397895979
 20
43.44892559242107
 30
0.0
 11
169.18961678255889
 21
41.941409751341311
 31
0.0
  0
LINE
  5
4709
  8
0
 10
169.9022688969925
 20
40.580073133404653
 30
0.0
 11
175.4768617126208
 21
39.059729638233307
 31
0.0
  0
LINE
  5
470A
  8
0
 10
176.21374430682869
 20
37.711220674388187
 30
0.0
 11
176.21374430682869
 21
38.094965816995568
 31
0.0
  0
LINE
  5
470B
  8
0
 10
169.9022688969925
 20
40.580073133404653
 30
0.0
 11
169.9022688969925
 21
40.983583466120137
 31
0.0
  0
LINE
  5
470C
  8
0
 10
176.21374430682869
 20
37.711220674388301
 30
0.0
 11
181.2263546408544
 21
36.20401139158065
 31
0.0
  0
LINE
  5
470D
  8
0
 10
181.93840629513841
 20
34.842368215371891
 30
0.0
 11
181.93840629513841
 21
35.246365449596169
 31
0.0
  0
LINE
  5
470E
  8
0
 10
181.95144922486131
 20
34.842368215371891
 30
0.0
 11
186.97650202846049
 21
33.334852374292147
 31
0.0
  0
LINE
  5
470F
  8
0
 10
187.1891541428943
 20
26.17023706783095
 30
0.0
 11
187.68915414289421
 21
26.67023706783095
 31
0.0
  0
LINE
  5
4710
  8
0
 10
183.09899020846811
 20
26.17023706783095
 30
0.0
 11
183.09899020846811
 21
23.170237067830939
 31
0.0
  0
LINE
  5
4711
  8
0
 10
187.68915414289421
 20
26.67023706783095
 30
0.0
 11
187.68915414289421
 21
31.973515756355479
 31
0.0
  0
LINE
  5
4718
  8
0
 10
187.68915414289421
 20
31.973515756355479
 30
0.0
 11
187.68915414289421
 21
32.37702608907103
 31
0.0
  0
LINE
  5
4720
  8
0
 10
163.1503592847366
 20
44.4631302866444
 30
0.0
 11
164.16456397895979
 21
43.44892559242107
 31
0.0
  0
ARC
  5
4817
  8
0
 10
45.68912138418294
 20
163.44230678873001
 30
0.0
 40
8.7540983606559166
 50
76.161501214447057
 51
103.8384987855529
  0
ARC
  5
4818
  8
0
 10
45.68912138418294
 20
163.44230678873001
 30
0.0
 40
8.7540983606559166
 50
136.16150121444451
 51
163.83849878555569
  0
ARC
  5
481B
  8
0
 10
45.68912138418294
 20
163.44230678873001
 30
0.0
 40
8.7540983606559166
 50
196.16150121444349
 51
223.8384987855552
  0
ARC
  5
481C
  8
0
 10
45.68912138418294
 20
163.44230678873001
 30
0.0
 40
8.7540983606559166
 50
256.16150121444372
 51
283.83849878555623
  0
ARC
  5
481D
  8
0
 10
45.68912138418294
 20
163.44230678873001
 30
0.0
 40
8.7540983606559166
 50
316.1615012144452
 51
343.83849878555492
  0
ARC
  5
481E
  8
0
 10
45.68912138418294
 20
163.44230678873001
 30
0.0
 40
8.7540983606559166
 50
16.161501214447188
 51
43.838498785552687
  0
TEXT
  5
4A79
  8
0
 62
     3
 10
0.0
 20
0.0
 30
0.0
 40
10.0
  1
LVER70S10A
  7
STANDARD1
  0
ENDSEC
  0
EOF
