  0
SECTION
  2
HEADER
  9
$ACADVER
  1
AC1009
  9
$INSBASE
 10
0.0
 20
0.0
 30
0.0
  9
$EXTMIN
 10
0.0
 20
-2.960436562073669
 30
0.0
  9
$EXTMAX
 10
400.98565686652353
 20
494.03390513227379
 30
0.0
  9
$LIMMIN
 10
0.0
 20
0.0
  9
$LIMMAX
 10
375.0
 20
270.0
  9
$ORTHOMODE
 70
     1
  9
$REGENMODE
 70
     1
  9
$FILLMODE
 70
     1
  9
$QTEXTMODE
 70
     0
  9
$MIRRTEXT
 70
     0
  9
$DRAGMODE
 70
     2
  9
$LTSCALE
 40
6.0
  9
$OSMODE
 70
  3071
  9
$ATTMODE
 70
     1
  9
$TEXTSIZE
 40
0.2
  9
$TRACEWID
 40
0.05
  9
$TEXTSTYLE
  7
STANDARD
  9
$CLAYER
  8
0
  9
$CELTYPE
  6
BYLAYER
  9
$CECOLOR
 62
   256
  9
$DIMSCALE
 40
1.0
  9
$DIMASZ
 40
3.0
  9
$DIMEXO
 40
1.0
  9
$DIMDLI
 40
6.0
  9
$DIMRND
 40
0.0
  9
$DIMDLE
 40
0.0
  9
$DIMEXE
 40
1.0
  9
$DIMTP
 40
495.0
  9
$DIMTM
 40
0.0
  9
$DIMTXT
 40
3.0
  9
$DIMCEN
 40
0.0
  9
$DIMTSZ
 40
0.0
  9
$DIMTOL
 70
     0
  9
$DIMLIM
 70
     0
  9
$DIMTIH
 70
     0
  9
$DIMTOH
 70
     0
  9
$DIMSE1
 70
     0
  9
$DIMSE2
 70
     0
  9
$DIMTAD
 70
     1
  9
$DIMZIN
 70
     0
  9
$DIMBLK
  1

  9
$DIMASO
 70
     0
  9
$DIMSHO
 70
     0
  9
$DIMPOST
  1

  9
$DIMAPOST
  1

  9
$DIMALT
 70
     0
  9
$DIMALTD
 70
     2
  9
$DIMALTF
 40
25.399999999999999
  9
$DIMLFAC
 40
1.0
  9
$DIMTOFL
 70
     1
  9
$DIMTVP
 40
0.0
  9
$DIMTIX
 70
     1
  9
$DIMSOXD
 70
     0
  9
$DIMSAH
 70
     0
  9
$DIMBLK1
  1

  9
$DIMBLK2
  1

  9
$DIMSTYLE
  2
STANDARD
  9
$DIMCLRD
 70
     0
  9
$DIMCLRE
 70
     0
  9
$DIMCLRT
 70
     4
  9
$DIMTFAC
 40
1.0
  9
$DIMGAP
 40
1.0
  9
$LUNITS
 70
     2
  9
$LUPREC
 70
     4
  9
$SKETCHINC
 40
0.1
  9
$FILLETRAD
 40
2.0
  9
$AUNITS
 70
     0
  9
$AUPREC
 70
     0
  9
$MENU
  1
C:\R13\WIN\SUPPORT\ACAD-I
  9
$ELEVATION
 40
0.0
  9
$PELEVATION
 40
0.0
  9
$THICKNESS
 40
0.0
  9
$LIMCHECK
 70
     0
  9
$BLIPMODE
 70
     0
  9
$CHAMFERA
 40
0.0
  9
$CHAMFERB
 40
0.0
  9
$SKPOLY
 70
     0
  9
$TDCREATE
 40
2451963.464476713
  9
$TDUPDATE
 40
2456597.6161861462
  9
$TDINDWG
 40
0.0402885764
  9
$TDUSRTIMER
 40
2456555.2952963542
  9
$USRTIMER
 70
     1
  9
$ANGBASE
 50
0.0
  9
$ANGDIR
 70
     0
  9
$PDMODE
 70
     0
  9
$PDSIZE
 40
0.0
  9
$PLINEWID
 40
0.0
  9
$COORDS
 70
     1
  9
$SPLFRAME
 70
     0
  9
$SPLINETYPE
 70
     6
  9
$SPLINESEGS
 70
     8
  9
$ATTDIA
 70
     0
  9
$ATTREQ
 70
     1
  9
$HANDLING
 70
     1
  9
$HANDSEED
  5
AF5A
  9
$SURFTAB1
 70
     6
  9
$SURFTAB2
 70
     6
  9
$SURFTYPE
 70
     6
  9
$SURFU
 70
     6
  9
$SURFV
 70
     6
  9
$UCSNAME
  2

  9
$UCSORG
 10
0.0
 20
0.0
 30
0.0
  9
$UCSXDIR
 10
1.0
 20
0.0
 30
0.0
  9
$UCSYDIR
 10
0.0
 20
1.0
 30
0.0
  9
$PUCSNAME
  2

  9
$PUCSORG
 10
0.0
 20
0.0
 30
0.0
  9
$PUCSXDIR
 10
1.0
 20
0.0
 30
0.0
  9
$PUCSYDIR
 10
0.0
 20
1.0
 30
0.0
  9
$USERI1
 70
     4
  9
$USERI2
 70
     1
  9
$USERI3
 70
     0
  9
$USERI4
 70
     0
  9
$USERI5
 70
     0
  9
$USERR1
 40
1.0
  9
$USERR2
 40
3.0
  9
$USERR3
 40
3.0
  9
$USERR4
 40
3.0
  9
$USERR5
 40
10.0
  9
$WORLDVIEW
 70
     1
  9
$SHADEDGE
 70
     3
  9
$SHADEDIF
 70
    70
  9
$TILEMODE
 70
     1
  9
$MAXACTVP
 70
    16
  9
$PLIMCHECK
 70
     0
  9
$PEXTMIN
 10
1.0000000000000000E+020
 20
1.0000000000000000E+020
 30
1.0000000000000000E+020
  9
$PEXTMAX
 10
-1.0000000000000000E+020
 20
-1.0000000000000000E+020
 30
-1.0000000000000000E+020
  9
$PLIMMIN
 10
0.0
 20
0.0
  9
$PLIMMAX
 10
12.0
 20
9.0
  9
$UNITMODE
 70
     0
  9
$VISRETAIN
 70
     0
  9
$PLINEGEN
 70
     0
  9
$PSLTSCALE
 70
     0
  0
ENDSEC
  0
SECTION
  2
TABLES
  0
TABLE
  2
VPORT
 70
     1
  0
VPORT
  2
*ACTIVE
 70
     0
 10
0.0
 20
0.0
 11
1.0
 21
1.0
 12
200.49282936687939
 22
246.60412640078121
 13
0.0
 23
0.0
 14
10.0
 24
10.0
 15
10.0
 25
10.0
 16
0.0
 26
0.0
 36
1.0
 17
0.0
 27
0.0
 37
0.0
 40
504.90683078008419
 41
2.304913294797688
 42
50.0
 43
0.0
 44
0.0
 50
0.0
 51
0.0
 71
    16
 72
   100
 73
     1
 74
     0
 75
     0
 76
     0
 77
     0
 78
     0
  0
ENDTAB
  0
TABLE
  2
LTYPE
 70
     3
  0
LTYPE
  2
CONTINUOUS
 70
     0
  3
Solid Line
 72
    65
 73
     0
 40
0.0
  0
LTYPE
  2
PHANTOM2
 70
     0
  3
___ _ _ ___ _ _ ___ _ _ ___ _ _
 72
    65
 73
     6
 40
1.25
 49
0.625
 49
-0.125
 49
0.125
 49
-0.125
 49
0.125
 49
-0.125
  0
LTYPE
  2
CENTER
 70
     0
  3
____ _ ____ _ ____ _ ____ _ ____ _ ____ _ ____
 72
    65
 73
     4
 40
2.0
 49
1.25
 49
-0.25
 49
0.25
 49
-0.25
  0
ENDTAB
  0
TABLE
  2
LAYER
 70
     4
  0
LAYER
  2
0
 70
     0
 62
     7
  6
CONTINUOUS
  0
LAYER
  2
1
 70
     0
 62
     1
  6
CENTER
  0
LAYER
  2
3
 70
     0
 62
     3
  6
CONTINUOUS
  0
LAYER
  2
DEFPOINTS
 70
     0
 62
     7
  6
CONTINUOUS
  0
ENDTAB
  0
TABLE
  2
STYLE
 70
     3
  0
STYLE
  2
STANDARD
 70
     0
 40
0.0
 41
1.0
 50
0.0
 71
     0
 42
0.2
  3
SIMPLEX
  4
BIGFONT
  0
STYLE
  2
ANNOTATIVE
 70
     0
 40
0.0
 41
1.0
 50
0.0
 71
     0
 42
0.2
  3
txt
  4

  0
STYLE
  2
STANDARD1
 70
     0
 40
0.0
 41
1.0
 50
0.0
 71
     0
 42
3.0
  3
txt
  4

  0
ENDTAB
  0
TABLE
  2
VIEW
 70
     0
  0
ENDTAB
  0
TABLE
  2
UCS
 70
     0
  0
ENDTAB
  0
TABLE
  2
APPID
 70
    29
  0
APPID
  2
ACAD
 70
     0
  0
APPID
  2
ACADANNOTATIVE
 70
     0
  0
APPID
  2
GENIUS_GENOREF_13
 70
     0
  0
APPID
  2
GENIUS_GENOENT_13
 70
     0
  0
APPID
  2
GENIUS_GENBH_13
 70
     0
  0
APPID
  2
GENIUS_GENOBJ_13
 70
     0
  0
APPID
  2
GENIUS_GENODEF_13
 70
     0
  0
APPID
  2
GENIUS_GENOLIS_13
 70
     0
  0
APPID
  2
GENIUS_GENOBJ-NBEHI-BHF_13
 70
     0
  0
APPID
  2
GENIUS_GENOBJ-NBEHI-BHB_13
 70
     0
  0
APPID
  2
GENIUS_GENOBJ-F-PART_13
 70
     0
  0
APPID
  2
GENIUS_GEFSTDP_13
 70
     0
  0
APPID
  2
GENIUS_GENOBJ-N-RSSYM_13
 70
     0
  0
APPID
  2
GENIUS_GENSYMENT_13
 70
     0
  0
APPID
  2
GENIUS_GENOBJ-N-TIT_13
 70
     0
  0
APPID
  2
GENIUS_GENTITLE_13
 70
     0
  0
APPID
  2
GENIUS_GENZVEED_13
 70
     0
  0
APPID
  2
GENIUS_GENOBJ-N-LEADER_13
 70
     0
  0
APPID
  2
GENIUS_GENOBJ-N-FIL_13
 70
     0
  0
APPID
  2
GENIUS_GENOBJ-N-SEC_13
 70
     0
  0
APPID
  2
GENIUS_GENOBJ-N-CRS_13
 70
     0
  0
APPID
  2
GENIUS_GENOBJ-N-ZOO_13
 70
     0
  0
APPID
  2
GENIUS_GENZOO_13
 70
     0
  0
APPID
  2
GENIUS_GENOBJ-F-TOL_13
 70
     0
  0
APPID
  2
GENIUS_GENFIL_13
 70
     0
  0
APPID
  2
GENIUS_GENOBJ-N-CHA_13
 70
     0
  0
APPID
  2
ACAD_EXEMPT_FROM_CAD_STANDARDS
 70
     0
  0
APPID
  2
ACAD_MLEADERVER
 70
     0
  0
APPID
  2
ACAD_NAV_VCDISPLAY
 70
     0
  0
ENDTAB
  0
TABLE
  2
DIMSTYLE
 70
     2
  0
DIMSTYLE
  2
STANDARD
 70
     0
  3

  4

  5

  6

  7

 40
1.0
 41
0.18
 42
0.0625
 43
0.38
 44
0.18
 45
0.0
 46
0.0
 47
0.0
 48
0.0
140
0.18
141
0.09
142
0.0
143
25.399999999999999
144
1.0
145
0.0
146
1.0
147
0.09
 71
     0
 72
     0
 73
     1
 74
     1
 75
     0
 76
     0
 77
     0
 78
     0
170
     0
171
     2
172
     0
173
     0
174
     0
175
     0
176
     0
177
     0
178
     0
  0
DIMSTYLE
  2
ANNOTATIVE
 70
     0
  3

  4

  5

  6

  7

 40
1.0
 41
0.18
 42
0.0625
 43
0.38
 44
0.18
 45
0.0
 46
0.0
 47
0.0
 48
0.0
140
0.18
141
0.09
142
0.0
143
25.399999999999999
144
1.0
145
0.0
146
1.0
147
0.09
 71
     0
 72
     0
 73
     1
 74
     1
 75
     0
 76
     0
 77
     0
 78
     0
170
     0
171
     2
172
     0
173
     0
174
     0
175
     0
176
     0
177
     0
178
     0
  0
ENDTAB
  0
ENDSEC
  0
SECTION
  2
BLOCKS
  0
BLOCK
  8
0
  2
$MODEL_SPACE
 70
     0
 10
0.0
 20
0.0
 30
0.0
  3
$MODEL_SPACE
  1

  0
ENDBLK
  5
AE7C
  8
0
  0
BLOCK
 67
     1
  8
0
  2
$PAPER_SPACE
 70
     0
 10
0.0
 20
0.0
 30
0.0
  3
$PAPER_SPACE
  1

  0
ENDBLK
  5
AE78
 67
     1
  8
0
  0
ENDSEC
  0
SECTION
  2
ENTITIES
  0
LINE
  5
AA29
  8
0
 10
231.015690049765
 20
55.999385479650741
 30
0.0
 11
106.015690049765
 21
55.999385479650812
 31
0.0
  0
LINE
  5
AA2A
  8
0
 10
231.015690049765
 20
55.999385479650741
 30
0.0
 11
231.015690049765
 21
72.118591568695877
 31
0.0
  0
LINE
  5
AA2B
  8
0
 10
223.515690049765
 20
55.999385479650741
 30
0.0
 11
223.515690049765
 21
52.999385479650762
 31
0.0
  0
LINE
  5
AA2D
  8
0
 10
189.515690049765
 20
101.9993854796507
 30
0.0
 11
147.515690049765
 21
101.9993854796508
 31
0.0
  0
LINE
  5
AA2E
  8
DEFPOINTS
 10
189.515690049765
 20
101.9993854796507
 30
0.0
 11
203.515690049765
 21
79.999385479650741
 31
0.0
  0
LINE
  5
AA2F
  8
DEFPOINTS
 10
203.515690049765
 20
79.999385479650741
 30
0.0
 11
209.26236933039991
 21
78.536594390034566
 31
0.0
  0
LINE
  5
AA30
  8
DEFPOINTS
 10
224.015690049765
 20
73.890294570559817
 30
0.0
 11
224.015690049765
 21
73.900409750514143
 31
0.0
  0
LINE
  5
AA31
  8
DEFPOINTS
 10
217.015690049765
 20
75.672112752378041
 30
0.0
 11
217.015690049765
 21
75.682227932332225
 31
0.0
  0
LINE
  5
AA32
  8
DEFPOINTS
 10
210.015690049765
 20
77.45393093419618
 30
0.0
 11
210.015690049765
 21
77.567497216111619
 31
0.0
  0
LINE
  5
AA33
  8
DEFPOINTS
 10
230.14194432943901
 20
73.110589480419478
 30
0.0
 11
224.015690049765
 21
73.890294570559817
 31
0.0
  0
LINE
  5
AA34
  8
DEFPOINTS
 10
223.1419443294389
 20
74.892407662237702
 30
0.0
 11
217.015690049765
 21
75.672112752378041
 31
0.0
  0
LINE
  5
AA35
  8
DEFPOINTS
 10
216.14194432943901
 20
76.674225844055911
 30
0.0
 11
210.015690049765
 21
77.45393093419618
 31
0.0
  0
ARC
  5
AA36
  8
DEFPOINTS
 10
209.015690049765
 20
77.567497216111619
 30
0.0
 40
1.0
 50
0.0
 51
75.718904264028865
  0
ARC
  5
AA37
  8
DEFPOINTS
 10
216.015690049765
 20
75.682227932332225
 30
0.0
 40
1.0
 50
0.0
 51
82.746805387274634
  0
ARC
  5
AA38
  8
DEFPOINTS
 10
223.015690049765
 20
73.900409750514072
 30
0.0
 40
1.0
 50
0.0000000000016284
 51
82.746805387274634
  0
ARC
  5
AA39
  8
DEFPOINTS
 10
230.015690049765
 20
72.118591568695877
 30
0.0
 40
1.0
 50
359.9999999999996
 51
82.746805387274634
  0
LINE
  5
AA3A
  8
DEFPOINTS
 10
224.015690049765
 20
73.890294570559817
 30
0.0
 11
113.01569004976589
 21
73.890294570559945
 31
0.0
  0
LINE
  5
AA3B
  8
DEFPOINTS
 10
217.015690049765
 20
75.672112752378041
 30
0.0
 11
120.01569004976589
 21
75.672112752378084
 31
0.0
  0
LINE
  5
AA3C
  8
DEFPOINTS
 10
210.015690049765
 20
77.45393093419618
 30
0.0
 11
127.01569004976579
 21
77.453930934196308
 31
0.0
  0
LINE
  5
AA3D
  8
DEFPOINTS
 10
203.515690049765
 20
79.999385479650741
 30
0.0
 11
133.5156900497654
 21
79.999385479650812
 31
0.0
  0
ARC
  5
AA3E
  8
DEFPOINTS
 10
107.015690049765
 20
72.118591568695877
 30
0.0
 40
1.0
 50
97.253194612725352
 51
180.0000000000004
  0
ARC
  5
AA3F
  8
DEFPOINTS
 10
114.015690049765
 20
73.900409750514072
 30
0.0
 40
1.0
 50
97.253194612725352
 51
179.9999999999979
  0
ARC
  5
AA40
  8
DEFPOINTS
 10
121.015690049765
 20
75.682227932332225
 30
0.0
 40
1.0
 50
97.253194612725352
 51
180.0
  0
ARC
  5
AA41
  8
DEFPOINTS
 10
128.015690049765
 20
77.567497216111619
 30
0.0
 40
1.0
 50
104.28109573597111
 51
180.0
  0
LINE
  5
AA42
  8
DEFPOINTS
 10
120.889435770091
 20
76.674225844055911
 30
0.0
 11
127.015690049765
 21
77.45393093419618
 31
0.0
  0
LINE
  5
AA43
  8
DEFPOINTS
 10
113.889435770091
 20
74.892407662237702
 30
0.0
 11
120.015690049765
 21
75.672112752378041
 31
0.0
  0
LINE
  5
AA44
  8
DEFPOINTS
 10
106.889435770091
 20
73.110589480419478
 30
0.0
 11
113.015690049765
 21
73.890294570559817
 31
0.0
  0
LINE
  5
AA45
  8
DEFPOINTS
 10
127.015690049765
 20
77.45393093419618
 30
0.0
 11
127.015690049765
 21
77.567497216111619
 31
0.0
  0
LINE
  5
AA46
  8
DEFPOINTS
 10
120.015690049765
 20
75.672112752378041
 30
0.0
 11
120.015690049765
 21
75.682227932332225
 31
0.0
  0
LINE
  5
AA47
  8
DEFPOINTS
 10
113.015690049765
 20
73.890294570559817
 30
0.0
 11
113.015690049765
 21
73.900409750514143
 31
0.0
  0
LINE
  5
AA48
  8
DEFPOINTS
 10
133.515690049765
 20
79.999385479650741
 30
0.0
 11
127.7690107691305
 21
78.536594390034566
 31
0.0
  0
LINE
  5
AA49
  8
DEFPOINTS
 10
147.515690049765
 20
101.9993854796507
 30
0.0
 11
133.515690049765
 21
79.999385479650741
 31
0.0
  0
LINE
  5
AA4A
  8
0
 10
113.515690049765
 20
55.999385479650741
 30
0.0
 11
113.515690049765
 21
52.999385479650762
 31
0.0
  0
LINE
  5
AA4B
  8
0
 10
106.015690049765
 20
55.999385479650741
 30
0.0
 11
106.015690049765
 21
72.118591568695877
 31
0.0
  0
LINE
  5
AA4C
  8
3
 10
159.86869004976501
 20
164.99938547967341
 30
0.0
 11
159.86869004976501
 21
319.85238547965088
 31
0.0
  0
LINE
  5
AA4D
  8
0
 10
158.515690049765
 20
164.99938547967341
 30
0.0
 11
158.515690049765
 21
318.49938547965098
 31
0.0
  0
LINE
  5
AA4E
  8
0
 10
178.515690049765
 20
164.99938547967329
 30
0.0
 11
178.515690049765
 21
318.49938547965058
 31
0.0
  0
LINE
  5
AA4F
  8
3
 10
177.1626900497649
 20
164.99938547967341
 30
0.0
 11
177.1626900497649
 21
319.85238547965082
 31
0.0
  0
LINE
  5
AA50
  8
0
 10
154.0156900497654
 20
164.9993854796738
 30
0.0
 11
151.195181974077
 21
163.3709643829234
 31
0.0
  0
ARC
  5
AA51
  8
0
 10
155.52530899299919
 20
157.04324209980251
 30
0.0
 40
7.6674682452751766
 50
55.615752531994197
 51
115.6157525295408
  0
ARC
  5
AA52
  8
0
 10
155.52530899299919
 20
157.04324209980251
 30
0.0
 40
7.6674682452751766
 50
124.3842474680058
 51
124.3842474680058
  0
ARC
  5
AA53
  8
0
 10
168.51569004983861
 20
136.0504563076849
 30
0.0
 40
28.660254037392811
 50
72.412046225870625
 51
107.58795377443001
  0
ARC
  5
AA54
  8
0
 10
155.52530899299919
 20
156.9555288595447
 30
0.0
 40
7.6674682452751766
 50
235.61575253199419
 51
235.61575253199419
  0
ARC
  5
AA55
  8
0
 10
155.52530899299919
 20
156.9555288595447
 30
0.0
 40
7.6674682452751766
 50
244.3842474704592
 51
304.38424746800581
  0
LINE
  5
AA56
  8
0
 10
154.0156900497654
 20
148.99938547967341
 30
0.0
 11
151.195181974077
 21
150.62780657642381
 31
0.0
  0
LINE
  5
AA57
  8
0
 10
151.195181974077
 20
163.3709643829234
 30
0.0
 11
151.1951819737933
 21
150.6278065765874
 31
0.0
  0
LINE
  5
AA58
  8
0
 10
159.85543601192151
 20
150.62780657644711
 30
0.0
 11
159.85543601207519
 21
163.3709643829234
 31
0.0
  0
ARC
  5
AA59
  8
0
 10
168.51569004983861
 20
177.948314651662
 30
0.0
 40
28.660254037392811
 50
252.41204622557001
 51
287.5879537741294
  0
LINE
  5
AA5A
  8
0
 10
177.17594408760939
 20
150.62780657644711
 30
0.0
 11
177.1759440874556
 21
163.3709643829234
 31
0.0
  0
LINE
  5
AA5B
  8
0
 10
185.83619812545371
 20
163.3709643829234
 30
0.0
 11
185.83619812573761
 21
150.6278065765874
 31
0.0
  0
LINE
  5
AA5C
  8
0
 10
183.0156900497654
 20
148.99938547967341
 30
0.0
 11
185.83619812545371
 21
150.62780657642381
 31
0.0
  0
ARC
  5
AA5D
  8
0
 10
181.50607110653161
 20
156.9555288595447
 30
0.0
 40
7.6674682452751766
 50
235.61575253199419
 51
295.61575252954083
  0
ARC
  5
AA5E
  8
0
 10
181.50607110653161
 20
156.9555288595447
 30
0.0
 40
7.6674682452751766
 50
304.38424746800581
 51
304.38424746800581
  0
ARC
  5
AA5F
  8
0
 10
181.50607110653161
 20
157.04324209980251
 30
0.0
 40
7.6674682452751766
 50
55.615752531994197
 51
55.615752531994197
  0
ARC
  5
AA60
  8
0
 10
181.50607110653161
 20
157.04324209980251
 30
0.0
 40
7.6674682452751766
 50
64.384247470459201
 51
124.3842474680058
  0
LINE
  5
AA61
  8
0
 10
183.0156900497654
 20
164.9993854796738
 30
0.0
 11
185.83619812545371
 21
163.3709643829234
 31
0.0
  0
LINE
  5
AA62
  8
0
 10
154.0156900497654
 20
164.9993854796738
 30
0.0
 11
183.01569004976591
 21
164.99938547967329
 31
0.0
  0
LINE
  5
AA63
  8
0
 10
183.01569004976591
 20
148.99938547967361
 30
0.0
 11
154.0156900497654
 21
148.99938547967341
 31
0.0
  0
ARC
  5
AA64
  8
0
 10
168.5156900497623
 20
97.669651660848515
 30
0.0
 40
12.25
 50
133.87987710304779
 51
159.30166507346181
  0
LINE
  5
AA65
  8
0
 10
177.015690049765
 20
106.4993854795986
 30
0.0
 11
160.015690049765
 21
106.4993854796268
 31
0.0
  0
LINE
  5
AA66
  8
0
 10
177.015690049765
 20
112.9993854796127
 30
0.0
 11
177.015690049765
 21
106.4993854795986
 31
0.0
  0
LINE
  5
AA67
  8
0
 10
160.015690049765
 20
112.9993854796127
 30
0.0
 11
160.015690049765
 21
106.49938547962699
 31
0.0
  0
LINE
  5
AA68
  8
0
 10
180.01569004979859
 20
112.9993854795934
 30
0.0
 11
157.0156900497322
 21
112.9993854796318
 31
0.0
  0
LINE
  5
AA69
  8
0
 10
157.0156900497322
 20
122.9993854796318
 30
0.0
 11
180.01569004979859
 21
122.9993854796702
 31
0.0
  0
ARC
  5
AA6A
  8
0
 10
162.51569004979859
 20
105.3805833277335
 30
0.0
 40
17.330127017333279
 50
69.74384199763557
 51
110.2561580023644
  0
LINE
  5
AA6B
  8
0
 10
156.51569004978319
 20
122.7107103450668
 30
0.0
 11
157.01569004979859
 21
122.9993854796702
 31
0.0
  0
LINE
  5
AA6C
  8
0
 10
156.51569004978319
 20
113.28806061419679
 30
0.0
 11
157.01569004979859
 21
112.9993854795934
 31
0.0
  0
ARC
  5
AA6D
  8
0
 10
162.51569004979859
 20
130.61818763153011
 30
0.0
 40
17.330127017333279
 50
249.7438419976356
 51
290.25615800236437
  0
LINE
  5
AA6E
  8
0
 10
156.51569004978319
 20
122.7107103450668
 30
0.0
 11
156.51569004979859
 21
113.2880606141881
 31
0.0
  0
LINE
  5
AA6F
  8
0
 10
168.51569004979859
 20
114.359857384026
 30
0.0
 11
168.51569004979859
 21
121.63891357523759
 31
0.0
  0
LINE
  5
AA70
  8
0
 10
180.5156900498132
 20
122.7107103450668
 30
0.0
 11
180.51569004979851
 21
113.2880606141881
 31
0.0
  0
ARC
  5
AA71
  8
0
 10
174.51569004979859
 20
130.61818763153011
 30
0.0
 40
17.330127017333279
 50
249.7438419976356
 51
290.25615800236437
  0
LINE
  5
AA72
  8
0
 10
180.5156900498132
 20
113.28806061419679
 30
0.0
 11
180.01569004979859
 21
112.9993854795934
 31
0.0
  0
LINE
  5
AA73
  8
0
 10
180.5156900498132
 20
122.7107103450668
 30
0.0
 11
180.01569004979859
 21
122.9993854796702
 31
0.0
  0
ARC
  5
AA74
  8
0
 10
174.51569004979859
 20
105.3805833277335
 30
0.0
 40
17.330127017333279
 50
69.74384199763557
 51
110.2561580023644
  0
LINE
  5
AA75
  8
0
 10
161.015690049765
 20
320.99938547965098
 30
0.0
 11
176.015690049765
 21
320.99938547965058
 31
0.0
  0
LINE
  5
AA76
  8
0
 10
178.515690049765
 20
122.9993854796509
 30
0.0
 11
178.515690049765
 21
148.99938547967341
 31
0.0
  0
LINE
  5
AA77
  8
3
 10
177.1626900497649
 20
126.9993854796702
 30
0.0
 11
177.1626900497649
 21
148.99938547967341
 31
0.0
  0
LINE
  5
AA78
  8
3
 10
159.86869004976501
 20
126.9993854796702
 30
0.0
 11
159.86869004976501
 21
148.99938547967321
 31
0.0
  0
LINE
  5
AA79
  8
0
 10
158.515690049765
 20
122.9993854796509
 30
0.0
 11
158.515690049765
 21
148.99938547967341
 31
0.0
  0
LINE
  5
AA7A
  8
0
 10
158.515690049765
 20
318.49938547965098
 30
0.0
 11
161.015690049765
 21
320.99938547965098
 31
0.0
  0
LINE
  5
AA7B
  8
0
 10
176.015690049765
 20
320.99938547965058
 30
0.0
 11
178.515690049765
 21
318.49938547965058
 31
0.0
  0
LINE
  5
AA7C
  8
0
 10
158.515690049765
 20
318.49938547965098
 30
0.0
 11
178.515690049765
 21
318.49938547965058
 31
0.0
  0
LINE
  5
AA7D
  8
0
 10
178.515690049765
 20
126.9993854796702
 30
0.0
 11
158.515690049765
 21
126.9993854796702
 31
0.0
  0
LINE
  5
AA7E
  8
3
 10
159.86869004976501
 20
126.9993854796702
 30
0.0
 11
158.515690049765
 21
124.65592073702931
 31
0.0
  0
LINE
  5
AA7F
  8
3
 10
177.1626900497649
 20
126.9993854796702
 30
0.0
 11
178.515690049765
 21
124.65592073702931
 31
0.0
  0
ARC
  5
AA80
  8
0
 10
168.5156900497623
 20
97.669651660848515
 30
0.0
 40
12.25
 50
20.698334926538081
 51
46.120122896763171
  0
LINE
  5
AA81
  8
0
 10
113.515690049765
 20
52.999385479650762
 30
0.0
 11
223.515690049765
 21
52.999385479650762
 31
0.0
  0
LINE
  5
AA82
  8
1
 10
168.515690049765
 20
42.999385479650762
 30
0.0
 11
168.515690049765
 21
330.99938547965098
 31
0.0
  0
LINE
  5
AA83
  8
1
 10
338.48565686652358
 20
42.999385479650762
 30
0.0
 11
338.48565686652358
 21
330.99938547965098
 31
0.0
  0
LINE
  5
AA84
  8
0
 10
283.48565686652358
 20
52.999385479650762
 30
0.0
 11
393.4856568665237
 21
52.999385479650762
 31
0.0
  0
LINE
  5
AA85
  8
0
 10
275.98565686652358
 20
55.999385479650741
 30
0.0
 11
275.98565686652358
 21
72.118591568695877
 31
0.0
  0
LINE
  5
AA86
  8
0
 10
283.48565686652358
 20
55.999385479650741
 30
0.0
 11
283.48565686652358
 21
52.999385479650762
 31
0.0
  0
LINE
  5
AA87
  8
DEFPOINTS
 10
317.48565686652358
 20
101.9993854796507
 30
0.0
 11
303.4856568665237
 21
79.999385479650741
 31
0.0
  0
LINE
  5
AA88
  8
DEFPOINTS
 10
303.4856568665237
 20
79.999385479650741
 30
0.0
 11
297.73897758588919
 21
78.536594390034566
 31
0.0
  0
LINE
  5
AA89
  8
DEFPOINTS
 10
282.9856568665237
 20
73.890294570559817
 30
0.0
 11
282.9856568665237
 21
73.900409750514072
 31
0.0
  0
LINE
  5
AA8A
  8
DEFPOINTS
 10
289.98565686652358
 20
75.672112752378041
 30
0.0
 11
289.98565686652358
 21
75.682227932332225
 31
0.0
  0
LINE
  5
AA8B
  8
DEFPOINTS
 10
296.98565686652358
 20
77.45393093419618
 30
0.0
 11
296.98565686652358
 21
77.567497216111619
 31
0.0
  0
LINE
  5
AA8C
  8
DEFPOINTS
 10
276.85940258684968
 20
73.110589480419478
 30
0.0
 11
282.9856568665237
 21
73.890294570559817
 31
0.0
  0
LINE
  5
AA8D
  8
DEFPOINTS
 10
283.85940258684968
 20
74.892407662237702
 30
0.0
 11
289.98565686652358
 21
75.672112752378041
 31
0.0
  0
LINE
  5
AA8E
  8
DEFPOINTS
 10
290.85940258684968
 20
76.674225844055911
 30
0.0
 11
296.98565686652358
 21
77.45393093419618
 31
0.0
  0
ARC
  5
AA8F
  8
DEFPOINTS
 10
297.9856568665237
 20
77.567497216111619
 30
0.0
 40
1.0
 50
104.28109573597111
 51
180.0
  0
ARC
  5
AA90
  8
DEFPOINTS
 10
290.9856568665237
 20
75.682227932332225
 30
0.0
 40
1.0
 50
97.253194612725352
 51
180.0
  0
ARC
  5
AA91
  8
DEFPOINTS
 10
283.98565686652358
 20
73.900409750514072
 30
0.0
 40
1.0
 50
97.253194612725352
 51
179.9999999999979
  0
ARC
  5
AA92
  8
DEFPOINTS
 10
276.98565686652358
 20
72.118591568695877
 30
0.0
 40
1.0
 50
97.253194612725352
 51
180.0000000000004
  0
LINE
  5
AA93
  8
DEFPOINTS
 10
373.48565686652358
 20
79.999385479650741
 30
0.0
 11
303.48565686652421
 21
79.999385479650812
 31
0.0
  0
LINE
  5
AA94
  8
DEFPOINTS
 10
379.98565686652358
 20
77.45393093419618
 30
0.0
 11
296.98565686652461
 21
77.453930934196308
 31
0.0
  0
LINE
  5
AA95
  8
DEFPOINTS
 10
386.9856568665237
 20
75.672112752378041
 30
0.0
 11
289.98565686652461
 21
75.672112752378084
 31
0.0
  0
LINE
  5
AA96
  8
DEFPOINTS
 10
393.98565686652358
 20
73.890294570559817
 30
0.0
 11
282.98565686652449
 21
73.890294570559945
 31
0.0
  0
ARC
  5
AA97
  8
DEFPOINTS
 10
399.98565686652358
 20
72.118591568695877
 30
0.0
 40
1.0
 50
359.9999999999996
 51
82.746805387274634
  0
ARC
  5
AA98
  8
DEFPOINTS
 10
392.9856568665237
 20
73.900409750514072
 30
0.0
 40
1.0
 50
0.0000000000016284
 51
82.746805387274634
  0
ARC
  5
AA99
  8
DEFPOINTS
 10
385.98565686652358
 20
75.682227932332225
 30
0.0
 40
1.0
 50
0.0
 51
82.746805387274634
  0
ARC
  5
AA9A
  8
DEFPOINTS
 10
378.9856568665237
 20
77.567497216111619
 30
0.0
 40
1.0
 50
0.0
 51
75.718904264028865
  0
LINE
  5
AA9B
  8
DEFPOINTS
 10
386.1119111461976
 20
76.674225844055911
 30
0.0
 11
379.98565686652358
 21
77.45393093419618
 31
0.0
  0
LINE
  5
AA9C
  8
DEFPOINTS
 10
393.11191114619771
 20
74.892407662237702
 30
0.0
 11
386.9856568665237
 21
75.672112752378041
 31
0.0
  0
LINE
  5
AA9D
  8
DEFPOINTS
 10
400.11191114619737
 20
73.110589480419478
 30
0.0
 11
393.98565686652358
 21
73.890294570559817
 31
0.0
  0
LINE
  5
AA9E
  8
DEFPOINTS
 10
379.98565686652358
 20
77.45393093419618
 30
0.0
 11
379.98565686652358
 21
77.567497216111619
 31
0.0
  0
LINE
  5
AA9F
  8
DEFPOINTS
 10
386.9856568665237
 20
75.672112752378041
 30
0.0
 11
386.9856568665237
 21
75.682227932332225
 31
0.0
  0
LINE
  5
AAA0
  8
DEFPOINTS
 10
393.98565686652358
 20
73.890294570559817
 30
0.0
 11
393.98565686652358
 21
73.900409750514072
 31
0.0
  0
LINE
  5
AAA1
  8
DEFPOINTS
 10
373.48565686652358
 20
79.999385479650741
 30
0.0
 11
379.23233614715861
 21
78.536594390034566
 31
0.0
  0
LINE
  5
AAA2
  8
DEFPOINTS
 10
359.48565686652358
 20
101.9993854796507
 30
0.0
 11
373.48565686652358
 21
79.999385479650741
 31
0.0
  0
LINE
  5
AAA3
  8
0
 10
359.48565686652358
 20
101.9993854796507
 30
0.0
 11
317.48565686652358
 21
101.9993854796508
 31
0.0
  0
LINE
  5
AAA4
  8
0
 10
393.4856568665237
 20
55.999385479650741
 30
0.0
 11
393.4856568665237
 21
52.999385479650762
 31
0.0
  0
LINE
  5
AAA5
  8
0
 10
400.98565686652353
 20
55.999385479650741
 30
0.0
 11
400.98565686652353
 21
72.118591568695877
 31
0.0
  0
LINE
  5
AAA6
  8
0
 10
400.98565686652353
 20
55.999385479650741
 30
0.0
 11
275.98565686652358
 21
55.999385479650812
 31
0.0
  0
LINE
  5
AAA7
  8
0
 10
349.98565686646998
 20
112.999385479732
 30
0.0
 11
326.98565686668547
 21
112.999385479732
 31
0.0
  0
LINE
  5
AAA8
  8
0
 10
326.9856568665777
 20
122.999385479732
 30
0.0
 11
349.98565686646998
 21
122.999385479732
 31
0.0
  0
ARC
  5
AAA9
  8
0
 10
348.8779617119913
 20
116.5767357494463
 30
0.0
 40
6.1339745957208196
 50
64.384247469845079
 51
124.38424747120639
  0
LINE
  5
AAAA
  8
0
 10
352.3420633271507
 20
121.6389135753377
 30
0.0
 11
349.98565686646998
 21
122.999385479732
 31
0.0
  0
LINE
  5
AAAB
  8
0
 10
352.3420633271507
 20
114.3598573841262
 30
0.0
 11
349.98565686646998
 21
112.999385479732
 31
0.0
  0
ARC
  5
AAAC
  8
0
 10
348.8779617119913
 20
119.4220352100176
 30
0.0
 40
6.1339745957208196
 50
235.61575252879359
 51
295.61575253015491
  0
LINE
  5
AAAD
  8
0
 10
352.34206332712893
 20
121.6389135753377
 30
0.0
 11
352.34206332712893
 21
114.3598573841134
 31
0.0
  0
LINE
  5
AAAE
  8
0
 10
345.41386009685311
 20
121.6389135753377
 30
0.0
 11
345.41386009685311
 21
114.3598573841262
 31
0.0
  0
LINE
  5
AAAF
  8
0
 10
331.5574536363024
 20
121.6389135753377
 30
0.0
 11
331.5574536363024
 21
114.3598573841262
 31
0.0
  0
LINE
  5
AAB0
  8
0
 10
324.62925040602659
 20
121.6389135753377
 30
0.0
 11
324.62925040602659
 21
114.3598573841134
 31
0.0
  0
ARC
  5
AAB1
  8
0
 10
338.48565686657781
 20
136.21626384243621
 30
0.0
 40
22.928203228139491
 50
252.41204622431439
 51
287.58795377568561
  0
ARC
  5
AAB2
  8
0
 10
328.09335202116432
 20
119.4220352100176
 30
0.0
 40
6.1339745957208196
 50
244.38424746984509
 51
304.38424747120638
  0
LINE
  5
AAB3
  8
0
 10
324.6292504060047
 20
114.3598573841262
 30
0.0
 11
326.98565686668547
 21
112.999385479732
 31
0.0
  0
LINE
  5
AAB4
  8
0
 10
324.6292504060047
 20
121.6389135753377
 30
0.0
 11
326.98565686668547
 21
122.999385479732
 31
0.0
  0
ARC
  5
AAB5
  8
0
 10
328.09335202116432
 20
116.5767357494463
 30
0.0
 40
6.1339745957208196
 50
55.615752528793557
 51
115.61575253015489
  0
ARC
  5
AAB6
  8
0
 10
338.48565686657781
 20
99.782507117027592
 30
0.0
 40
22.928203228139491
 50
72.412046224314381
 51
107.58795377568561
  0
LINE
  5
AAB7
  8
3
 10
347.13265686652358
 20
126.9993854796701
 30
0.0
 11
348.48565686652358
 21
124.65592073702921
 31
0.0
  0
LINE
  5
AAB8
  8
3
 10
329.83865686652371
 20
126.9993854796701
 30
0.0
 11
328.4856568665237
 21
124.65592073702921
 31
0.0
  0
LINE
  5
AAB9
  8
0
 10
348.48565686652358
 20
126.9993854796701
 30
0.0
 11
328.4856568665237
 21
126.9993854796701
 31
0.0
  0
LINE
  5
AABA
  8
0
 10
328.4856568665237
 20
318.49938547965098
 30
0.0
 11
348.48565686652358
 21
318.49938547965058
 31
0.0
  0
LINE
  5
AABB
  8
0
 10
345.98565686652358
 20
320.99938547965058
 30
0.0
 11
348.48565686652358
 21
318.49938547965058
 31
0.0
  0
LINE
  5
AABC
  8
0
 10
328.4856568665237
 20
318.49938547965098
 30
0.0
 11
330.9856568665237
 21
320.99938547965098
 31
0.0
  0
LINE
  5
AABD
  8
0
 10
328.4856568665237
 20
122.9993854796508
 30
0.0
 11
328.4856568665237
 21
148.99938547967329
 31
0.0
  0
LINE
  5
AABE
  8
3
 10
329.83865686652371
 20
126.9993854796701
 30
0.0
 11
329.83865686652371
 21
148.99938547967309
 31
0.0
  0
LINE
  5
AABF
  8
3
 10
347.13265686652358
 20
126.9993854796701
 30
0.0
 11
347.13265686652358
 21
148.99938547967329
 31
0.0
  0
LINE
  5
AAC0
  8
0
 10
348.48565686652358
 20
122.9993854796508
 30
0.0
 11
348.48565686652358
 21
148.99938547967329
 31
0.0
  0
LINE
  5
AAC1
  8
0
 10
330.9856568665237
 20
320.99938547965098
 30
0.0
 11
345.98565686652358
 21
320.99938547965058
 31
0.0
  0
LINE
  5
AAC2
  8
0
 10
329.98565686652358
 20
112.9993854796126
 30
0.0
 11
329.98565686652358
 21
106.4993854796268
 31
0.0
  0
LINE
  5
AAC3
  8
0
 10
346.98565686652358
 20
112.9993854796126
 30
0.0
 11
346.98565686652358
 21
106.4993854795985
 31
0.0
  0
LINE
  5
AAC4
  8
0
 10
346.98565686652358
 20
106.4993854795985
 30
0.0
 11
329.98565686652358
 21
106.4993854796267
 31
0.0
  0
ARC
  5
AAC5
  8
0
 10
338.48565686652091
 20
97.669651660848373
 30
0.0
 40
12.25
 50
133.87987710304901
 51
159.30166507346101
  0
LINE
  5
AAC6
  8
3
 10
347.13265686652358
 20
164.99938547967341
 30
0.0
 11
347.13265686652358
 21
319.85238547965082
 31
0.0
  0
LINE
  5
AAC7
  8
0
 10
348.48565686652358
 20
164.99938547967321
 30
0.0
 11
348.48565686652358
 21
318.49938547965058
 31
0.0
  0
LINE
  5
AAC8
  8
0
 10
328.4856568665237
 20
164.99938547967341
 30
0.0
 11
328.4856568665237
 21
318.49938547965098
 31
0.0
  0
LINE
  5
AAC9
  8
3
 10
329.83865686652371
 20
164.99938547967341
 30
0.0
 11
329.83865686652371
 21
319.85238547965088
 31
0.0
  0
ARC
  5
AACA
  8
0
 10
345.98565686652449
 20
143.0480515714095
 30
0.0
 40
21.662658773668529
 50
69.743841999600491
 51
110.2561580003994
  0
LINE
  5
AACB
  8
0
 10
352.98565686652267
 20
164.99938547967341
 30
0.0
 11
353.48565686652421
 21
164.71071034507801
 31
0.0
  0
LINE
  5
AACC
  8
0
 10
352.98565686652267
 20
148.999385479674
 30
0.0
 11
353.48565686652421
 21
149.2880606142694
 31
0.0
  0
ARC
  5
AACD
  8
0
 10
345.98565686652449
 20
170.95071938793771
 30
0.0
 40
21.662658773668529
 50
249.74384199960051
 51
290.25615800039952
  0
LINE
  5
AACE
  8
0
 10
353.48565686652472
 20
164.71071034507801
 30
0.0
 11
353.48565686652421
 21
149.2880606142694
 31
0.0
  0
LINE
  5
AACF
  8
0
 10
323.48565686652461
 20
164.71071034507801
 30
0.0
 11
323.48565686652461
 21
149.2880606142694
 31
0.0
  0
ARC
  5
AAD0
  8
0
 10
330.98565686652449
 20
170.95071938793771
 30
0.0
 40
21.662658773668529
 50
249.74384199960051
 51
290.25615800039952
  0
LINE
  5
AAD1
  8
0
 10
323.98565686652603
 20
148.999385479674
 30
0.0
 11
323.48565686652461
 21
149.2880606142694
 31
0.0
  0
LINE
  5
AAD2
  8
0
 10
323.98565686652603
 20
164.99938547967341
 30
0.0
 11
323.48565686652461
 21
164.71071034507801
 31
0.0
  0
ARC
  5
AAD3
  8
0
 10
330.98565686652449
 20
143.0480515714095
 30
0.0
 40
21.662658773668529
 50
69.743841999600491
 51
110.2561580003994
  0
LINE
  5
AAD4
  8
0
 10
323.98565686652603
 20
164.99938547967341
 30
0.0
 11
352.98565686652267
 21
164.99938547967341
 31
0.0
  0
LINE
  5
AAD5
  8
0
 10
352.98565686652461
 20
148.999385479674
 30
0.0
 11
323.98565686652603
 21
148.999385479674
 31
0.0
  0
LINE
  5
AAD6
  8
0
 10
338.48565686652461
 20
163.37096438292329
 30
0.0
 11
338.48565686652461
 21
150.62780657641909
 31
0.0
  0
ARC
  5
AAD7
  8
0
 10
338.48565686652091
 20
97.669651660848373
 30
0.0
 40
12.25
 50
20.698334926538941
 51
46.120122896762268
  0
CIRCLE
  5
AAD8
  8
0
 10
168.515690049765
 20
421.53390513227401
 30
0.0
 40
62.499999999999929
  0
CIRCLE
  5
AAD9
  8
0
 10
168.515690049765
 20
421.53390513227401
 30
0.0
 40
55.499999999999503
  0
CIRCLE
  5
AADA
  8
0
 10
168.515690049765
 20
421.53390513227401
 30
0.0
 40
48.499999999999901
  0
CIRCLE
  5
AADB
  8
0
 10
168.515690049765
 20
421.53390513227401
 30
0.0
 40
41.499999999999901
  0
CIRCLE
  5
AADC
  8
0
 10
168.515690049765
 20
421.53390513227401
 30
0.0
 40
34.999999999999829
  0
CIRCLE
  5
AADD
  8
0
 10
168.515690049765
 20
421.53390513227401
 30
0.0
 40
20.999999999999879
  0
LINE
  5
AADE
  8
1
 10
168.515690049765
 20
494.03390513227379
 30
0.0
 11
168.515690049765
 21
349.03390513227413
 31
0.0
  0
LINE
  5
AADF
  8
1
 10
241.015690049765
 20
421.53390513227401
 30
0.0
 11
96.015690049764999
 21
421.53390513227401
 31
0.0
  0
CIRCLE
  5
AAE0
  8
0
 10
168.515690049765
 20
421.53390513227401
 30
0.0
 40
14.5
  0
LINE
  5
AAE1
  8
0
 10
151.1951819740766
 20
421.53390513227413
 30
0.0
 11
159.855436011921
 21
406.53390513227401
 31
0.0
  0
LINE
  5
AAE2
  8
0
 10
159.855436011921
 20
436.53390513227413
 30
0.0
 11
151.1951819740766
 21
421.53390513227413
 31
0.0
  0
LINE
  5
AAE3
  8
0
 10
177.17594408760939
 20
436.53390513227413
 30
0.0
 11
159.855436011921
 21
436.53390513227413
 31
0.0
  0
LINE
  5
AAE4
  8
0
 10
185.83619812545371
 20
421.53390513227401
 30
0.0
 11
177.17594408760939
 21
436.53390513227413
 31
0.0
  0
LINE
  5
AAE5
  8
0
 10
177.17594408760939
 20
406.53390513227401
 30
0.0
 11
185.83619812545371
 21
421.53390513227401
 31
0.0
  0
LINE
  5
AAE6
  8
0
 10
159.855436011921
 20
406.53390513227401
 30
0.0
 11
177.17594408760939
 21
406.53390513227401
 31
0.0
  0
CIRCLE
  5
AAE7
  8
3
 10
168.515690049765
 20
421.53390513227401
 30
0.0
 40
8.6470000000000002
  0
CIRCLE
  5
AAE8
  8
0
 10
168.515690049765
 20
421.53390513227401
 30
0.0
 40
10.0
  0
TEXT
  5
AEFD
  8
0
 62
     3
 10
0.0
 20
0.0
 30
0.0
 40
10.0
  1
LVER125L20D-SUS
  7
STANDARD1
  0
ENDSEC
  0
EOF
