  0
SECTION
  2
HEADER
  9
$ACADVER
  1
AC1009
  9
$INSBASE
 10
0.0
 20
0.0
 30
0.0
  9
$EXTMIN
 10
0.0
 20
-2.960436562073669
 30
0.0
  9
$EXTMAX
 10
217.8593412214434
 20
348.47741135035881
 30
0.0
  9
$LIMMIN
 10
0.0
 20
0.0
  9
$LIMMAX
 10
375.0
 20
270.0
  9
$ORTHOMODE
 70
     1
  9
$REGENMODE
 70
     1
  9
$FILLMODE
 70
     1
  9
$QTEXTMODE
 70
     0
  9
$MIRRTEXT
 70
     0
  9
$DRAGMODE
 70
     2
  9
$LTSCALE
 40
6.0
  9
$OSMODE
 70
    37
  9
$ATTMODE
 70
     1
  9
$TEXTSIZE
 40
0.2
  9
$TRACEWID
 40
0.05
  9
$TEXTSTYLE
  7
STANDARD
  9
$CLAYER
  8
0
  9
$CELTYPE
  6
BYLAYER
  9
$CECOLOR
 62
   256
  9
$DIMSCALE
 40
1.0
  9
$DIMASZ
 40
3.0
  9
$DIMEXO
 40
1.0
  9
$DIMDLI
 40
6.0
  9
$DIMRND
 40
0.0
  9
$DIMDLE
 40
0.0
  9
$DIMEXE
 40
1.0
  9
$DIMTP
 40
495.0
  9
$DIMTM
 40
0.0
  9
$DIMTXT
 40
3.0
  9
$DIMCEN
 40
0.0
  9
$DIMTSZ
 40
0.0
  9
$DIMTOL
 70
     0
  9
$DIMLIM
 70
     0
  9
$DIMTIH
 70
     0
  9
$DIMTOH
 70
     0
  9
$DIMSE1
 70
     0
  9
$DIMSE2
 70
     0
  9
$DIMTAD
 70
     1
  9
$DIMZIN
 70
     0
  9
$DIMBLK
  1

  9
$DIMASO
 70
     0
  9
$DIMSHO
 70
     0
  9
$DIMPOST
  1

  9
$DIMAPOST
  1

  9
$DIMALT
 70
     0
  9
$DIMALTD
 70
     2
  9
$DIMALTF
 40
25.399999999999999
  9
$DIMLFAC
 40
1.0
  9
$DIMTOFL
 70
     1
  9
$DIMTVP
 40
0.0
  9
$DIMTIX
 70
     1
  9
$DIMSOXD
 70
     0
  9
$DIMSAH
 70
     0
  9
$DIMBLK1
  1

  9
$DIMBLK2
  1

  9
$DIMSTYLE
  2
STANDARD
  9
$DIMCLRD
 70
     0
  9
$DIMCLRE
 70
     0
  9
$DIMCLRT
 70
     4
  9
$DIMTFAC
 40
1.0
  9
$DIMGAP
 40
1.0
  9
$LUNITS
 70
     2
  9
$LUPREC
 70
     4
  9
$SKETCHINC
 40
0.1
  9
$FILLETRAD
 40
2.0
  9
$AUNITS
 70
     0
  9
$AUPREC
 70
     0
  9
$MENU
  1
C:\R13\WIN\SUPPORT\ACAD-I
  9
$ELEVATION
 40
0.0
  9
$PELEVATION
 40
0.0
  9
$THICKNESS
 40
0.0
  9
$LIMCHECK
 70
     0
  9
$BLIPMODE
 70
     0
  9
$CHAMFERA
 40
0.0
  9
$CHAMFERB
 40
0.0
  9
$SKPOLY
 70
     0
  9
$TDCREATE
 40
2451962.4619666669
  9
$TDUPDATE
 40
2456598.7218158329
  9
$TDINDWG
 40
0.0208273148
  9
$TDUSRTIMER
 40
2456598.063785336
  9
$USRTIMER
 70
     1
  9
$ANGBASE
 50
0.0
  9
$ANGDIR
 70
     0
  9
$PDMODE
 70
     0
  9
$PDSIZE
 40
0.0
  9
$PLINEWID
 40
0.0
  9
$COORDS
 70
     1
  9
$SPLFRAME
 70
     0
  9
$SPLINETYPE
 70
     6
  9
$SPLINESEGS
 70
     8
  9
$ATTDIA
 70
     0
  9
$ATTREQ
 70
     1
  9
$HANDLING
 70
     1
  9
$HANDSEED
  5
6047
  9
$SURFTAB1
 70
     6
  9
$SURFTAB2
 70
     6
  9
$SURFTYPE
 70
     6
  9
$SURFU
 70
     6
  9
$SURFV
 70
     6
  9
$UCSNAME
  2

  9
$UCSORG
 10
0.0
 20
0.0
 30
0.0
  9
$UCSXDIR
 10
1.0
 20
0.0
 30
0.0
  9
$UCSYDIR
 10
0.0
 20
1.0
 30
0.0
  9
$PUCSNAME
  2

  9
$PUCSORG
 10
0.0
 20
0.0
 30
0.0
  9
$PUCSXDIR
 10
1.0
 20
0.0
 30
0.0
  9
$PUCSYDIR
 10
0.0
 20
1.0
 30
0.0
  9
$USERI1
 70
     4
  9
$USERI2
 70
     1
  9
$USERI3
 70
     0
  9
$USERI4
 70
     0
  9
$USERI5
 70
     0
  9
$USERR1
 40
1.0
  9
$USERR2
 40
3.0
  9
$USERR3
 40
3.0
  9
$USERR4
 40
3.0
  9
$USERR5
 40
10.0
  9
$WORLDVIEW
 70
     1
  9
$SHADEDGE
 70
     3
  9
$SHADEDIF
 70
    70
  9
$TILEMODE
 70
     1
  9
$MAXACTVP
 70
    16
  9
$PLIMCHECK
 70
     0
  9
$PEXTMIN
 10
1.0000000000000000E+020
 20
1.0000000000000000E+020
 30
1.0000000000000000E+020
  9
$PEXTMAX
 10
-1.0000000000000000E+020
 20
-1.0000000000000000E+020
 30
-1.0000000000000000E+020
  9
$PLIMMIN
 10
0.0
 20
0.0
  9
$PLIMMAX
 10
12.0
 20
9.0
  9
$UNITMODE
 70
     0
  9
$VISRETAIN
 70
     0
  9
$PLINEGEN
 70
     0
  9
$PSLTSCALE
 70
     0
  0
ENDSEC
  0
SECTION
  2
TABLES
  0
TABLE
  2
VPORT
 70
     1
  0
VPORT
  2
*ACTIVE
 70
     0
 10
0.0
 20
0.0
 11
1.0
 21
1.0
 12
187.4942783906524
 22
222.80574835399861
 13
0.0
 23
0.0
 14
10.0
 24
10.0
 15
10.0
 25
10.0
 16
0.0
 26
0.0
 36
1.0
 17
0.0
 27
0.0
 37
0.0
 40
455.49654019191502
 41
1.755244755244755
 42
50.0
 43
0.0
 44
0.0
 50
0.0
 51
0.0
 71
    16
 72
   100
 73
     1
 74
     0
 75
     0
 76
     0
 77
     0
 78
     0
  0
ENDTAB
  0
TABLE
  2
LTYPE
 70
     3
  0
LTYPE
  2
CONTINUOUS
 70
     0
  3
Solid Line
 72
    65
 73
     0
 40
0.0
  0
LTYPE
  2
PHANTOM2
 70
     0
  3
___ _ _ ___ _ _ ___ _ _ ___ _ _
 72
    65
 73
     6
 40
1.25
 49
0.625
 49
-0.125
 49
0.125
 49
-0.125
 49
0.125
 49
-0.125
  0
LTYPE
  2
CENTER
 70
     0
  3
____ _ ____ _ ____ _ ____ _ ____ _ ____ _ ____
 72
    65
 73
     4
 40
2.0
 49
1.25
 49
-0.25
 49
0.25
 49
-0.25
  0
ENDTAB
  0
TABLE
  2
LAYER
 70
     3
  0
LAYER
  2
0
 70
     0
 62
     7
  6
CONTINUOUS
  0
LAYER
  2
1
 70
     0
 62
     1
  6
CENTER
  0
LAYER
  2
3
 70
     0
 62
     3
  6
CONTINUOUS
  0
ENDTAB
  0
TABLE
  2
STYLE
 70
     3
  0
STYLE
  2
STANDARD
 70
     0
 40
0.0
 41
1.0
 50
0.0
 71
     0
 42
0.2
  3
SIMPLEX
  4
BIGFONT
  0
STYLE
  2
ANNOTATIVE
 70
     0
 40
0.0
 41
1.0
 50
0.0
 71
     0
 42
0.2
  3
txt
  4

  0
STYLE
  2
STANDARD1
 70
     0
 40
0.0
 41
1.0
 50
0.0
 71
     0
 42
3.0
  3
txt
  4

  0
ENDTAB
  0
TABLE
  2
VIEW
 70
     0
  0
ENDTAB
  0
TABLE
  2
UCS
 70
     0
  0
ENDTAB
  0
TABLE
  2
APPID
 70
    29
  0
APPID
  2
ACAD
 70
     0
  0
APPID
  2
ACADANNOTATIVE
 70
     0
  0
APPID
  2
GENIUS_GENOREF_13
 70
     0
  0
APPID
  2
GENIUS_GENOENT_13
 70
     0
  0
APPID
  2
GENIUS_GENBH_13
 70
     0
  0
APPID
  2
GENIUS_GENOBJ_13
 70
     0
  0
APPID
  2
GENIUS_GENODEF_13
 70
     0
  0
APPID
  2
GENIUS_GENOLIS_13
 70
     0
  0
APPID
  2
GENIUS_GENOBJ-NBEHI-BHF_13
 70
     0
  0
APPID
  2
GENIUS_GENOBJ-NBEHI-BHB_13
 70
     0
  0
APPID
  2
GENIUS_GENOBJ-F-PART_13
 70
     0
  0
APPID
  2
GENIUS_GEFSTDP_13
 70
     0
  0
APPID
  2
GENIUS_GENOBJ-N-RSSYM_13
 70
     0
  0
APPID
  2
GENIUS_GENSYMENT_13
 70
     0
  0
APPID
  2
GENIUS_GENOBJ-N-TIT_13
 70
     0
  0
APPID
  2
GENIUS_GENTITLE_13
 70
     0
  0
APPID
  2
GENIUS_GENZVEED_13
 70
     0
  0
APPID
  2
GENIUS_GENOBJ-N-LEADER_13
 70
     0
  0
APPID
  2
GENIUS_GENOBJ-N-FIL_13
 70
     0
  0
APPID
  2
GENIUS_GENOBJ-N-SEC_13
 70
     0
  0
APPID
  2
GENIUS_GENOBJ-N-CRS_13
 70
     0
  0
APPID
  2
GENIUS_GENOBJ-N-ZOO_13
 70
     0
  0
APPID
  2
GENIUS_GENZOO_13
 70
     0
  0
APPID
  2
GENIUS_GENOBJ-F-TOL_13
 70
     0
  0
APPID
  2
GENIUS_GENFIL_13
 70
     0
  0
APPID
  2
GENIUS_GENOBJ-N-CHA_13
 70
     0
  0
APPID
  2
ACAD_EXEMPT_FROM_CAD_STANDARDS
 70
     0
  0
APPID
  2
ACAD_MLEADERVER
 70
     0
  0
APPID
  2
ACAD_NAV_VCDISPLAY
 70
     0
  0
ENDTAB
  0
TABLE
  2
DIMSTYLE
 70
     2
  0
DIMSTYLE
  2
STANDARD
 70
     0
  3

  4

  5

  6

  7

 40
1.0
 41
0.18
 42
0.0625
 43
0.38
 44
0.18
 45
0.0
 46
0.0
 47
0.0
 48
0.0
140
0.18
141
0.09
142
0.0
143
25.399999999999999
144
1.0
145
0.0
146
1.0
147
0.09
 71
     0
 72
     0
 73
     1
 74
     1
 75
     0
 76
     0
 77
     0
 78
     0
170
     0
171
     2
172
     0
173
     0
174
     0
175
     0
176
     0
177
     0
178
     0
  0
DIMSTYLE
  2
ANNOTATIVE
 70
     0
  3

  4

  5

  6

  7

 40
1.0
 41
0.18
 42
0.0625
 43
0.38
 44
0.18
 45
0.0
 46
0.0
 47
0.0
 48
0.0
140
0.18
141
0.09
142
0.0
143
25.399999999999999
144
1.0
145
0.0
146
1.0
147
0.09
 71
     0
 72
     0
 73
     1
 74
     1
 75
     0
 76
     0
 77
     0
 78
     0
170
     0
171
     2
172
     0
173
     0
174
     0
175
     0
176
     0
177
     0
178
     0
  0
ENDTAB
  0
ENDSEC
  0
SECTION
  2
BLOCKS
  0
BLOCK
  8
0
  2
$MODEL_SPACE
 70
     0
 10
0.0
 20
0.0
 30
0.0
  3
$MODEL_SPACE
  1

  0
ENDBLK
  5
5F0E
  8
0
  0
BLOCK
 67
     1
  8
0
  2
$PAPER_SPACE
 70
     0
 10
0.0
 20
0.0
 30
0.0
  3
$PAPER_SPACE
  1

  0
ENDBLK
  5
5F0A
 67
     1
  8
0
  0
ENDSEC
  0
SECTION
  2
ENTITIES
  0
LINE
  5
5B9A
  8
1
 10
177.8593412214434
 20
236.08023450937139
 30
0.0
 11
177.8593412214434
 21
25.080234509371621
 31
0.0
  0
LINE
  5
5B9B
  8
1
 10
55.581554318257773
 20
25.080234509371621
 30
0.0
 11
55.581554318260032
 21
236.08023450937179
 31
0.0
  0
ARC
  5
5B9C
  8
0
 10
55.581554318254788
 20
47.750500690569197
 30
0.0
 40
12.25
 50
31.112020819731981
 51
46.120122896762282
  0
LINE
  5
5B9D
  8
3
 10
64.228554318257679
 20
77.080234509371621
 30
0.0
 11
65.581554318257758
 21
74.736769766730731
 31
0.0
  0
LINE
  5
5B9E
  8
3
 10
46.93455431825781
 20
77.080234509371621
 30
0.0
 11
45.581554318257758
 21
74.736769766730731
 31
0.0
  0
LINE
  5
5B9F
  8
0
 10
65.581554318257758
 20
77.080234509371621
 30
0.0
 11
45.581554318257758
 21
77.080234509371621
 31
0.0
  0
LINE
  5
5BA0
  8
0
 10
45.581554318257758
 20
228.58023450937191
 30
0.0
 11
65.581554318257758
 21
228.58023450937131
 31
0.0
  0
LINE
  5
5BA1
  8
0
 10
63.081554318257758
 20
231.08023450937139
 30
0.0
 11
65.581554318257758
 21
228.58023450937131
 31
0.0
  0
LINE
  5
5BA2
  8
0
 10
45.581554318257758
 20
228.58023450937191
 30
0.0
 11
48.081554318257758
 21
231.08023450937191
 31
0.0
  0
LINE
  5
5BA3
  8
0
 10
45.581554318257758
 20
73.080234509371621
 30
0.0
 11
45.581554318257758
 21
99.080234509394131
 31
0.0
  0
LINE
  5
5BA4
  8
3
 10
46.93455431825781
 20
77.080234509371621
 30
0.0
 11
46.93455431825781
 21
99.080234509393904
 31
0.0
  0
LINE
  5
5BA5
  8
3
 10
64.228554318257679
 20
77.080234509371621
 30
0.0
 11
64.228554318257679
 21
99.080234509394131
 31
0.0
  0
LINE
  5
5BA6
  8
0
 10
65.581554318257758
 20
73.080234509371621
 30
0.0
 11
65.581554318257758
 21
99.080234509394131
 31
0.0
  0
LINE
  5
5BA7
  8
0
 10
48.081554318257758
 20
231.08023450937191
 30
0.0
 11
63.081554318257758
 21
231.08023450937139
 31
0.0
  0
ARC
  5
5BA8
  8
0
 10
61.581554318290941
 20
55.461432357454221
 30
0.0
 40
17.330127017333279
 50
69.743841997633865
 51
110.25615800236611
  0
LINE
  5
5BA9
  8
0
 10
67.581554318305962
 20
72.791559374787539
 30
0.0
 11
67.081554318290955
 21
73.080234509390948
 31
0.0
  0
LINE
  5
5BAA
  8
0
 10
67.581554318305962
 20
63.368909643917497
 30
0.0
 11
67.081554318290955
 21
63.080234509314089
 31
0.0
  0
ARC
  5
5BAB
  8
0
 10
61.581554318290941
 20
80.699036661250844
 30
0.0
 40
17.330127017333279
 50
249.74384199763381
 51
290.25615800236602
  0
LINE
  5
5BAC
  8
0
 10
67.581554318305962
 20
72.791559374787539
 30
0.0
 11
67.581554318290955
 21
63.368909643908857
 31
0.0
  0
LINE
  5
5BAD
  8
0
 10
55.581554318290962
 20
64.440706413746739
 30
0.0
 11
55.581554318290962
 21
71.719762604958305
 31
0.0
  0
LINE
  5
5BAE
  8
0
 10
43.581554318275948
 20
72.791559374787539
 30
0.0
 11
43.581554318290962
 21
63.368909643908857
 31
0.0
  0
ARC
  5
5BAF
  8
0
 10
49.581554318290941
 20
80.699036661250844
 30
0.0
 40
17.330127017333279
 50
249.74384199763381
 51
290.25615800236608
  0
LINE
  5
5BB0
  8
0
 10
43.581554318275948
 20
63.368909643917497
 30
0.0
 11
44.081554318290941
 21
63.080234509314089
 31
0.0
  0
LINE
  5
5BB1
  8
0
 10
43.581554318275948
 20
72.791559374787539
 30
0.0
 11
44.081554318290941
 21
73.080234509390948
 31
0.0
  0
ARC
  5
5BB2
  8
0
 10
49.581554318290941
 20
55.461432357454221
 30
0.0
 40
17.330127017333279
 50
69.743841997633837
 51
110.25615800236611
  0
LINE
  5
5BB3
  8
0
 10
44.081554318224562
 20
73.080234509352522
 30
0.0
 11
67.081554318290955
 21
73.080234509390948
 31
0.0
  0
LINE
  5
5BB4
  8
0
 10
67.081554318290955
 20
63.080234509314089
 30
0.0
 11
44.081554318224562
 21
63.080234509352522
 31
0.0
  0
LINE
  5
5BB5
  8
0
 10
47.081554318257751
 20
63.080234509333422
 30
0.0
 11
47.081554318257751
 21
56.58023450934774
 31
0.0
  0
LINE
  5
5BB6
  8
0
 10
64.081554318257744
 20
63.080234509333422
 30
0.0
 11
64.081554318257744
 21
56.580234509319318
 31
0.0
  0
LINE
  5
5BB7
  8
0
 10
64.081554318257744
 20
56.580234509319318
 30
0.0
 11
47.081554318257751
 21
56.580234509347498
 31
0.0
  0
ARC
  5
5BB8
  8
0
 10
55.581554318254788
 20
47.750500690569197
 30
0.0
 40
12.25
 50
133.87987710304881
 51
148.88797918026799
  0
LINE
  5
5BB9
  8
0
 10
70.081554318258441
 20
99.080234509394387
 30
0.0
 11
41.081554318257993
 21
99.080234509394131
 31
0.0
  0
LINE
  5
5BBA
  8
0
 10
41.081554318257993
 20
115.0802345093946
 30
0.0
 11
70.081554318258654
 21
115.0802345093941
 31
0.0
  0
LINE
  5
5BBB
  8
0
 10
70.081554318257986
 20
115.0802345093946
 30
0.0
 11
72.902062393946593
 21
113.4518134126442
 31
0.0
  0
ARC
  5
5BBC
  8
0
 10
68.571935375024182
 20
107.12409112952329
 30
0.0
 40
7.6674682452751766
 50
64.384247470460892
 51
124.38424746800619
  0
ARC
  5
5BBD
  8
0
 10
68.571935375024182
 20
107.12409112952329
 30
0.0
 40
7.6674682452751766
 50
55.615752531993813
 51
55.615752531993813
  0
ARC
  5
5BBE
  8
0
 10
68.571935375024182
 20
107.0363778892654
 30
0.0
 40
7.6674682452751766
 50
304.38424746800621
 51
304.38424746800621
  0
ARC
  5
5BBF
  8
0
 10
68.571935375024182
 20
107.0363778892654
 30
0.0
 40
7.6674682452751766
 50
235.61575253199371
 51
295.61575252953912
  0
LINE
  5
5BC0
  8
0
 10
70.081554318257986
 20
99.080234509394131
 30
0.0
 11
72.902062393946593
 21
100.7086556061445
 31
0.0
  0
LINE
  5
5BC1
  8
0
 10
72.902062393946366
 20
113.4518134126442
 30
0.0
 11
72.902062394230143
 21
100.7086556063082
 31
0.0
  0
LINE
  5
5BC2
  8
0
 10
64.241808356102183
 20
100.7086556061678
 30
0.0
 11
64.241808355948251
 21
113.4518134126442
 31
0.0
  0
ARC
  5
5BC3
  8
0
 10
55.58155431833142
 20
128.02916368138261
 30
0.0
 40
28.660254037392811
 50
252.41204622556921
 51
287.58795377413003
  0
LINE
  5
5BC4
  8
0
 10
46.921300280413782
 20
100.7086556061678
 30
0.0
 11
46.921300280567721
 21
113.4518134126442
 31
0.0
  0
LINE
  5
5BC5
  8
0
 10
38.261046242569591
 20
113.4518134126442
 30
0.0
 11
38.261046242285829
 21
100.7086556063082
 31
0.0
  0
LINE
  5
5BC6
  8
0
 10
41.081554318257993
 20
99.080234509394131
 30
0.0
 11
38.261046242569371
 21
100.7086556061445
 31
0.0
  0
ARC
  5
5BC7
  8
0
 10
42.59117326149179
 20
107.0363778892654
 30
0.0
 40
7.6674682452751766
 50
244.38424747046079
 51
304.38424746800621
  0
ARC
  5
5BC8
  8
0
 10
42.59117326149179
 20
107.0363778892654
 30
0.0
 40
7.6674682452751766
 50
235.61575253199379
 51
235.61575253199379
  0
ARC
  5
5BC9
  8
0
 10
55.58155431833142
 20
86.13130533740582
 30
0.0
 40
28.660254037392811
 50
72.412046225870029
 51
107.5879537744307
  0
ARC
  5
5BCA
  8
0
 10
42.59117326149179
 20
107.12409112952329
 30
0.0
 40
7.6674682452751766
 50
124.38424746800619
 51
124.38424746800619
  0
ARC
  5
5BCB
  8
0
 10
42.59117326149179
 20
107.12409112952329
 30
0.0
 40
7.6674682452751766
 50
55.615752531993813
 51
115.61575252953899
  0
LINE
  5
5BCC
  8
0
 10
41.081554318257993
 20
115.0802345093946
 30
0.0
 11
38.261046242569371
 21
113.4518134126442
 31
0.0
  0
LINE
  5
5BCD
  8
3
 10
64.228554318257679
 20
115.0802345093943
 30
0.0
 11
64.228554318257679
 21
229.93323450937149
 31
0.0
  0
LINE
  5
5BCE
  8
0
 10
65.581554318257758
 20
115.0802345093941
 30
0.0
 11
65.581554318257758
 21
228.58023450937131
 31
0.0
  0
LINE
  5
5BCF
  8
0
 10
45.581554318257758
 20
115.0802345093943
 30
0.0
 11
45.581554318257758
 21
228.58023450937191
 31
0.0
  0
LINE
  5
5BD0
  8
3
 10
46.93455431825781
 20
115.0802345093943
 30
0.0
 11
46.93455431825781
 21
229.93323450937191
 31
0.0
  0
ARC
  5
5BD1
  8
0
 10
177.8593412214403
 20
47.750500690569197
 30
0.0
 40
12.25
 50
31.112020819731931
 51
46.120122896761067
  0
LINE
  5
5BD2
  8
0
 10
177.8593412214438
 20
113.4518134126442
 30
0.0
 11
177.8593412214438
 21
100.7086556061399
 31
0.0
  0
LINE
  5
5BD3
  8
0
 10
192.3593412214438
 20
99.080234509394813
 30
0.0
 11
163.35934122144539
 21
99.080234509394813
 31
0.0
  0
LINE
  5
5BD4
  8
0
 10
163.35934122144539
 20
115.0802345093943
 30
0.0
 11
192.35934122144221
 21
115.0802345093943
 31
0.0
  0
ARC
  5
5BD5
  8
0
 10
170.3593412214438
 20
93.128900601130454
 30
0.0
 40
21.662658773668529
 50
69.743841999602324
 51
110.2561580003977
  0
LINE
  5
5BD6
  8
0
 10
163.35934122144539
 20
115.0802345093943
 30
0.0
 11
162.859341221444
 21
114.79155937479879
 31
0.0
  0
LINE
  5
5BD7
  8
0
 10
163.35934122144539
 20
99.080234509394813
 30
0.0
 11
162.859341221444
 21
99.368909643990264
 31
0.0
  0
ARC
  5
5BD8
  8
0
 10
170.3593412214438
 20
121.03156841765851
 30
0.0
 40
21.662658773668529
 50
249.7438419996023
 51
290.25615800039759
  0
LINE
  5
5BD9
  8
0
 10
162.8593412214438
 20
114.79155937479879
 30
0.0
 11
162.859341221444
 21
99.368909643990264
 31
0.0
  0
LINE
  5
5BDA
  8
0
 10
192.8593412214438
 20
114.79155937479879
 30
0.0
 11
192.8593412214436
 21
99.368909643990264
 31
0.0
  0
ARC
  5
5BDB
  8
0
 10
185.3593412214438
 20
121.03156841765851
 30
0.0
 40
21.662658773668529
 50
249.7438419996023
 51
290.25615800039759
  0
LINE
  5
5BDC
  8
0
 10
192.35934122144221
 20
99.080234509394813
 30
0.0
 11
192.8593412214436
 21
99.368909643990264
 31
0.0
  0
LINE
  5
5BDD
  8
0
 10
192.35934122144221
 20
115.0802345093943
 30
0.0
 11
192.8593412214436
 21
114.79155937479879
 31
0.0
  0
ARC
  5
5BDE
  8
0
 10
185.3593412214438
 20
93.128900601130454
 30
0.0
 40
21.662658773668529
 50
69.743841999602324
 51
110.2561580003977
  0
LINE
  5
5BDF
  8
3
 10
169.21234122144341
 20
115.0802345093943
 30
0.0
 11
169.21234122144341
 21
229.93323450937191
 31
0.0
  0
LINE
  5
5BE0
  8
0
 10
167.8593412214434
 20
115.0802345093943
 30
0.0
 11
167.8593412214434
 21
228.58023450937191
 31
0.0
  0
LINE
  5
5BE1
  8
0
 10
187.8593412214434
 20
115.0802345093941
 30
0.0
 11
187.8593412214434
 21
228.58023450937131
 31
0.0
  0
LINE
  5
5BE2
  8
3
 10
186.50634122144319
 20
115.0802345093943
 30
0.0
 11
186.50634122144319
 21
229.93323450937149
 31
0.0
  0
ARC
  5
5BE3
  8
0
 10
177.8593412214403
 20
47.750500690569197
 30
0.0
 40
12.25
 50
133.87987710304989
 51
148.8879791802681
  0
LINE
  5
5BE4
  8
0
 10
186.3593412214434
 20
56.580234509319318
 30
0.0
 11
169.3593412214434
 21
56.580234509347498
 31
0.0
  0
LINE
  5
5BE5
  8
0
 10
186.3593412214434
 20
63.080234509333422
 30
0.0
 11
186.3593412214434
 21
56.580234509319318
 31
0.0
  0
LINE
  5
5BE6
  8
0
 10
169.3593412214434
 20
63.080234509333422
 30
0.0
 11
169.3593412214434
 21
56.58023450934774
 31
0.0
  0
LINE
  5
5BE7
  8
0
 10
170.3593412214434
 20
231.08023450937191
 30
0.0
 11
185.3593412214434
 21
231.08023450937139
 31
0.0
  0
LINE
  5
5BE8
  8
0
 10
187.8593412214434
 20
73.080234509371621
 30
0.0
 11
187.8593412214434
 21
99.080234509394131
 31
0.0
  0
LINE
  5
5BE9
  8
3
 10
186.50634122144319
 20
77.080234509371621
 30
0.0
 11
186.50634122144319
 21
99.080234509394131
 31
0.0
  0
LINE
  5
5BEA
  8
3
 10
169.21234122144341
 20
77.080234509371621
 30
0.0
 11
169.21234122144341
 21
99.080234509393904
 31
0.0
  0
LINE
  5
5BEB
  8
0
 10
167.8593412214434
 20
73.080234509371621
 30
0.0
 11
167.8593412214434
 21
99.080234509394131
 31
0.0
  0
LINE
  5
5BEC
  8
0
 10
167.8593412214434
 20
228.58023450937191
 30
0.0
 11
170.3593412214434
 21
231.08023450937191
 31
0.0
  0
LINE
  5
5BED
  8
0
 10
185.3593412214434
 20
231.08023450937139
 30
0.0
 11
187.8593412214434
 21
228.58023450937131
 31
0.0
  0
LINE
  5
5BEE
  8
0
 10
167.8593412214434
 20
228.58023450937191
 30
0.0
 11
187.8593412214434
 21
228.58023450937131
 31
0.0
  0
LINE
  5
5BEF
  8
0
 10
187.8593412214434
 20
77.080234509371621
 30
0.0
 11
167.8593412214434
 21
77.080234509371621
 31
0.0
  0
LINE
  5
5BF0
  8
3
 10
169.21234122144341
 20
77.080234509371621
 30
0.0
 11
167.8593412214434
 21
74.736769766730731
 31
0.0
  0
LINE
  5
5BF1
  8
3
 10
186.50634122144319
 20
77.080234509371621
 30
0.0
 11
187.8593412214434
 21
74.736769766730731
 31
0.0
  0
ARC
  5
5BF2
  8
0
 10
177.8593412214972
 20
49.863356146748401
 30
0.0
 40
22.928203228139491
 50
72.412046224314096
 51
107.5879537756858
  0
ARC
  5
5BF3
  8
0
 10
167.4670363760838
 20
66.657584779167095
 30
0.0
 40
6.1339745957208196
 50
55.61575252879134
 51
115.6157525301567
  0
LINE
  5
5BF4
  8
0
 10
164.00293476092429
 20
71.719762605058577
 30
0.0
 11
166.35934122160501
 21
73.080234509452794
 31
0.0
  0
LINE
  5
5BF5
  8
0
 10
164.00293476092429
 20
64.44070641384701
 30
0.0
 11
166.35934122160501
 21
63.080234509452787
 31
0.0
  0
ARC
  5
5BF6
  8
0
 10
167.4670363760838
 20
69.502884239738478
 30
0.0
 40
6.1339745957208196
 50
244.3842474698433
 51
304.38424747120848
  0
ARC
  5
5BF7
  8
0
 10
177.8593412214972
 20
86.297112872157186
 30
0.0
 40
22.928203228139491
 50
252.412046224314
 51
287.58795377568589
  0
LINE
  5
5BF8
  8
0
 10
164.00293476094609
 20
71.719762605058577
 30
0.0
 11
164.00293476094609
 21
64.440706413834278
 31
0.0
  0
LINE
  5
5BF9
  8
0
 10
170.9311379912219
 20
71.719762605058577
 30
0.0
 11
170.9311379912219
 21
64.44070641384701
 31
0.0
  0
LINE
  5
5BFA
  8
0
 10
184.78754445177259
 20
71.719762605058577
 30
0.0
 11
184.78754445177259
 21
64.44070641384701
 31
0.0
  0
LINE
  5
5BFB
  8
0
 10
191.7157476820484
 20
71.719762605058577
 30
0.0
 11
191.7157476820484
 21
64.440706413834278
 31
0.0
  0
ARC
  5
5BFC
  8
0
 10
188.25164606691081
 20
69.502884239738478
 30
0.0
 40
6.1339745957208196
 50
235.6157525287914
 51
295.61575253015673
  0
LINE
  5
5BFD
  8
0
 10
191.71574768207029
 20
64.44070641384701
 30
0.0
 11
189.35934122138951
 21
63.080234509452787
 31
0.0
  0
LINE
  5
5BFE
  8
0
 10
191.71574768207029
 20
71.719762605058577
 30
0.0
 11
189.35934122138951
 21
73.080234509452794
 31
0.0
  0
ARC
  5
5BFF
  8
0
 10
188.25164606691081
 20
66.657584779167095
 30
0.0
 40
6.1339745957208196
 50
64.384247469843274
 51
124.3842474712085
  0
LINE
  5
5C00
  8
0
 10
166.35934122149729
 20
73.080234509452794
 30
0.0
 11
189.35934122138951
 21
73.080234509452794
 31
0.0
  0
LINE
  5
5C01
  8
0
 10
189.35934122138951
 20
63.080234509452787
 30
0.0
 11
166.35934122160501
 21
63.080234509452787
 31
0.0
  0
CIRCLE
  5
5C02
  8
0
 10
55.581554318257758
 20
302.76312563607308
 30
0.0
 40
10.0
  0
CIRCLE
  5
5C03
  8
3
 10
55.581554318257758
 20
302.76312563607308
 30
0.0
 40
8.6470000000000002
  0
LINE
  5
5C04
  8
0
 10
46.921300280413561
 20
287.76312563607303
 30
0.0
 11
64.241808356102183
 21
287.76312563607303
 31
0.0
  0
LINE
  5
5C05
  8
0
 10
64.241808356102183
 20
287.76312563607303
 30
0.0
 11
72.902062393946593
 21
302.76312563607308
 31
0.0
  0
LINE
  5
5C06
  8
0
 10
72.902062393946593
 20
302.76312563607308
 30
0.0
 11
64.241808356101956
 21
317.76312563607308
 31
0.0
  0
LINE
  5
5C07
  8
0
 10
64.241808356101956
 20
317.76312563607308
 30
0.0
 11
46.921300280413561
 21
317.76312563607308
 31
0.0
  0
LINE
  5
5C08
  8
0
 10
46.921300280413561
 20
317.76312563607308
 30
0.0
 11
38.26104624256913
 21
302.76312563607308
 31
0.0
  0
LINE
  5
5C09
  8
0
 10
38.26104624256913
 20
302.76312563607308
 30
0.0
 11
46.921300280413561
 21
287.76312563607303
 31
0.0
  0
CIRCLE
  5
5C0A
  8
0
 10
55.581554318257758
 20
302.76312563607308
 30
0.0
 40
14.5
  0
LINE
  5
5C0C
  8
0
 10
217.8593412214434
 20
30.080234509371621
 30
0.0
 11
137.8593412214434
 21
30.080234509371621
 31
0.0
  0
LINE
  5
5C0D
  8
0
 10
217.8593412214434
 20
30.080234509371621
 30
0.0
 11
217.8593412214434
 21
38.924939177661152
 31
0.0
  0
LINE
  5
5C0F
  8
0
 10
211.3593412214434
 20
42.111738275906191
 30
0.0
 11
144.3593412214434
 21
42.111738275906191
 31
0.0
  0
LINE
  5
5C10
  8
0
 10
205.3593412214434
 20
46.48276323797154
 30
0.0
 11
150.3593412214434
 21
46.48276323797154
 31
0.0
  0
LINE
  5
5C11
  8
0
 10
198.7097842725191
 20
49.37897310763173
 30
0.0
 11
157.00889817036759
 21
49.37897310763173
 31
0.0
  0
LINE
  5
5C12
  8
0
 10
191.8593412214434
 20
54.080234509371607
 30
0.0
 11
163.8593412214434
 21
54.080234509371607
 31
0.0
  0
LINE
  5
5C13
  8
0
 10
211.3593412214434
 20
42.111738275906191
 30
0.0
 11
211.3593412214434
 21
42.953125356653572
 31
0.0
  0
LINE
  5
5C14
  8
0
 10
211.3593412214434
 20
42.111738275906191
 30
0.0
 11
217.2183203007524
 21
39.858284783864292
 31
0.0
  0
LINE
  5
5C15
  8
0
 10
205.3593412214434
 20
46.48276323797154
 30
0.0
 11
210.7948174038315
 21
43.853325609137762
 31
0.0
  0
LINE
  5
5C16
  8
0
 10
198.7097842725191
 20
49.37897310763173
 30
0.0
 11
204.58744033491141
 21
48.001984688245557
 31
0.0
  0
LINE
  5
5C17
  8
0
 10
192.8593412214434
 20
52.48276323797154
 30
0.0
 11
162.8593412214434
 21
52.48276323797154
 31
0.0
  0
LINE
  5
5C18
  8
0
 10
192.8593412214434
 20
52.48276323797154
 30
0.0
 11
198.0195047712333
 21
50.801902953180388
 31
0.0
  0
LINE
  5
5C19
  8
0
 10
192.8593412214434
 20
53.080234509371607
 30
0.0
 11
192.8593412214434
 21
52.48276323797154
 31
0.0
  0
LINE
  5
5C1A
  8
0
 10
205.3593412214434
 20
46.48276323797154
 30
0.0
 11
205.3593412214434
 21
47.028346770724283
 31
0.0
  0
LINE
  5
5C1B
  8
0
 10
198.7097842725191
 20
49.37897310763173
 30
0.0
 11
198.7097842725191
 21
49.85107530703408
 31
0.0
  0
ARC
  5
5C1C
  8
0
 10
191.8593412214434
 20
53.080234509371607
 30
0.0
 40
1.0
 50
359.99999999999881
 51
90.0
  0
ARC
  5
5C1D
  8
0
 10
197.7097842725191
 20
49.85107530703408
 30
0.0
 40
1.0
 50
0.0
 51
71.957612741642507
  0
ARC
  5
5C1E
  8
0
 10
204.3593412214434
 20
47.028346770724283
 30
0.0
 40
1.0
 50
0.0
 51
76.814815600247385
  0
ARC
  5
5C1F
  8
0
 10
216.8593412214434
 20
38.924939177661152
 30
0.0
 40
1.0
 50
0.0
 51
68.962488974577596
  0
ARC
  5
5C20
  8
0
 10
210.3593412214434
 20
42.953125356653572
 30
0.0
 40
1.0
 50
0.0
 51
64.184402028349112
  0
ARC
  5
5C22
  8
0
 10
145.3593412214434
 20
42.953125356653572
 30
0.0
 40
1.0
 50
115.8155979716509
 51
180.0
  0
ARC
  5
5C23
  8
0
 10
138.8593412214434
 20
38.924939177661152
 30
0.0
 40
1.0
 50
111.0375110254224
 51
180.0
  0
ARC
  5
5C24
  8
0
 10
151.3593412214434
 20
47.028346770724283
 30
0.0
 40
1.0
 50
103.1851843997526
 51
180.0
  0
ARC
  5
5C25
  8
0
 10
158.00889817036759
 20
49.85107530703408
 30
0.0
 40
1.0
 50
108.04238725835749
 51
180.0
  0
ARC
  5
5C26
  8
0
 10
163.8593412214434
 20
53.080234509371607
 30
0.0
 40
1.0
 50
90.0
 51
180.0000000000008
  0
LINE
  5
5C27
  8
0
 10
157.00889817036759
 20
49.37897310763173
 30
0.0
 11
157.00889817036759
 21
49.85107530703408
 31
0.0
  0
LINE
  5
5C28
  8
0
 10
150.3593412214434
 20
46.48276323797154
 30
0.0
 11
150.3593412214434
 21
47.028346770724283
 31
0.0
  0
LINE
  5
5C29
  8
0
 10
162.8593412214434
 20
53.080234509371607
 30
0.0
 11
162.8593412214434
 21
52.48276323797154
 31
0.0
  0
LINE
  5
5C2A
  8
0
 10
162.8593412214434
 20
52.48276323797154
 30
0.0
 11
157.69917767165339
 21
50.801902953180388
 31
0.0
  0
LINE
  5
5C2B
  8
0
 10
157.00889817036759
 20
49.37897310763173
 30
0.0
 11
151.13124210797531
 21
48.001984688245557
 31
0.0
  0
LINE
  5
5C2C
  8
0
 10
150.3593412214434
 20
46.48276323797154
 30
0.0
 11
144.9238650390553
 21
43.853325609137762
 31
0.0
  0
LINE
  5
5C2D
  8
0
 10
144.3593412214434
 20
42.111738275906191
 30
0.0
 11
138.50036214213441
 21
39.858284783864292
 31
0.0
  0
LINE
  5
5C2E
  8
0
 10
144.3593412214434
 20
42.111738275906191
 30
0.0
 11
144.3593412214434
 21
42.953125356653572
 31
0.0
  0
LINE
  5
5C2F
  8
0
 10
137.8593412214434
 20
30.080234509371621
 30
0.0
 11
137.8593412214434
 21
38.924939177661152
 31
0.0
  0
CIRCLE
  5
5C32
  8
0
 10
55.581554318257758
 20
302.76312563607308
 30
0.0
 40
20.850443051075668
  0
CIRCLE
  5
5C33
  8
0
 10
55.581554318257758
 20
302.76312563607308
 30
0.0
 40
27.5
  0
CIRCLE
  5
5C34
  8
0
 10
55.581554318257758
 20
302.76312563607308
 30
0.0
 40
33.5
  0
LINE
  5
5C36
  8
0
 10
15.58155431825776
 20
30.080234509371621
 30
0.0
 11
15.58155431825776
 21
38.924939177661152
 31
0.0
  0
LINE
  5
5C37
  8
0
 10
22.081554318257758
 20
42.111738275906191
 30
0.0
 11
22.081554318257758
 21
42.953125356653572
 31
0.0
  0
LINE
  5
5C38
  8
0
 10
22.081554318257758
 20
42.111738275906191
 30
0.0
 11
16.222575238948821
 21
39.858284783864292
 31
0.0
  0
LINE
  5
5C39
  8
0
 10
28.081554318257758
 20
46.48276323797154
 30
0.0
 11
22.646078135869619
 21
43.853325609137762
 31
0.0
  0
LINE
  5
5C3A
  8
0
 10
34.731111267182087
 20
49.37897310763173
 30
0.0
 11
28.853455204789729
 21
48.001984688245557
 31
0.0
  0
LINE
  5
5C3B
  8
0
 10
40.581554318257758
 20
52.48276323797154
 30
0.0
 11
35.421390768467752
 21
50.801902953180388
 31
0.0
  0
LINE
  5
5C3C
  8
0
 10
40.581554318257758
 20
53.080234509371607
 30
0.0
 11
40.581554318257758
 21
52.48276323797154
 31
0.0
  0
LINE
  5
5C3D
  8
0
 10
28.081554318257758
 20
46.48276323797154
 30
0.0
 11
28.081554318257758
 21
47.028346770724283
 31
0.0
  0
LINE
  5
5C3E
  8
0
 10
34.731111267182087
 20
49.37897310763173
 30
0.0
 11
34.731111267182087
 21
49.85107530703408
 31
0.0
  0
ARC
  5
5C3F
  8
0
 10
41.581554318257737
 20
53.080234509371607
 30
0.0
 40
1.0
 50
90.0
 51
180.0000000000008
  0
ARC
  5
5C40
  8
0
 10
35.731111267182101
 20
49.85107530703408
 30
0.0
 40
1.0
 50
108.0423872583583
 51
180.0
  0
ARC
  5
5C41
  8
0
 10
29.081554318257758
 20
47.028346770724283
 30
0.0
 40
1.0
 50
103.1851843997528
 51
180.0
  0
ARC
  5
5C42
  8
0
 10
16.581554318257758
 20
38.924939177661152
 30
0.0
 40
1.0
 50
111.03751102542159
 51
180.0
  0
ARC
  5
5C43
  8
0
 10
23.081554318257758
 20
42.953125356653572
 30
0.0
 40
1.0
 50
115.8155979716511
 51
180.0
  0
ARC
  5
5C45
  8
0
 10
88.081554318257773
 20
42.953125356653572
 30
0.0
 40
1.0
 50
0.0
 51
64.184402028349112
  0
ARC
  5
5C46
  8
0
 10
94.581554318257787
 20
38.924939177661152
 30
0.0
 40
1.0
 50
0.0
 51
68.962488974578363
  0
ARC
  5
5C47
  8
0
 10
82.081554318257758
 20
47.028346770724283
 30
0.0
 40
1.0
 50
0.0
 51
76.814815600247385
  0
ARC
  5
5C48
  8
0
 10
75.431997369333445
 20
49.85107530703408
 30
0.0
 40
1.0
 50
0.0
 51
71.957612741641725
  0
ARC
  5
5C49
  8
0
 10
69.581554318257758
 20
53.080234509371607
 30
0.0
 40
1.0
 50
359.99999999999881
 51
90.0
  0
LINE
  5
5C4A
  8
0
 10
76.431997369333445
 20
49.37897310763173
 30
0.0
 11
76.431997369333445
 21
49.85107530703408
 31
0.0
  0
LINE
  5
5C4B
  8
0
 10
83.081554318257758
 20
46.48276323797154
 30
0.0
 11
83.081554318257758
 21
47.028346770724283
 31
0.0
  0
LINE
  5
5C4C
  8
0
 10
70.581554318257758
 20
53.080234509371607
 30
0.0
 11
70.581554318257758
 21
52.48276323797154
 31
0.0
  0
LINE
  5
5C4D
  8
0
 10
70.581554318257758
 20
52.48276323797154
 30
0.0
 11
75.741717868047786
 21
50.801902953180388
 31
0.0
  0
LINE
  5
5C4E
  8
0
 10
70.581554318257758
 20
52.48276323797154
 30
0.0
 11
40.581554318257758
 21
52.48276323797154
 31
0.0
  0
LINE
  5
5C4F
  8
0
 10
76.431997369333445
 20
49.37897310763173
 30
0.0
 11
82.309653431725792
 21
48.001984688245557
 31
0.0
  0
LINE
  5
5C50
  8
0
 10
83.081554318257758
 20
46.48276323797154
 30
0.0
 11
88.517030500645888
 21
43.853325609137762
 31
0.0
  0
LINE
  5
5C51
  8
0
 10
89.081554318257744
 20
42.111738275906191
 30
0.0
 11
94.940533397566682
 21
39.858284783864292
 31
0.0
  0
LINE
  5
5C52
  8
0
 10
89.081554318257744
 20
42.111738275906191
 30
0.0
 11
89.081554318257744
 21
42.953125356653572
 31
0.0
  0
LINE
  5
5C53
  8
0
 10
69.581554318257758
 20
54.080234509371607
 30
0.0
 11
41.581554318257737
 21
54.080234509371607
 31
0.0
  0
LINE
  5
5C54
  8
0
 10
76.431997369333445
 20
49.37897310763173
 30
0.0
 11
34.731111267182087
 21
49.37897310763173
 31
0.0
  0
LINE
  5
5C55
  8
0
 10
83.081554318257758
 20
46.48276323797154
 30
0.0
 11
28.081554318257758
 21
46.48276323797154
 31
0.0
  0
LINE
  5
5C56
  8
0
 10
89.081554318257744
 20
42.111738275906191
 30
0.0
 11
22.081554318257758
 21
42.111738275906191
 31
0.0
  0
LINE
  5
5C57
  8
1
 10
101.2958400325435
 20
302.76312563607308
 30
0.0
 11
9.867268603971981
 21
302.76312563607308
 31
0.0
  0
LINE
  5
5C58
  8
1
 10
55.581554318257758
 20
348.47741135035881
 30
0.0
 11
55.581554318257758
 21
257.04883992178719
 31
0.0
  0
CIRCLE
  5
5C59
  8
0
 10
55.581554318257758
 20
302.76312563607308
 30
0.0
 40
40.00000000000005
  0
LINE
  5
5C5B
  8
0
 10
95.581554318257773
 20
30.080234509371621
 30
0.0
 11
95.581554318257773
 21
38.924939177661152
 31
0.0
  0
LINE
  5
5C5C
  8
0
 10
95.581554318257773
 20
30.080234509371621
 30
0.0
 11
15.58155431825776
 21
30.080234509371621
 31
0.0
  0
TEXT
  5
5F8E
  8
0
 62
     3
 10
0.0
 20
0.0
 30
0.0
 40
10.0
  1
LVE80L20C
  7
STANDARD1
  0
ENDSEC
  0
EOF
