  0
SECTION
  2
HEADER
  9
$ACADVER
  1
AC1009
  9
$INSBASE
 10
0.0
 20
0.0
 30
0.0
  9
$EXTMIN
 10
0.0
 20
-2.960436562073669
 30
0.0
  9
$EXTMAX
 10
192.61393858172309
 20
203.08941231343749
 30
0.0
  9
$LIMMIN
 10
0.0
 20
0.0
  9
$LIMMAX
 10
375.0
 20
270.0
  9
$ORTHOMODE
 70
     1
  9
$REGENMODE
 70
     1
  9
$FILLMODE
 70
     1
  9
$QTEXTMODE
 70
     0
  9
$MIRRTEXT
 70
     0
  9
$DRAGMODE
 70
     2
  9
$LTSCALE
 40
6.0
  9
$OSMODE
 70
    37
  9
$ATTMODE
 70
     1
  9
$TEXTSIZE
 40
0.2
  9
$TRACEWID
 40
0.05
  9
$TEXTSTYLE
  7
STANDARD
  9
$CLAYER
  8
0
  9
$CELTYPE
  6
BYLAYER
  9
$CECOLOR
 62
   256
  9
$DIMSCALE
 40
1.0
  9
$DIMASZ
 40
3.0
  9
$DIMEXO
 40
1.0
  9
$DIMDLI
 40
6.0
  9
$DIMRND
 40
0.0
  9
$DIMDLE
 40
0.0
  9
$DIMEXE
 40
1.0
  9
$DIMTP
 40
495.0
  9
$DIMTM
 40
0.0
  9
$DIMTXT
 40
3.0
  9
$DIMCEN
 40
0.0
  9
$DIMTSZ
 40
0.0
  9
$DIMTOL
 70
     0
  9
$DIMLIM
 70
     0
  9
$DIMTIH
 70
     0
  9
$DIMTOH
 70
     0
  9
$DIMSE1
 70
     0
  9
$DIMSE2
 70
     0
  9
$DIMTAD
 70
     1
  9
$DIMZIN
 70
     0
  9
$DIMBLK
  1

  9
$DIMASO
 70
     0
  9
$DIMSHO
 70
     0
  9
$DIMPOST
  1

  9
$DIMAPOST
  1

  9
$DIMALT
 70
     0
  9
$DIMALTD
 70
     2
  9
$DIMALTF
 40
25.399999999999999
  9
$DIMLFAC
 40
1.0
  9
$DIMTOFL
 70
     1
  9
$DIMTVP
 40
0.0
  9
$DIMTIX
 70
     1
  9
$DIMSOXD
 70
     0
  9
$DIMSAH
 70
     0
  9
$DIMBLK1
  1

  9
$DIMBLK2
  1

  9
$DIMSTYLE
  2
STANDARD
  9
$DIMCLRD
 70
     0
  9
$DIMCLRE
 70
     0
  9
$DIMCLRT
 70
     4
  9
$DIMTFAC
 40
1.0
  9
$DIMGAP
 40
1.0
  9
$LUNITS
 70
     2
  9
$LUPREC
 70
     4
  9
$SKETCHINC
 40
0.1
  9
$FILLETRAD
 40
2.0
  9
$AUNITS
 70
     0
  9
$AUPREC
 70
     0
  9
$MENU
  1
C:\R13\WIN\SUPPORT\ACAD-I
  9
$ELEVATION
 40
0.0
  9
$PELEVATION
 40
0.0
  9
$THICKNESS
 40
0.0
  9
$LIMCHECK
 70
     0
  9
$BLIPMODE
 70
     0
  9
$CHAMFERA
 40
0.0
  9
$CHAMFERB
 40
0.0
  9
$SKPOLY
 70
     0
  9
$TDCREATE
 40
2451962.4248149772
  9
$TDUPDATE
 40
2456598.7217409029
  9
$TDINDWG
 40
0.0229539583
  9
$TDUSRTIMER
 40
2456598.062213229
  9
$USRTIMER
 70
     1
  9
$ANGBASE
 50
0.0
  9
$ANGDIR
 70
     0
  9
$PDMODE
 70
     0
  9
$PDSIZE
 40
0.0
  9
$PLINEWID
 40
0.0
  9
$COORDS
 70
     1
  9
$SPLFRAME
 70
     0
  9
$SPLINETYPE
 70
     6
  9
$SPLINESEGS
 70
     8
  9
$ATTDIA
 70
     0
  9
$ATTREQ
 70
     1
  9
$HANDLING
 70
     1
  9
$HANDSEED
  5
46F9
  9
$SURFTAB1
 70
     6
  9
$SURFTAB2
 70
     6
  9
$SURFTYPE
 70
     6
  9
$SURFU
 70
     6
  9
$SURFV
 70
     6
  9
$UCSNAME
  2

  9
$UCSORG
 10
0.0
 20
0.0
 30
0.0
  9
$UCSXDIR
 10
1.0
 20
0.0
 30
0.0
  9
$UCSYDIR
 10
0.0
 20
1.0
 30
0.0
  9
$PUCSNAME
  2

  9
$PUCSORG
 10
0.0
 20
0.0
 30
0.0
  9
$PUCSXDIR
 10
1.0
 20
0.0
 30
0.0
  9
$PUCSYDIR
 10
0.0
 20
1.0
 30
0.0
  9
$USERI1
 70
     4
  9
$USERI2
 70
     1
  9
$USERI3
 70
     0
  9
$USERI4
 70
     0
  9
$USERI5
 70
     0
  9
$USERR1
 40
1.0
  9
$USERR2
 40
3.0
  9
$USERR3
 40
3.0
  9
$USERR4
 40
3.0
  9
$USERR5
 40
10.0
  9
$WORLDVIEW
 70
     1
  9
$SHADEDGE
 70
     3
  9
$SHADEDIF
 70
    70
  9
$TILEMODE
 70
     1
  9
$MAXACTVP
 70
    16
  9
$PLIMCHECK
 70
     0
  9
$PEXTMIN
 10
1.0000000000000000E+020
 20
1.0000000000000000E+020
 30
1.0000000000000000E+020
  9
$PEXTMAX
 10
-1.0000000000000000E+020
 20
-1.0000000000000000E+020
 30
-1.0000000000000000E+020
  9
$PLIMMIN
 10
0.0
 20
0.0
  9
$PLIMMAX
 10
12.0
 20
9.0
  9
$UNITMODE
 70
     0
  9
$VISRETAIN
 70
     0
  9
$PLINEGEN
 70
     0
  9
$PSLTSCALE
 70
     0
  0
ENDSEC
  0
SECTION
  2
TABLES
  0
TABLE
  2
VPORT
 70
     1
  0
VPORT
  2
*ACTIVE
 70
     0
 10
0.0
 20
0.0
 11
1.0
 21
1.0
 12
187.49427839065231
 22
177.52205812711131
 13
0.0
 23
0.0
 14
10.0
 24
10.0
 15
10.0
 25
10.0
 16
0.0
 26
0.0
 36
1.0
 17
0.0
 27
0.0
 37
0.0
 40
364.13085016302909
 41
1.755244755244755
 42
50.0
 43
0.0
 44
0.0
 50
0.0
 51
0.0
 71
    16
 72
   100
 73
     1
 74
     0
 75
     0
 76
     0
 77
     0
 78
     0
  0
ENDTAB
  0
TABLE
  2
LTYPE
 70
     3
  0
LTYPE
  2
CONTINUOUS
 70
     0
  3
Solid Line
 72
    65
 73
     0
 40
0.0
  0
LTYPE
  2
PHANTOM2
 70
     0
  3
___ _ _ ___ _ _ ___ _ _ ___ _ _
 72
    65
 73
     6
 40
1.25
 49
0.625
 49
-0.125
 49
0.125
 49
-0.125
 49
0.125
 49
-0.125
  0
LTYPE
  2
CENTER
 70
     0
  3
____ _ ____ _ ____ _ ____ _ ____ _ ____ _ ____
 72
    65
 73
     4
 40
2.0
 49
1.25
 49
-0.25
 49
0.25
 49
-0.25
  0
ENDTAB
  0
TABLE
  2
LAYER
 70
     3
  0
LAYER
  2
0
 70
     0
 62
     7
  6
CONTINUOUS
  0
LAYER
  2
1
 70
     0
 62
     1
  6
CENTER
  0
LAYER
  2
3
 70
     0
 62
     3
  6
CONTINUOUS
  0
ENDTAB
  0
TABLE
  2
STYLE
 70
     3
  0
STYLE
  2
STANDARD
 70
     0
 40
0.0
 41
1.0
 50
0.0
 71
     0
 42
0.2
  3
SIMPLEX
  4
BIGFONT
  0
STYLE
  2
ANNOTATIVE
 70
     0
 40
0.0
 41
1.0
 50
0.0
 71
     0
 42
0.2
  3
txt
  4

  0
STYLE
  2
STANDARD1
 70
     0
 40
0.0
 41
1.0
 50
0.0
 71
     0
 42
3.0
  3
txt
  4

  0
ENDTAB
  0
TABLE
  2
VIEW
 70
     0
  0
ENDTAB
  0
TABLE
  2
UCS
 70
     0
  0
ENDTAB
  0
TABLE
  2
APPID
 70
    29
  0
APPID
  2
ACAD
 70
     0
  0
APPID
  2
ACADANNOTATIVE
 70
     0
  0
APPID
  2
GENIUS_GENOREF_13
 70
     0
  0
APPID
  2
GENIUS_GENOENT_13
 70
     0
  0
APPID
  2
GENIUS_GENBH_13
 70
     0
  0
APPID
  2
GENIUS_GENOBJ_13
 70
     0
  0
APPID
  2
GENIUS_GENODEF_13
 70
     0
  0
APPID
  2
GENIUS_GENOLIS_13
 70
     0
  0
APPID
  2
GENIUS_GENOBJ-NBEHI-BHF_13
 70
     0
  0
APPID
  2
GENIUS_GENOBJ-NBEHI-BHB_13
 70
     0
  0
APPID
  2
GENIUS_GENOBJ-F-PART_13
 70
     0
  0
APPID
  2
GENIUS_GEFSTDP_13
 70
     0
  0
APPID
  2
GENIUS_GENOBJ-N-RSSYM_13
 70
     0
  0
APPID
  2
GENIUS_GENSYMENT_13
 70
     0
  0
APPID
  2
GENIUS_GENOBJ-N-TIT_13
 70
     0
  0
APPID
  2
GENIUS_GENTITLE_13
 70
     0
  0
APPID
  2
GENIUS_GENZVEED_13
 70
     0
  0
APPID
  2
GENIUS_GENOBJ-N-LEADER_13
 70
     0
  0
APPID
  2
GENIUS_GENOBJ-N-FIL_13
 70
     0
  0
APPID
  2
GENIUS_GENOBJ-N-SEC_13
 70
     0
  0
APPID
  2
GENIUS_GENOBJ-N-CRS_13
 70
     0
  0
APPID
  2
GENIUS_GENOBJ-N-ZOO_13
 70
     0
  0
APPID
  2
GENIUS_GENZOO_13
 70
     0
  0
APPID
  2
GENIUS_GENOBJ-F-TOL_13
 70
     0
  0
APPID
  2
GENIUS_GENFIL_13
 70
     0
  0
APPID
  2
GENIUS_GENOBJ-N-CHA_13
 70
     0
  0
APPID
  2
ACAD_EXEMPT_FROM_CAD_STANDARDS
 70
     0
  0
APPID
  2
ACAD_MLEADERVER
 70
     0
  0
APPID
  2
ACAD_NAV_VCDISPLAY
 70
     0
  0
ENDTAB
  0
TABLE
  2
DIMSTYLE
 70
     2
  0
DIMSTYLE
  2
STANDARD
 70
     0
  3

  4

  5

  6

  7

 40
1.0
 41
0.18
 42
0.0625
 43
0.38
 44
0.18
 45
0.0
 46
0.0
 47
0.0
 48
0.0
140
0.18
141
0.09
142
0.0
143
25.399999999999999
144
1.0
145
0.0
146
1.0
147
0.09
 71
     0
 72
     0
 73
     1
 74
     1
 75
     0
 76
     0
 77
     0
 78
     0
170
     0
171
     2
172
     0
173
     0
174
     0
175
     0
176
     0
177
     0
178
     0
  0
DIMSTYLE
  2
ANNOTATIVE
 70
     0
  3

  4

  5

  6

  7

 40
1.0
 41
0.18
 42
0.0625
 43
0.38
 44
0.18
 45
0.0
 46
0.0
 47
0.0
 48
0.0
140
0.18
141
0.09
142
0.0
143
25.399999999999999
144
1.0
145
0.0
146
1.0
147
0.09
 71
     0
 72
     0
 73
     1
 74
     1
 75
     0
 76
     0
 77
     0
 78
     0
170
     0
171
     2
172
     0
173
     0
174
     0
175
     0
176
     0
177
     0
178
     0
  0
ENDTAB
  0
ENDSEC
  0
SECTION
  2
BLOCKS
  0
BLOCK
  8
0
  2
$MODEL_SPACE
 70
     0
 10
0.0
 20
0.0
 30
0.0
  3
$MODEL_SPACE
  1

  0
ENDBLK
  5
45C0
  8
0
  0
BLOCK
 67
     1
  8
0
  2
$PAPER_SPACE
 70
     0
 10
0.0
 20
0.0
 30
0.0
  3
$PAPER_SPACE
  1

  0
ENDBLK
  5
45BC
 67
     1
  8
0
  0
ENDSEC
  0
SECTION
  2
ENTITIES
  0
LINE
  5
41AE
  8
0
 10
163.11393858172329
 20
44.81734259253836
 30
0.0
 11
163.11393858172329
 21
48.817342592538452
 31
0.0
  0
LINE
  5
41AF
  8
0
 10
152.11393858172329
 20
44.81734259253836
 30
0.0
 11
152.11393858172329
 21
48.817342592538452
 31
0.0
  0
LINE
  5
41B0
  8
0
 10
154.81393858172319
 20
96.817342592538338
 30
0.0
 11
160.41393858172319
 21
96.817342592538324
 31
0.0
  0
LINE
  5
41B1
  8
0
 10
161.6139385817232
 20
53.817342592538317
 30
0.0
 11
161.6139385817232
 21
66.817342592538296
 31
0.0
  0
LINE
  5
41B2
  8
3
 10
160.93743858172331
 20
55.817342592538353
 30
0.0
 11
160.93743858172331
 21
66.817342592538296
 31
0.0
  0
LINE
  5
41B3
  8
3
 10
154.29043858172301
 20
55.817342592538402
 30
0.0
 11
154.29043858172301
 21
66.817342592538296
 31
0.0
  0
LINE
  5
41B4
  8
0
 10
153.6139385817232
 20
53.817342592538317
 30
0.0
 11
153.6139385817232
 21
66.817342592538296
 31
0.0
  0
LINE
  5
41B5
  8
0
 10
153.6139385817232
 20
95.617342592538364
 30
0.0
 11
154.81393858172319
 21
96.817342592538338
 31
0.0
  0
LINE
  5
41B6
  8
0
 10
160.41393858172319
 20
96.817342592538324
 30
0.0
 11
161.6139385817232
 21
95.617342592538293
 31
0.0
  0
LINE
  5
41B7
  8
0
 10
153.6139385817232
 20
95.617342592538421
 30
0.0
 11
161.6139385817232
 21
95.617342592538293
 31
0.0
  0
LINE
  5
41B8
  8
0
 10
153.6139385817232
 20
55.817342592538402
 30
0.0
 11
161.6139385817232
 21
55.817342592538353
 31
0.0
  0
LINE
  5
41B9
  8
3
 10
154.29043858172301
 20
55.817342592538402
 30
0.0
 11
153.6139385817232
 21
54.645610221218298
 31
0.0
  0
LINE
  5
41BA
  8
3
 10
160.93743858172331
 20
55.817342592538402
 30
0.0
 11
161.61393858172309
 21
54.645610221218298
 31
0.0
  0
LINE
  5
41BB
  8
0
 10
164.11393858172329
 20
73.173005025240258
 30
0.0
 11
163.86393858172221
 21
73.317342592538324
 31
0.0
  0
ARC
  5
41BC
  8
0
 10
160.86393858172329
 20
63.78585288999156
 30
0.0
 40
9.3871521352487513
 50
69.743841999583026
 51
110.256158000417
  0
ARC
  5
41BD
  8
0
 10
160.86393858172329
 20
76.34883229508506
 30
0.0
 40
9.3871521352487513
 50
249.7438419995832
 51
290.2561580004168
  0
LINE
  5
41BE
  8
0
 10
164.11393858172329
 20
66.961680159836362
 30
0.0
 11
163.86393858172221
 21
66.817342592538296
 31
0.0
  0
LINE
  5
41BF
  8
0
 10
164.11393858172329
 20
73.173005025240258
 30
0.0
 11
164.11393858172329
 21
66.961680159836362
 31
0.0
  0
LINE
  5
41C0
  8
0
 10
157.6139385817234
 20
72.592448441639107
 30
0.0
 11
157.6139385817234
 21
67.542236743437115
 31
0.0
  0
LINE
  5
41C1
  8
0
 10
151.1139385817238
 20
73.173005025240258
 30
0.0
 11
151.1139385817238
 21
66.961680159836362
 31
0.0
  0
LINE
  5
41C2
  8
0
 10
151.1139385817238
 20
66.961680159836362
 30
0.0
 11
151.36393858172491
 21
66.817342592538296
 31
0.0
  0
ARC
  5
41C3
  8
0
 10
154.3639385817238
 20
76.34883229508506
 30
0.0
 40
9.3871521352487513
 50
249.7438419995832
 51
290.2561580004168
  0
ARC
  5
41C4
  8
0
 10
154.3639385817238
 20
63.78585288999156
 30
0.0
 40
9.3871521352487513
 50
69.743841999583026
 51
110.256158000417
  0
LINE
  5
41C5
  8
0
 10
151.1139385817238
 20
73.173005025240258
 30
0.0
 11
151.36393858172491
 21
73.317342592538324
 31
0.0
  0
LINE
  5
41C6
  8
0
 10
151.36393858172491
 20
73.317342592538324
 30
0.0
 11
163.86393858172221
 21
73.317342592538324
 31
0.0
  0
LINE
  5
41C7
  8
0
 10
163.86393858172221
 20
66.817342592538296
 30
0.0
 11
151.36393858172491
 21
66.817342592538296
 31
0.0
  0
ARC
  5
41C8
  8
0
 10
151.55176075523221
 20
50.083750287655668
 30
0.0
 40
3.5781518477924039
 50
55.615752531961242
 51
115.6157525321737
  0
ARC
  5
41C9
  8
0
 10
157.61393858172411
 20
40.287116917794322
 30
0.0
 40
13.374785217653811
 50
72.412046225996946
 51
107.5879537740046
  0
LINE
  5
41CA
  8
0
 10
149.5310348130684
 20
53.036687353108817
 30
0.0
 11
150.88316935095509
 21
53.817342592538353
 31
0.0
  0
LINE
  5
41CB
  8
0
 10
149.5310348130684
 20
49.59799783196803
 30
0.0
 11
150.88316935095509
 21
48.817342592538452
 31
0.0
  0
ARC
  5
41CC
  8
0
 10
151.55176075523221
 20
52.550934897421129
 30
0.0
 40
3.5781518477924039
 50
244.3842474678259
 51
304.38424746803872
  0
ARC
  5
41CD
  8
0
 10
157.61393858172411
 20
62.347568267282497
 30
0.0
 40
13.374785217653811
 50
252.4120462259954
 51
287.5879537740031
  0
LINE
  5
41CE
  8
0
 10
149.5310348130684
 20
53.036687353108817
 30
0.0
 11
149.5310348130684
 21
49.59799783196803
 31
0.0
  0
LINE
  5
41CF
  8
0
 10
153.57248669739741
 20
53.036687353107652
 30
0.0
 11
153.57248669739579
 21
49.597997831969678
 31
0.0
  0
LINE
  5
41D0
  8
0
 10
161.6553904660488
 20
53.03668735310935
 30
0.0
 11
161.65539046605059
 21
49.597997831969678
 31
0.0
  0
LINE
  5
41D1
  8
0
 10
165.69684235037789
 20
53.03668735310886
 30
0.0
 11
165.69684235037801
 21
49.59799783196803
 31
0.0
  0
ARC
  5
41D2
  8
0
 10
163.6761164082142
 20
52.550934897421129
 30
0.0
 40
3.5781518477924039
 50
235.61575253196131
 51
295.6157525321737
  0
LINE
  5
41D3
  8
0
 10
165.69684235037801
 20
49.59799783196803
 30
0.0
 11
164.34470781249109
 21
48.817342592538452
 31
0.0
  0
LINE
  5
41D4
  8
0
 10
165.69684235037801
 20
53.036687353108817
 30
0.0
 11
164.34470781249109
 21
53.817342592538353
 31
0.0
  0
ARC
  5
41D5
  8
0
 10
163.6761164082142
 20
50.083750287655668
 30
0.0
 40
3.5781518477924039
 50
64.384247467825787
 51
124.38424746803869
  0
LINE
  5
41D6
  8
0
 10
150.88316935095389
 20
53.817342592538353
 30
0.0
 11
164.3447078124909
 21
53.817342592538353
 31
0.0
  0
LINE
  5
41D7
  8
0
 10
164.34470781249109
 20
48.817342592538452
 30
0.0
 11
150.8831693509554
 21
48.817342592538452
 31
0.0
  0
LINE
  5
41D8
  8
3
 10
160.93743858172331
 20
73.317342592538353
 30
0.0
 11
160.93743858172331
 21
96.293842592538226
 31
0.0
  0
LINE
  5
41D9
  8
0
 10
161.6139385817232
 20
73.317342592538324
 30
0.0
 11
161.6139385817232
 21
95.617342592538293
 31
0.0
  0
LINE
  5
41DA
  8
3
 10
154.29043858172301
 20
73.317342592538324
 30
0.0
 11
154.29043858172309
 21
96.293842592538255
 31
0.0
  0
LINE
  5
41DB
  8
0
 10
153.6139385817232
 20
73.317342592538353
 30
0.0
 11
153.6139385817232
 21
95.617342592538364
 31
0.0
  0
LINE
  5
41DC
  8
0
 10
168.0751437235655
 20
44.110235811351799
 30
0.0
 11
169.08934841778881
 21
43.096031117128462
 31
0.0
  0
LINE
  5
41E4
  8
0
 10
192.61393858172309
 20
31.620621281062849
 30
0.0
 11
192.61393858172309
 21
32.024131613778387
 31
0.0
  0
LINE
  5
41EB
  8
0
 10
192.61393858172309
 20
26.317342592538381
 30
0.0
 11
192.61393858172309
 21
31.620621281062849
 31
0.0
  0
LINE
  5
41ED
  8
0
 10
192.1139385817232
 20
25.817342592538381
 30
0.0
 11
192.61393858172309
 21
26.317342592538381
 31
0.0
  0
LINE
  5
41EE
  8
0
 10
186.87623366369041
 20
34.489473740079291
 30
0.0
 11
191.90128646728959
 21
32.981957898999553
 31
0.0
  0
LINE
  5
41EF
  8
0
 10
186.8631907339674
 20
34.489473740079291
 30
0.0
 11
186.8631907339674
 21
34.893470974303568
 31
0.0
  0
LINE
  5
41F0
  8
0
 10
181.13852874565771
 20
37.358326199095728
 30
0.0
 11
186.1511390796835
 21
35.851116916288049
 31
0.0
  0
LINE
  5
41F1
  8
0
 10
174.8270533358214
 20
40.227178658112017
 30
0.0
 11
174.8270533358216
 21
40.630688990827529
 31
0.0
  0
LINE
  5
41F2
  8
0
 10
181.13852874565771
 20
37.358326199095593
 30
0.0
 11
181.13852874565771
 21
37.742071341702967
 31
0.0
  0
LINE
  5
41F3
  8
0
 10
174.8270533358214
 20
40.227178658112017
 30
0.0
 11
180.4016461514498
 21
38.70683516294072
 31
0.0
  0
LINE
  5
41F4
  8
0
 10
169.08934841778881
 20
43.096031117128462
 30
0.0
 11
174.11440122138791
 21
41.588515276048689
 31
0.0
  0
ARC
  5
41F5
  8
0
 10
191.61393858172309
 20
32.024131613778387
 30
0.0
 40
1.0
 50
0.0
 51
73.300755766005366
  0
ARC
  5
41F6
  8
0
 10
185.8631907339674
 20
34.893470974303568
 30
0.0
 40
1.0
 50
0.0
 51
73.264833729934836
  0
ARC
  5
41F7
  8
0
 10
180.13852874565771
 20
37.742071341702967
 30
0.0
 40
1.0
 50
0.0
 51
74.744881296941827
  0
ARC
  5
41F8
  8
0
 10
173.8270533358216
 20
40.630688990827529
 30
0.0
 40
1.0
 50
0.0
 51
73.30075576600548
  0
LINE
  5
41F9
  8
0
 10
168.0751437235655
 20
44.110235811351799
 30
0.0
 11
166.36803694237901
 21
44.817342592538381
 31
0.0
  0
LINE
  5
41FC
  8
0
 10
147.15273343988079
 20
44.110235811351799
 30
0.0
 11
148.85984022106729
 21
44.817342592538381
 31
0.0
  0
ARC
  5
41FD
  8
0
 10
141.40082382762481
 20
40.630688990827529
 30
0.0
 40
1.0
 50
106.69924423399451
 51
180.0
  0
ARC
  5
41FE
  8
0
 10
135.0893484177887
 20
37.742071341702967
 30
0.0
 40
1.0
 50
105.2551187030581
 51
180.0
  0
ARC
  5
41FF
  8
0
 10
129.36468642947901
 20
34.893470974303568
 30
0.0
 40
1.0
 50
106.73516627006509
 51
180.0
  0
ARC
  5
4200
  8
0
 10
123.6139385817231
 20
32.024131613778387
 30
0.0
 40
1.0
 50
106.6992442339938
 51
180.0
  0
LINE
  5
4201
  8
0
 10
146.13852874565751
 20
43.096031117128462
 30
0.0
 11
141.11347594205839
 21
41.588515276048689
 31
0.0
  0
LINE
  5
4202
  8
0
 10
140.40082382762481
 20
40.227178658112017
 30
0.0
 11
134.8262310119965
 21
38.70683516294072
 31
0.0
  0
LINE
  5
4203
  8
0
 10
134.0893484177887
 20
37.358326199095593
 30
0.0
 11
134.0893484177887
 21
37.742071341702967
 31
0.0
  0
LINE
  5
4204
  8
0
 10
140.40082382762481
 20
40.227178658112017
 30
0.0
 11
140.40082382762481
 21
40.630688990827529
 31
0.0
  0
LINE
  5
4205
  8
0
 10
134.0893484177887
 20
37.358326199095728
 30
0.0
 11
129.0767380837629
 21
35.851116916288049
 31
0.0
  0
LINE
  5
4206
  8
0
 10
128.36468642947901
 20
34.489473740079291
 30
0.0
 11
128.36468642947901
 21
34.893470974303568
 31
0.0
  0
LINE
  5
4207
  8
0
 10
128.35164349975591
 20
34.489473740079291
 30
0.0
 11
123.3265906961568
 21
32.981957898999553
 31
0.0
  0
LINE
  5
4208
  8
0
 10
123.1139385817231
 20
25.817342592538381
 30
0.0
 11
122.6139385817231
 21
26.317342592538381
 31
0.0
  0
LINE
  5
420A
  8
0
 10
122.6139385817231
 20
26.317342592538381
 30
0.0
 11
122.6139385817231
 21
31.620621281062849
 31
0.0
  0
LINE
  5
4211
  8
0
 10
122.6139385817231
 20
31.620621281062849
 30
0.0
 11
122.6139385817231
 21
32.024131613778387
 31
0.0
  0
LINE
  5
4212
  8
0
 10
148.85984022106729
 20
44.817342592538381
 30
0.0
 11
166.36803694237909
 21
44.817342592538381
 31
0.0
  0
LINE
  5
4213
  8
0
 10
146.13852874565751
 20
43.096031117128462
 30
0.0
 11
169.08934841778881
 21
43.096031117128462
 31
0.0
  0
LINE
  5
4214
  8
0
 10
140.40082382762481
 20
40.227178658112017
 30
0.0
 11
174.8270533358214
 21
40.227178658112017
 31
0.0
  0
LINE
  5
4215
  8
0
 10
134.0893484177887
 20
37.358326199095728
 30
0.0
 11
181.13852874565771
 21
37.358326199095728
 31
0.0
  0
LINE
  5
4216
  8
0
 10
128.35164349975591
 20
34.489473740079291
 30
0.0
 11
186.87623366369041
 21
34.489473740079291
 31
0.0
  0
LINE
  5
4217
  8
0
 10
123.1139385817231
 20
25.817342592538381
 30
0.0
 11
192.1139385817232
 21
25.817342592538381
 31
0.0
  0
LINE
  5
4218
  8
0
 10
122.6139385817231
 20
31.620621281062849
 30
0.0
 11
192.61393858172309
 21
31.620621281062849
 31
0.0
  0
LINE
  5
4219
  8
0
 10
147.15273343988079
 20
44.110235811351799
 30
0.0
 11
146.13852874565751
 21
43.096031117128462
 31
0.0
  0
LINE
  5
421A
  8
1
 10
157.6139385817232
 20
20.817342592538381
 30
0.0
 11
157.6139385817232
 21
101.8173425925383
 31
0.0
  0
CIRCLE
  5
421B
  8
0
 10
50.613905823011933
 20
163.08941231343741
 30
0.0
 40
4.0
  0
CIRCLE
  5
421C
  8
3
 10
50.613905823011933
 20
163.08941231343741
 30
0.0
 40
3.3235000000000001
  0
CIRCLE
  5
421D
  8
0
 10
50.613905823011933
 20
163.08941231343741
 30
0.0
 40
6.25
  0
LINE
  5
421E
  8
0
 10
43.108352323547109
 20
163.08941231343741
 30
0.0
 11
46.861129073279493
 21
156.58941231343761
 31
0.0
  0
LINE
  5
421F
  8
0
 10
46.861129073279493
 20
169.58941231343721
 30
0.0
 11
43.108352323547109
 21
163.08941231343741
 31
0.0
  0
LINE
  5
4220
  8
0
 10
54.366682572744281
 20
169.58941231343721
 30
0.0
 11
46.861129073279493
 21
169.58941231343721
 31
0.0
  0
LINE
  5
4221
  8
0
 10
58.119459322476672
 20
163.08941231343741
 30
0.0
 11
54.366682572744281
 21
169.58941231343721
 31
0.0
  0
LINE
  5
4222
  8
0
 10
54.366682572744281
 20
156.58941231343761
 30
0.0
 11
58.119459322476672
 21
163.08941231343741
 31
0.0
  0
LINE
  5
4223
  8
0
 10
46.861129073279493
 20
156.58941231343761
 30
0.0
 11
54.366682572744281
 21
156.58941231343761
 31
0.0
  0
ARC
  5
4224
  8
0
 10
54.113905823011748
 20
59.082023810666009
 30
0.0
 40
10.10924076103746
 50
249.74384199958311
 51
290.25615800041692
  0
LINE
  5
4225
  8
0
 10
57.613905823011848
 20
48.972783049628589
 30
0.0
 11
57.344675053779859
 21
48.817342592538381
 31
0.0
  0
LINE
  5
4226
  8
0
 10
43.613905823011862
 20
48.972783049628589
 30
0.0
 11
43.883136592243879
 21
48.817342592538381
 31
0.0
  0
ARC
  5
4227
  8
0
 10
47.11390582301199
 20
59.082023810666009
 30
0.0
 40
10.10924076103746
 50
249.74384199958311
 51
290.25615800041692
  0
LINE
  5
4228
  8
0
 10
57.344675053779859
 20
48.817342592538381
 30
0.0
 11
43.883136592243879
 21
48.817342592538381
 31
0.0
  0
ARC
  5
4229
  8
0
 10
54.113905823011748
 20
43.552661374410718
 30
0.0
 40
10.10924076103746
 50
69.743841999583069
 51
110.2561580004169
  0
LINE
  5
422A
  8
0
 10
57.613905823011848
 20
53.661902135448102
 30
0.0
 11
57.344675053779859
 21
53.817342592538388
 31
0.0
  0
LINE
  5
422B
  8
0
 10
43.613905823011862
 20
53.661902135448102
 30
0.0
 11
43.883136592243879
 21
53.817342592538388
 31
0.0
  0
ARC
  5
422C
  8
0
 10
47.11390582301199
 20
43.552661374410718
 30
0.0
 40
10.10924076103746
 50
69.743841999583069
 51
110.2561580004169
  0
LINE
  5
422D
  8
0
 10
57.344675053779859
 20
53.817342592538388
 30
0.0
 11
43.883136592243879
 21
53.817342592538388
 31
0.0
  0
LINE
  5
422E
  8
0
 10
57.613905823011848
 20
53.661902135448102
 30
0.0
 11
57.613905823011848
 21
48.972783049628589
 31
0.0
  0
LINE
  5
422F
  8
0
 10
43.613905823011862
 20
53.661902135448102
 30
0.0
 11
43.613905823011862
 21
48.972783049628589
 31
0.0
  0
LINE
  5
4230
  8
0
 10
50.613905823011862
 20
53.036687353108931
 30
0.0
 11
50.61390582301182
 21
49.597997831967788
 31
0.0
  0
LINE
  5
4231
  8
3
 10
53.937405823011972
 20
55.817342592538431
 30
0.0
 11
54.613905823011848
 21
54.645610221218327
 31
0.0
  0
LINE
  5
4232
  8
3
 10
47.290405823011753
 20
55.817342592538431
 30
0.0
 11
46.613905823011898
 21
54.645610221218327
 31
0.0
  0
LINE
  5
4233
  8
0
 10
46.613905823011848
 20
55.817342592538431
 30
0.0
 11
54.613905823011912
 21
55.817342592538367
 31
0.0
  0
LINE
  5
4234
  8
0
 10
46.613905823011848
 20
95.617342592538435
 30
0.0
 11
54.613905823011912
 21
95.61734259253835
 31
0.0
  0
LINE
  5
4235
  8
0
 10
53.413905823011902
 20
96.817342592538338
 30
0.0
 11
54.613905823011912
 21
95.61734259253835
 31
0.0
  0
LINE
  5
4236
  8
0
 10
46.613905823011919
 20
95.617342592538364
 30
0.0
 11
47.813905823011901
 21
96.817342592538381
 31
0.0
  0
LINE
  5
4237
  8
0
 10
46.613905823011848
 20
53.817342592538388
 30
0.0
 11
46.613905823011898
 21
66.817342592538324
 31
0.0
  0
LINE
  5
4238
  8
3
 10
47.290405823011781
 20
55.817342592538431
 30
0.0
 11
47.290405823011781
 21
66.817342592538324
 31
0.0
  0
LINE
  5
4239
  8
3
 10
53.937405823012
 20
55.817342592538402
 30
0.0
 11
53.937405823012
 21
66.817342592538353
 31
0.0
  0
LINE
  5
423A
  8
0
 10
54.613905823011898
 20
53.817342592538388
 30
0.0
 11
54.613905823011848
 21
66.817342592538324
 31
0.0
  0
LINE
  5
423B
  8
0
 10
47.813905823011901
 20
96.817342592538381
 30
0.0
 11
53.413905823011902
 21
96.817342592538338
 31
0.0
  0
LINE
  5
423C
  8
0
 10
45.113905823011969
 20
44.817342592538381
 30
0.0
 11
45.11390582301199
 21
48.817342592538381
 31
0.0
  0
LINE
  5
423D
  8
0
 10
56.113905823011969
 20
44.817342592538381
 30
0.0
 11
56.113905823012011
 21
48.817342592538381
 31
0.0
  0
ARC
  5
423E
  8
0
 10
44.98474069841437
 20
69.850435452290299
 30
0.0
 40
3.3225695729499729
 50
55.615752531961263
 51
115.61575253217561
  0
ARC
  5
423F
  8
0
 10
50.613905823013852
 20
60.75356160884791
 30
0.0
 40
12.41944341639239
 50
72.412046225996932
 51
107.5879537740046
  0
LINE
  5
4240
  8
0
 10
43.108352323548033
 20
72.592448441639533
 30
0.0
 11
44.363905823014299
 21
73.317342592538353
 31
0.0
  0
LINE
  5
4241
  8
0
 10
43.108352323548033
 20
67.542236743437144
 30
0.0
 11
44.363905823014299
 21
66.817342592538324
 31
0.0
  0
ARC
  5
4242
  8
0
 10
44.98474069841437
 20
70.284249732786378
 30
0.0
 40
3.3225695729499729
 50
244.38424746782439
 51
304.38424746803872
  0
ARC
  5
4243
  8
0
 10
50.613905823013852
 20
79.381123576228759
 30
0.0
 40
12.41944341639239
 50
252.4120462259954
 51
287.5879537740031
  0
LINE
  5
4244
  8
0
 10
43.108352323548033
 20
72.592448441639533
 30
0.0
 11
43.108352323548033
 21
67.542236743437144
 31
0.0
  0
LINE
  5
4245
  8
0
 10
46.861129073282299
 20
72.592448441639533
 30
0.0
 11
46.861129073280487
 21
67.542236743438679
 31
0.0
  0
LINE
  5
4246
  8
0
 10
54.366682572743571
 20
72.592448441639533
 30
0.0
 11
54.36668257274539
 21
67.542236743438679
 31
0.0
  0
LINE
  5
4247
  8
0
 10
58.119459322477837
 20
72.592448441639533
 30
0.0
 11
58.119459322477837
 21
67.542236743437144
 31
0.0
  0
ARC
  5
4248
  8
0
 10
56.243070947611493
 20
70.284249732786378
 30
0.0
 40
3.3225695729499729
 50
235.61575253196131
 51
295.61575253217558
  0
LINE
  5
4249
  8
0
 10
58.119459322477837
 20
67.542236743437144
 30
0.0
 11
56.863905823011571
 21
66.817342592538324
 31
0.0
  0
LINE
  5
424A
  8
0
 10
58.119459322477837
 20
72.592448441639533
 30
0.0
 11
56.863905823011571
 21
73.317342592538353
 31
0.0
  0
ARC
  5
424B
  8
0
 10
56.243070947611493
 20
69.850435452290299
 30
0.0
 40
3.3225695729499729
 50
64.384247467824338
 51
124.38424746803869
  0
LINE
  5
424C
  8
0
 10
44.363905823013148
 20
73.317342592538353
 30
0.0
 11
56.863905823011351
 21
73.317342592538353
 31
0.0
  0
LINE
  5
424D
  8
0
 10
56.863905823011571
 20
66.817342592538324
 30
0.0
 11
44.363905823014527
 21
66.817342592538324
 31
0.0
  0
LINE
  5
424E
  8
0
 10
54.613905823011848
 20
73.317342592538353
 30
0.0
 11
54.613905823011912
 21
95.61734259253835
 31
0.0
  0
LINE
  5
424F
  8
3
 10
53.937405823012
 20
73.317342592538353
 30
0.0
 11
53.937405823012
 21
96.293842592538255
 31
0.0
  0
LINE
  5
4250
  8
3
 10
47.290405823011781
 20
73.317342592538353
 30
0.0
 11
47.290405823011781
 21
96.293842592538255
 31
0.0
  0
LINE
  5
4251
  8
0
 10
46.613905823011898
 20
73.317342592538353
 30
0.0
 11
46.613905823011919
 21
95.617342592538364
 31
0.0
  0
LINE
  5
4252
  8
1
 10
50.613905823011933
 20
20.817342592538381
 30
0.0
 11
50.613905823011933
 21
101.8173425925383
 31
0.0
  0
LINE
  5
4253
  8
1
 10
90.613905823011947
 20
163.08941231343741
 30
0.0
 11
10.61390582301186
 21
163.08941231343741
 31
0.0
  0
LINE
  5
4254
  8
1
 10
50.613905823011933
 20
203.08941231343749
 30
0.0
 11
50.613905823011933
 21
123.08941231343741
 31
0.0
  0
CIRCLE
  5
4255
  8
0
 10
50.613905823011933
 20
163.08941231343741
 30
0.0
 40
8.7540983606558598
  0
CIRCLE
  5
4256
  8
0
 10
50.613905823011933
 20
163.08941231343741
 30
0.0
 40
11.47540983606563
  0
CIRCLE
  5
4257
  8
0
 10
50.613905823011933
 20
163.08941231343741
 30
0.0
 40
17.213114754098338
  0
CIRCLE
  5
4258
  8
0
 10
50.613905823011933
 20
163.08941231343741
 30
0.0
 40
23.524590163934452
  0
CIRCLE
  5
4259
  8
0
 10
50.613905823011933
 20
163.08941231343741
 30
0.0
 40
29.249252152244122
  0
CIRCLE
  5
425A
  8
0
 10
50.613905823011933
 20
163.08941231343741
 30
0.0
 40
35.00000000000005
  0
LINE
  5
425B
  8
0
 10
40.152700681169563
 20
44.110235811351799
 30
0.0
 11
39.138495986946282
 21
43.096031117128462
 31
0.0
  0
LINE
  5
425C
  8
0
 10
15.61390582301186
 20
31.620621281062849
 30
0.0
 11
85.613905823011976
 21
31.620621281062849
 31
0.0
  0
LINE
  5
425D
  8
0
 10
16.113905823011859
 20
25.817342592538381
 30
0.0
 11
85.113905823011976
 21
25.817342592538381
 31
0.0
  0
LINE
  5
425E
  8
0
 10
21.351610741044681
 20
34.489473740079291
 30
0.0
 11
79.876200904979157
 21
34.489473740079291
 31
0.0
  0
LINE
  5
425F
  8
0
 10
27.089315659077439
 20
37.358326199095728
 30
0.0
 11
74.138495986946353
 21
37.358326199095728
 31
0.0
  0
LINE
  5
4260
  8
0
 10
33.400791068913577
 20
40.227178658112017
 30
0.0
 11
67.827020577110247
 21
40.227178658112017
 31
0.0
  0
LINE
  5
4261
  8
0
 10
39.138495986946282
 20
43.096031117128462
 30
0.0
 11
62.089315659077542
 21
43.096031117128462
 31
0.0
  0
LINE
  5
4262
  8
0
 10
41.859807462356052
 20
44.817342592538381
 30
0.0
 11
59.368004183667793
 21
44.817342592538381
 31
0.0
  0
LINE
  5
4263
  8
0
 10
15.61390582301186
 20
31.620621281062849
 30
0.0
 11
15.61390582301186
 21
32.024131613778387
 31
0.0
  0
LINE
  5
426A
  8
0
 10
15.61390582301186
 20
26.317342592538381
 30
0.0
 11
15.61390582301186
 21
31.620621281062849
 31
0.0
  0
LINE
  5
426C
  8
0
 10
16.113905823011859
 20
25.817342592538381
 30
0.0
 11
15.61390582301186
 21
26.317342592538381
 31
0.0
  0
LINE
  5
426D
  8
0
 10
21.351610741044681
 20
34.489473740079291
 30
0.0
 11
16.3265579374455
 21
32.981957898999553
 31
0.0
  0
LINE
  5
426E
  8
0
 10
21.364653670767719
 20
34.489473740079291
 30
0.0
 11
21.364653670767719
 21
34.893470974303568
 31
0.0
  0
LINE
  5
426F
  8
0
 10
27.089315659077439
 20
37.358326199095728
 30
0.0
 11
22.076705325051648
 21
35.851116916288049
 31
0.0
  0
LINE
  5
4270
  8
0
 10
33.400791068913577
 20
40.227178658112017
 30
0.0
 11
33.40079106891352
 21
40.630688990827529
 31
0.0
  0
LINE
  5
4271
  8
0
 10
27.089315659077439
 20
37.358326199095593
 30
0.0
 11
27.089315659077389
 21
37.742071341702967
 31
0.0
  0
LINE
  5
4272
  8
0
 10
33.400791068913577
 20
40.227178658112017
 30
0.0
 11
27.82619825328527
 21
38.70683516294072
 31
0.0
  0
LINE
  5
4273
  8
0
 10
39.138495986946282
 20
43.096031117128462
 30
0.0
 11
34.113443183347158
 21
41.588515276048689
 31
0.0
  0
ARC
  5
4274
  8
0
 10
16.613905823011859
 20
32.024131613778387
 30
0.0
 40
1.0
 50
106.6992442339938
 51
180.0
  0
ARC
  5
4275
  8
0
 10
22.364653670767719
 20
34.893470974303568
 30
0.0
 40
1.0
 50
106.7351662700646
 51
180.0
  0
ARC
  5
4276
  8
0
 10
28.089315659077389
 20
37.742071341702967
 30
0.0
 40
1.0
 50
105.2551187030578
 51
180.0
  0
ARC
  5
4277
  8
0
 10
34.40079106891352
 20
40.630688990827529
 30
0.0
 40
1.0
 50
106.69924423399409
 51
180.0
  0
LINE
  5
4278
  8
0
 10
40.152700681169563
 20
44.110235811351799
 30
0.0
 11
41.859807462356052
 21
44.817342592538381
 31
0.0
  0
LINE
  5
427B
  8
0
 10
61.075110964854282
 20
44.110235811351799
 30
0.0
 11
59.368004183667793
 21
44.817342592538381
 31
0.0
  0
ARC
  5
427C
  8
0
 10
66.827020577110318
 20
40.630688990827529
 30
0.0
 40
1.0
 50
0.0
 51
73.300755766006262
  0
ARC
  5
427D
  8
0
 10
73.138495986946452
 20
37.742071341702967
 30
0.0
 40
1.0
 50
0.0
 51
74.744881296941827
  0
ARC
  5
427E
  8
0
 10
78.863157975256115
 20
34.893470974303568
 30
0.0
 40
1.0
 50
0.0
 51
73.264833729935603
  0
ARC
  5
427F
  8
0
 10
84.613905823011976
 20
32.024131613778387
 30
0.0
 40
1.0
 50
0.0
 51
73.300755766006148
  0
LINE
  5
4280
  8
0
 10
62.089315659077542
 20
43.096031117128462
 30
0.0
 11
67.11436846267668
 21
41.588515276048689
 31
0.0
  0
LINE
  5
4281
  8
0
 10
67.827020577110261
 20
40.227178658112017
 30
0.0
 11
73.401613392738568
 21
38.70683516294072
 31
0.0
  0
LINE
  5
4282
  8
0
 10
74.138495986946353
 20
37.358326199095593
 30
0.0
 11
74.138495986946452
 21
37.742071341702967
 31
0.0
  0
LINE
  5
4283
  8
0
 10
67.827020577110261
 20
40.227178658112017
 30
0.0
 11
67.827020577110304
 21
40.630688990827529
 31
0.0
  0
LINE
  5
4284
  8
0
 10
74.138495986946353
 20
37.358326199095728
 30
0.0
 11
79.15110632097219
 21
35.851116916288049
 31
0.0
  0
LINE
  5
4285
  8
0
 10
79.863157975256115
 20
34.489473740079291
 30
0.0
 11
79.863157975256115
 21
34.893470974303568
 31
0.0
  0
LINE
  5
4286
  8
0
 10
79.876200904979157
 20
34.489473740079291
 30
0.0
 11
84.901253708578352
 21
32.981957898999553
 31
0.0
  0
LINE
  5
4287
  8
0
 10
85.113905823011976
 20
25.817342592538381
 30
0.0
 11
85.613905823011976
 21
26.317342592538381
 31
0.0
  0
LINE
  5
4289
  8
0
 10
85.613905823011976
 20
26.317342592538381
 30
0.0
 11
85.613905823011976
 21
31.620621281062849
 31
0.0
  0
LINE
  5
4290
  8
0
 10
85.613905823011976
 20
31.620621281062849
 30
0.0
 11
85.613905823011976
 21
32.024131613778387
 31
0.0
  0
LINE
  5
4298
  8
0
 10
61.075110964854282
 20
44.110235811351799
 30
0.0
 11
62.089315659077542
 21
43.096031117128462
 31
0.0
  0
LINE
  5
445C
  8
0
 10
43.613905823011933
 20
167.13086419776479
 30
0.0
 11
43.613905823011933
 21
163.96505666045471
 31
0.0
  0
LINE
  5
445D
  8
0
 10
43.613905823011933
 20
162.21376796642011
 30
0.0
 11
43.613905823011933
 21
159.04796042911011
 31
0.0
  0
LINE
  5
445E
  8
0
 10
57.613905823011919
 20
167.13086419776479
 30
0.0
 11
57.613905823011919
 21
163.96505666045471
 31
0.0
  0
LINE
  5
445F
  8
0
 10
57.613905823011919
 20
162.21376796642019
 30
0.0
 11
57.613905823011919
 21
159.04796042911011
 31
0.0
  0
ARC
  5
4460
  8
0
 10
50.613905823011933
 20
163.08941231343741
 30
0.0
 40
6.7307692307680309
 50
134.95324163982431
 51
165.04675836017699
  0
ARC
  5
4461
  8
0
 10
50.613905823011933
 20
163.08941231343741
 30
0.0
 40
6.7307692307680309
 50
194.95324163982269
 51
225.04675836017569
  0
ARC
  5
4462
  8
0
 10
50.613905823011933
 20
163.08941231343741
 30
0.0
 40
6.7307692307680309
 50
254.95324163982519
 51
285.04675836017458
  0
ARC
  5
4463
  8
0
 10
50.613905823011933
 20
163.08941231343741
 30
0.0
 40
6.7307692307680309
 50
314.95324163982212
 51
345.04675836017719
  0
ARC
  5
4464
  8
0
 10
50.613905823011933
 20
163.08941231343741
 30
0.0
 40
6.7307692307680309
 50
14.95324163982276
 51
45.046758360177847
  0
ARC
  5
4465
  8
0
 10
50.613905823011933
 20
163.08941231343741
 30
0.0
 40
6.7307692307680309
 50
74.953241639825279
 51
105.04675836017471
  0
LINE
  5
4466
  8
0
 10
43.613905823011933
 20
159.04796042911011
 30
0.0
 11
46.355575573814633
 21
157.4650566604551
 31
0.0
  0
LINE
  5
4467
  8
0
 10
47.872236072209219
 20
156.58941231343761
 30
0.0
 11
50.61390582301194
 21
155.00650854478269
 31
0.0
  0
LINE
  5
4468
  8
0
 10
50.613905823011933
 20
171.17231608209221
 30
0.0
 11
53.355575573814569
 21
169.58941231343721
 31
0.0
  0
LINE
  5
4469
  8
0
 10
54.872236072209091
 20
168.71376796641991
 30
0.0
 11
57.613905823011919
 21
167.13086419776479
 31
0.0
  0
LINE
  5
446A
  8
0
 10
50.613905823011962
 20
155.00650854478269
 30
0.0
 11
53.355575573814633
 21
156.58941231343761
 31
0.0
  0
LINE
  5
446B
  8
0
 10
54.872236072209063
 20
157.46505666045499
 30
0.0
 11
57.613905823011919
 21
159.04796042911011
 31
0.0
  0
LINE
  5
446C
  8
0
 10
43.613905823011933
 20
167.13086419776479
 30
0.0
 11
46.355575573814633
 21
168.71376796641979
 31
0.0
  0
LINE
  5
446D
  8
0
 10
47.872236072209219
 20
169.58941231343721
 30
0.0
 11
50.613905823011933
 21
171.17231608209221
 31
0.0
  0
TEXT
  5
4640
  8
0
 62
     3
 10
0.0
 20
0.0
 30
0.0
 40
10.0
  1
LVE70S8A
  7
STANDARD1
  0
ENDSEC
  0
EOF
