  0
SECTION
  2
HEADER
  9
$ACADVER
  1
AC1009
  9
$INSBASE
 10
0.0
 20
0.0
 30
0.0
  9
$EXTMIN
 10
0.0
 20
-2.960436562073669
 30
0.0
  9
$EXTMAX
 10
454.1337624397384
 20
492.33787644397751
 30
0.0
  9
$LIMMIN
 10
0.0
 20
0.0
  9
$LIMMAX
 10
375.0
 20
270.0
  9
$ORTHOMODE
 70
     1
  9
$REGENMODE
 70
     1
  9
$FILLMODE
 70
     1
  9
$QTEXTMODE
 70
     0
  9
$MIRRTEXT
 70
     0
  9
$DRAGMODE
 70
     2
  9
$LTSCALE
 40
6.0
  9
$OSMODE
 70
  3071
  9
$ATTMODE
 70
     1
  9
$TEXTSIZE
 40
0.2
  9
$TRACEWID
 40
0.05
  9
$TEXTSTYLE
  7
STANDARD
  9
$CLAYER
  8
0
  9
$CELTYPE
  6
BYLAYER
  9
$CECOLOR
 62
   256
  9
$DIMSCALE
 40
1.0
  9
$DIMASZ
 40
3.0
  9
$DIMEXO
 40
1.0
  9
$DIMDLI
 40
6.0
  9
$DIMRND
 40
0.0
  9
$DIMDLE
 40
0.0
  9
$DIMEXE
 40
1.0
  9
$DIMTP
 40
495.0
  9
$DIMTM
 40
0.0
  9
$DIMTXT
 40
3.0
  9
$DIMCEN
 40
0.0
  9
$DIMTSZ
 40
0.0
  9
$DIMTOL
 70
     0
  9
$DIMLIM
 70
     0
  9
$DIMTIH
 70
     0
  9
$DIMTOH
 70
     0
  9
$DIMSE1
 70
     0
  9
$DIMSE2
 70
     0
  9
$DIMTAD
 70
     1
  9
$DIMZIN
 70
     0
  9
$DIMBLK
  1

  9
$DIMASO
 70
     0
  9
$DIMSHO
 70
     0
  9
$DIMPOST
  1

  9
$DIMAPOST
  1

  9
$DIMALT
 70
     0
  9
$DIMALTD
 70
     2
  9
$DIMALTF
 40
25.399999999999999
  9
$DIMLFAC
 40
1.0
  9
$DIMTOFL
 70
     1
  9
$DIMTVP
 40
0.0
  9
$DIMTIX
 70
     1
  9
$DIMSOXD
 70
     0
  9
$DIMSAH
 70
     0
  9
$DIMBLK1
  1

  9
$DIMBLK2
  1

  9
$DIMSTYLE
  2
STANDARD
  9
$DIMCLRD
 70
     0
  9
$DIMCLRE
 70
     0
  9
$DIMCLRT
 70
     4
  9
$DIMTFAC
 40
1.0
  9
$DIMGAP
 40
1.0
  9
$LUNITS
 70
     2
  9
$LUPREC
 70
     4
  9
$SKETCHINC
 40
0.1
  9
$FILLETRAD
 40
2.0
  9
$AUNITS
 70
     0
  9
$AUPREC
 70
     0
  9
$MENU
  1
C:\R13\WIN\SUPPORT\ACAD-I
  9
$ELEVATION
 40
0.0
  9
$PELEVATION
 40
0.0
  9
$THICKNESS
 40
0.0
  9
$LIMCHECK
 70
     0
  9
$BLIPMODE
 70
     0
  9
$CHAMFERA
 40
0.0
  9
$CHAMFERB
 40
0.0
  9
$SKPOLY
 70
     0
  9
$TDCREATE
 40
2451963.4568099072
  9
$TDUPDATE
 40
2456597.614961979
  9
$TDINDWG
 40
0.0137541204
  9
$TDUSRTIMER
 40
2456555.2785685188
  9
$USRTIMER
 70
     1
  9
$ANGBASE
 50
0.0
  9
$ANGDIR
 70
     0
  9
$PDMODE
 70
     0
  9
$PDSIZE
 40
0.0
  9
$PLINEWID
 40
0.0
  9
$COORDS
 70
     1
  9
$SPLFRAME
 70
     0
  9
$SPLINETYPE
 70
     6
  9
$SPLINESEGS
 70
     8
  9
$ATTDIA
 70
     0
  9
$ATTREQ
 70
     1
  9
$HANDLING
 70
     1
  9
$HANDSEED
  5
A8ED
  9
$SURFTAB1
 70
     6
  9
$SURFTAB2
 70
     6
  9
$SURFTYPE
 70
     6
  9
$SURFU
 70
     6
  9
$SURFV
 70
     6
  9
$UCSNAME
  2

  9
$UCSORG
 10
0.0
 20
0.0
 30
0.0
  9
$UCSXDIR
 10
1.0
 20
0.0
 30
0.0
  9
$UCSYDIR
 10
0.0
 20
1.0
 30
0.0
  9
$PUCSNAME
  2

  9
$PUCSORG
 10
0.0
 20
0.0
 30
0.0
  9
$PUCSXDIR
 10
1.0
 20
0.0
 30
0.0
  9
$PUCSYDIR
 10
0.0
 20
1.0
 30
0.0
  9
$USERI1
 70
     4
  9
$USERI2
 70
     1
  9
$USERI3
 70
     0
  9
$USERI4
 70
     0
  9
$USERI5
 70
     0
  9
$USERR1
 40
1.0
  9
$USERR2
 40
3.0
  9
$USERR3
 40
3.0
  9
$USERR4
 40
3.0
  9
$USERR5
 40
10.0
  9
$WORLDVIEW
 70
     1
  9
$SHADEDGE
 70
     3
  9
$SHADEDIF
 70
    70
  9
$TILEMODE
 70
     1
  9
$MAXACTVP
 70
    16
  9
$PLIMCHECK
 70
     0
  9
$PEXTMIN
 10
1.0000000000000000E+020
 20
1.0000000000000000E+020
 30
1.0000000000000000E+020
  9
$PEXTMAX
 10
-1.0000000000000000E+020
 20
-1.0000000000000000E+020
 30
-1.0000000000000000E+020
  9
$PLIMMIN
 10
0.0
 20
0.0
  9
$PLIMMAX
 10
12.0
 20
9.0
  9
$UNITMODE
 70
     0
  9
$VISRETAIN
 70
     0
  9
$PLINEGEN
 70
     0
  9
$PSLTSCALE
 70
     0
  0
ENDSEC
  0
SECTION
  2
TABLES
  0
TABLE
  2
VPORT
 70
     1
  0
VPORT
  2
*ACTIVE
 70
     0
 10
0.0
 20
0.0
 11
1.0
 21
1.0
 12
227.0668822772318
 22
245.7575292974588
 13
0.0
 23
0.0
 14
10.0
 24
10.0
 15
10.0
 25
10.0
 16
0.0
 26
0.0
 36
1.0
 17
0.0
 27
0.0
 37
0.0
 40
503.1734751115286
 41
2.304913294797688
 42
50.0
 43
0.0
 44
0.0
 50
0.0
 51
0.0
 71
    16
 72
   100
 73
     1
 74
     0
 75
     0
 76
     0
 77
     0
 78
     0
  0
ENDTAB
  0
TABLE
  2
LTYPE
 70
     3
  0
LTYPE
  2
CONTINUOUS
 70
     0
  3
Solid Line
 72
    65
 73
     0
 40
0.0
  0
LTYPE
  2
PHANTOM2
 70
     0
  3
___ _ _ ___ _ _ ___ _ _ ___ _ _
 72
    65
 73
     6
 40
1.25
 49
0.625
 49
-0.125
 49
0.125
 49
-0.125
 49
0.125
 49
-0.125
  0
LTYPE
  2
CENTER
 70
     0
  3
____ _ ____ _ ____ _ ____ _ ____ _ ____ _ ____
 72
    65
 73
     4
 40
2.0
 49
1.25
 49
-0.25
 49
0.25
 49
-0.25
  0
ENDTAB
  0
TABLE
  2
LAYER
 70
     4
  0
LAYER
  2
0
 70
     0
 62
     7
  6
CONTINUOUS
  0
LAYER
  2
1
 70
     0
 62
     1
  6
CENTER
  0
LAYER
  2
3
 70
     0
 62
     3
  6
CONTINUOUS
  0
LAYER
  2
DEFPOINTS
 70
     0
 62
     7
  6
CONTINUOUS
  0
ENDTAB
  0
TABLE
  2
STYLE
 70
     3
  0
STYLE
  2
STANDARD
 70
     0
 40
0.0
 41
1.0
 50
0.0
 71
     0
 42
0.2
  3
SIMPLEX
  4
BIGFONT
  0
STYLE
  2
ANNOTATIVE
 70
     0
 40
0.0
 41
1.0
 50
0.0
 71
     0
 42
0.2
  3
txt
  4

  0
STYLE
  2
STANDARD1
 70
     0
 40
0.0
 41
1.0
 50
0.0
 71
     0
 42
3.0
  3
txt
  4

  0
ENDTAB
  0
TABLE
  2
VIEW
 70
     0
  0
ENDTAB
  0
TABLE
  2
UCS
 70
     0
  0
ENDTAB
  0
TABLE
  2
APPID
 70
    29
  0
APPID
  2
ACAD
 70
     0
  0
APPID
  2
ACADANNOTATIVE
 70
     0
  0
APPID
  2
GENIUS_GENOREF_13
 70
     0
  0
APPID
  2
GENIUS_GENOENT_13
 70
     0
  0
APPID
  2
GENIUS_GENBH_13
 70
     0
  0
APPID
  2
GENIUS_GENOBJ_13
 70
     0
  0
APPID
  2
GENIUS_GENODEF_13
 70
     0
  0
APPID
  2
GENIUS_GENOLIS_13
 70
     0
  0
APPID
  2
GENIUS_GENOBJ-NBEHI-BHF_13
 70
     0
  0
APPID
  2
GENIUS_GENOBJ-NBEHI-BHB_13
 70
     0
  0
APPID
  2
GENIUS_GENOBJ-F-PART_13
 70
     0
  0
APPID
  2
GENIUS_GEFSTDP_13
 70
     0
  0
APPID
  2
GENIUS_GENOBJ-N-RSSYM_13
 70
     0
  0
APPID
  2
GENIUS_GENSYMENT_13
 70
     0
  0
APPID
  2
GENIUS_GENOBJ-N-TIT_13
 70
     0
  0
APPID
  2
GENIUS_GENTITLE_13
 70
     0
  0
APPID
  2
GENIUS_GENZVEED_13
 70
     0
  0
APPID
  2
GENIUS_GENOBJ-N-LEADER_13
 70
     0
  0
APPID
  2
GENIUS_GENOBJ-N-FIL_13
 70
     0
  0
APPID
  2
GENIUS_GENOBJ-N-SEC_13
 70
     0
  0
APPID
  2
GENIUS_GENOBJ-N-CRS_13
 70
     0
  0
APPID
  2
GENIUS_GENOBJ-N-ZOO_13
 70
     0
  0
APPID
  2
GENIUS_GENZOO_13
 70
     0
  0
APPID
  2
GENIUS_GENOBJ-F-TOL_13
 70
     0
  0
APPID
  2
GENIUS_GENFIL_13
 70
     0
  0
APPID
  2
GENIUS_GENOBJ-N-CHA_13
 70
     0
  0
APPID
  2
ACAD_EXEMPT_FROM_CAD_STANDARDS
 70
     0
  0
APPID
  2
ACAD_MLEADERVER
 70
     0
  0
APPID
  2
ACAD_NAV_VCDISPLAY
 70
     0
  0
ENDTAB
  0
TABLE
  2
DIMSTYLE
 70
     2
  0
DIMSTYLE
  2
STANDARD
 70
     0
  3

  4

  5

  6

  7

 40
1.0
 41
0.18
 42
0.0625
 43
0.38
 44
0.18
 45
0.0
 46
0.0
 47
0.0
 48
0.0
140
0.18
141
0.09
142
0.0
143
25.399999999999999
144
1.0
145
0.0
146
1.0
147
0.09
 71
     0
 72
     0
 73
     1
 74
     1
 75
     0
 76
     0
 77
     0
 78
     0
170
     0
171
     2
172
     0
173
     0
174
     0
175
     0
176
     0
177
     0
178
     0
  0
DIMSTYLE
  2
ANNOTATIVE
 70
     0
  3

  4

  5

  6

  7

 40
1.0
 41
0.18
 42
0.0625
 43
0.38
 44
0.18
 45
0.0
 46
0.0
 47
0.0
 48
0.0
140
0.18
141
0.09
142
0.0
143
25.399999999999999
144
1.0
145
0.0
146
1.0
147
0.09
 71
     0
 72
     0
 73
     1
 74
     1
 75
     0
 76
     0
 77
     0
 78
     0
170
     0
171
     2
172
     0
173
     0
174
     0
175
     0
176
     0
177
     0
178
     0
  0
ENDTAB
  0
ENDSEC
  0
SECTION
  2
BLOCKS
  0
BLOCK
  8
0
  2
$MODEL_SPACE
 70
     0
 10
0.0
 20
0.0
 30
0.0
  3
$MODEL_SPACE
  1

  0
ENDBLK
  5
A80F
  8
0
  0
BLOCK
 67
     1
  8
0
  2
$PAPER_SPACE
 70
     0
 10
0.0
 20
0.0
 30
0.0
  3
$PAPER_SPACE
  1

  0
ENDBLK
  5
A80B
 67
     1
  8
0
  0
ENDSEC
  0
SECTION
  2
ENTITIES
  0
CIRCLE
  5
A475
  8
0
 10
221.66379562297971
 20
419.83787644397768
 30
0.0
 40
10.0
  0
CIRCLE
  5
A476
  8
3
 10
221.66379562297971
 20
419.83787644397768
 30
0.0
 40
8.6470000000000002
  0
LINE
  5
A477
  8
0
 10
213.00354158513551
 20
404.83787644397751
 30
0.0
 11
230.32404966082419
 21
404.83787644397751
 31
0.0
  0
LINE
  5
A478
  8
0
 10
230.32404966082419
 20
404.83787644397751
 30
0.0
 11
238.98430369866861
 21
419.83787644397768
 31
0.0
  0
LINE
  5
A479
  8
0
 10
238.98430369866861
 20
419.83787644397768
 30
0.0
 11
230.32404966082399
 21
434.83787644397762
 31
0.0
  0
LINE
  5
A47A
  8
0
 10
230.32404966082399
 20
434.83787644397762
 30
0.0
 11
213.00354158513559
 21
434.83787644397762
 31
0.0
  0
LINE
  5
A47B
  8
0
 10
213.00354158513559
 20
434.83787644397762
 30
0.0
 11
204.34328754729111
 21
419.83787644397768
 31
0.0
  0
LINE
  5
A47C
  8
0
 10
204.34328754729111
 20
419.83787644397768
 30
0.0
 11
213.00354158513551
 21
404.83787644397751
 31
0.0
  0
CIRCLE
  5
A47D
  8
0
 10
221.66379562297971
 20
419.83787644397768
 30
0.0
 40
14.5
  0
LINE
  5
A47E
  8
1
 10
294.16379562297971
 20
419.83787644397768
 30
0.0
 11
149.16379562297979
 21
419.83787644397768
 31
0.0
  0
LINE
  5
A47F
  8
1
 10
221.66379562297971
 20
492.33787644397751
 30
0.0
 11
221.66379562297971
 21
347.33787644397768
 31
0.0
  0
CIRCLE
  5
A480
  8
0
 10
221.66379562297971
 20
419.83787644397768
 30
0.0
 40
20.999999999999879
  0
CIRCLE
  5
A481
  8
0
 10
221.66379562297971
 20
419.83787644397768
 30
0.0
 40
34.999999999999829
  0
CIRCLE
  5
A482
  8
0
 10
221.66379562297971
 20
419.83787644397768
 30
0.0
 40
41.499999999999901
  0
CIRCLE
  5
A483
  8
0
 10
221.66379562297971
 20
419.83787644397768
 30
0.0
 40
48.499999999999901
  0
CIRCLE
  5
A484
  8
0
 10
221.66379562297971
 20
419.83787644397768
 30
0.0
 40
55.499999999999503
  0
CIRCLE
  5
A485
  8
0
 10
221.66379562297971
 20
419.83787644397768
 30
0.0
 40
62.499999999999929
  0
ARC
  5
A486
  8
0
 10
391.63376243973562
 20
169.21924826396861
 30
0.0
 40
12.25
 50
20.698334926538791
 51
46.12012289676214
  0
LINE
  5
A487
  8
0
 10
391.63376243973892
 20
234.9205609860438
 30
0.0
 11
391.63376243973892
 21
222.17740317953931
 31
0.0
  0
LINE
  5
A488
  8
0
 10
406.1337624397388
 20
220.5489820827942
 30
0.0
 11
377.13376243974062
 21
220.5489820827942
 31
0.0
  0
LINE
  5
A489
  8
0
 10
377.13376243974062
 20
236.54898208279391
 30
0.0
 11
406.13376243973732
 21
236.54898208279391
 31
0.0
  0
ARC
  5
A48A
  8
0
 10
384.13376243973892
 20
214.59764817453001
 30
0.0
 40
21.662658773668529
 50
69.743841999600548
 51
110.2561580003994
  0
LINE
  5
A48B
  8
0
 10
377.13376243974062
 20
236.54898208279391
 30
0.0
 11
376.6337624397392
 21
236.26030694819841
 31
0.0
  0
LINE
  5
A48C
  8
0
 10
377.13376243974062
 20
220.5489820827942
 30
0.0
 11
376.6337624397392
 21
220.8376572173897
 31
0.0
  0
ARC
  5
A48D
  8
0
 10
384.13376243973892
 20
242.5003159910579
 30
0.0
 40
21.662658773668529
 50
249.74384199960051
 51
290.25615800039952
  0
LINE
  5
A48E
  8
0
 10
376.63376243973892
 20
236.26030694819841
 30
0.0
 11
376.6337624397392
 21
220.8376572173897
 31
0.0
  0
LINE
  5
A48F
  8
0
 10
406.63376243973892
 20
236.26030694819841
 30
0.0
 11
406.63376243973858
 21
220.8376572173897
 31
0.0
  0
ARC
  5
A490
  8
0
 10
399.13376243973892
 20
242.5003159910579
 30
0.0
 40
21.662658773668529
 50
249.74384199960051
 51
290.25615800039952
  0
LINE
  5
A491
  8
0
 10
406.13376243973732
 20
220.5489820827942
 30
0.0
 11
406.63376243973858
 21
220.8376572173897
 31
0.0
  0
LINE
  5
A492
  8
0
 10
406.13376243973732
 20
236.54898208279391
 30
0.0
 11
406.63376243973858
 21
236.26030694819841
 31
0.0
  0
ARC
  5
A493
  8
0
 10
399.13376243973892
 20
214.59764817453001
 30
0.0
 40
21.662658773668529
 50
69.743841999600548
 51
110.2561580003994
  0
LINE
  5
A494
  8
3
 10
382.98676243973853
 20
236.54898208279391
 30
0.0
 11
382.98676243973853
 21
291.4019820827711
 31
0.0
  0
LINE
  5
A495
  8
0
 10
381.63376243973852
 20
236.54898208279391
 30
0.0
 11
381.63376243973852
 21
290.04898208277109
 31
0.0
  0
LINE
  5
A496
  8
0
 10
401.6337624397384
 20
236.5489820827936
 30
0.0
 11
401.6337624397384
 21
290.04898208277081
 31
0.0
  0
LINE
  5
A497
  8
3
 10
400.2807624397384
 20
236.54898208279391
 30
0.0
 11
400.2807624397384
 21
291.40198208277093
 31
0.0
  0
ARC
  5
A498
  8
0
 10
391.63376243973562
 20
169.21924826396861
 30
0.0
 40
12.25
 50
133.87987710304901
 51
159.30166507346109
  0
LINE
  5
A499
  8
0
 10
400.1337624397384
 20
178.04898208271871
 30
0.0
 11
383.13376243973852
 21
178.0489820827469
 31
0.0
  0
LINE
  5
A49A
  8
0
 10
400.1337624397384
 20
184.54898208273281
 30
0.0
 11
400.1337624397384
 21
178.04898208271871
 31
0.0
  0
LINE
  5
A49B
  8
0
 10
383.13376243973852
 20
184.54898208273281
 30
0.0
 11
383.13376243973852
 21
178.0489820827471
 31
0.0
  0
LINE
  5
A49C
  8
0
 10
384.13376243973852
 20
292.54898208277092
 30
0.0
 11
399.13376243973852
 21
292.54898208277081
 31
0.0
  0
LINE
  5
A49D
  8
0
 10
401.6337624397384
 20
194.548982082771
 30
0.0
 11
401.6337624397384
 21
220.5489820827934
 31
0.0
  0
LINE
  5
A49E
  8
3
 10
400.2807624397384
 20
198.54898208285221
 30
0.0
 11
400.2807624397384
 21
220.5489820827934
 31
0.0
  0
LINE
  5
A49F
  8
3
 10
382.98676243973853
 20
198.54898208285221
 30
0.0
 11
382.98676243973853
 21
220.54898208279329
 31
0.0
  0
LINE
  5
A4A0
  8
0
 10
381.63376243973852
 20
194.548982082771
 30
0.0
 11
381.63376243973852
 21
220.5489820827934
 31
0.0
  0
LINE
  5
A4A1
  8
0
 10
381.63376243973852
 20
290.04898208277109
 30
0.0
 11
384.13376243973852
 21
292.54898208277092
 31
0.0
  0
LINE
  5
A4A2
  8
0
 10
399.13376243973852
 20
292.54898208277081
 30
0.0
 11
401.6337624397384
 21
290.04898208277081
 31
0.0
  0
LINE
  5
A4A3
  8
0
 10
381.63376243973852
 20
290.04898208277109
 30
0.0
 11
401.6337624397384
 21
290.04898208277081
 31
0.0
  0
LINE
  5
A4A4
  8
0
 10
401.6337624397384
 20
198.54898208285221
 30
0.0
 11
381.63376243973852
 21
198.54898208285221
 31
0.0
  0
LINE
  5
A4A5
  8
3
 10
382.98676243973853
 20
198.54898208285221
 30
0.0
 11
381.63376243973852
 21
196.20551734021129
 31
0.0
  0
LINE
  5
A4A6
  8
3
 10
400.2807624397384
 20
198.54898208285221
 30
0.0
 11
401.6337624397384
 21
196.20551734021129
 31
0.0
  0
ARC
  5
A4A7
  8
0
 10
391.63376243979252
 20
171.33210372014781
 30
0.0
 40
22.928203228139491
 50
72.412046224314381
 51
107.58795377568561
  0
ARC
  5
A4A8
  8
0
 10
381.24145759437903
 20
188.12633235256641
 30
0.0
 40
6.1339745957208196
 50
55.6157525287935
 51
115.61575253015489
  0
LINE
  5
A4A9
  8
0
 10
377.77735597921952
 20
193.18851017845799
 30
0.0
 11
380.13376243990018
 21
194.54898208285221
 31
0.0
  0
LINE
  5
A4AA
  8
0
 10
377.77735597921952
 20
185.90945398724639
 30
0.0
 11
380.13376243990018
 21
184.54898208285221
 31
0.0
  0
ARC
  5
A4AB
  8
0
 10
381.24145759437903
 20
190.97163181313789
 30
0.0
 40
6.1339745957208196
 50
244.38424746984509
 51
304.38424747120649
  0
ARC
  5
A4AC
  8
0
 10
391.63376243979252
 20
207.7658604455566
 30
0.0
 40
22.928203228139491
 50
252.41204622431439
 51
287.58795377568561
  0
LINE
  5
A4AD
  8
0
 10
377.77735597924118
 20
193.18851017845799
 30
0.0
 11
377.77735597924118
 21
185.90945398723369
 31
0.0
  0
LINE
  5
A4AE
  8
0
 10
384.70555920951722
 20
193.18851017845799
 30
0.0
 11
384.70555920951722
 21
185.90945398724639
 31
0.0
  0
LINE
  5
A4AF
  8
0
 10
398.56196567006782
 20
193.18851017845799
 30
0.0
 11
398.56196567006782
 21
185.90945398724639
 31
0.0
  0
LINE
  5
A4B0
  8
0
 10
405.49016890034358
 20
193.18851017845799
 30
0.0
 11
405.49016890034358
 21
185.90945398723369
 31
0.0
  0
ARC
  5
A4B1
  8
0
 10
402.02606728520578
 20
190.97163181313789
 30
0.0
 40
6.1339745957208196
 50
235.61575252879351
 51
295.61575253015491
  0
LINE
  5
A4B2
  8
0
 10
405.49016890036552
 20
185.90945398724639
 30
0.0
 11
403.13376243968452
 21
184.54898208285221
 31
0.0
  0
LINE
  5
A4B3
  8
0
 10
405.49016890036552
 20
193.18851017845799
 30
0.0
 11
403.13376243968452
 21
194.54898208285221
 31
0.0
  0
ARC
  5
A4B4
  8
0
 10
402.02606728520578
 20
188.12633235256641
 30
0.0
 40
6.1339745957208196
 50
64.384247469845064
 51
124.38424747120651
  0
LINE
  5
A4B5
  8
0
 10
380.13376243979252
 20
194.54898208285221
 30
0.0
 11
403.13376243968452
 21
194.54898208285221
 31
0.0
  0
LINE
  5
A4B6
  8
0
 10
403.13376243968452
 20
184.54898208285221
 30
0.0
 11
380.13376243990018
 21
184.54898208285221
 31
0.0
  0
LINE
  5
A4B7
  8
0
 10
454.13376243973829
 20
127.548982082771
 30
0.0
 11
329.13376243973852
 21
127.548982082771
 31
0.0
  0
LINE
  5
A4B8
  8
0
 10
454.13376243973829
 20
127.548982082771
 30
0.0
 11
454.1337624397384
 21
143.6681881718161
 31
0.0
  0
LINE
  5
A4BA
  8
0
 10
412.63376243973829
 20
173.548982082771
 30
0.0
 11
370.6337624397384
 21
173.548982082771
 31
0.0
  0
LINE
  5
A4BB
  8
DEFPOINTS
 10
412.63376243973829
 20
173.548982082771
 30
0.0
 11
426.6337624397384
 21
151.548982082771
 31
0.0
  0
LINE
  5
A4BC
  8
DEFPOINTS
 10
426.6337624397384
 20
151.548982082771
 30
0.0
 11
432.3804417203732
 21
150.08619099315479
 31
0.0
  0
LINE
  5
A4BD
  8
DEFPOINTS
 10
447.1337624397384
 20
145.43989117368
 30
0.0
 11
447.1337624397384
 21
145.45000635363431
 31
0.0
  0
LINE
  5
A4BE
  8
DEFPOINTS
 10
440.1337624397384
 20
147.22170935549821
 30
0.0
 11
440.1337624397384
 21
147.2318245354524
 31
0.0
  0
LINE
  5
A4BF
  8
DEFPOINTS
 10
433.1337624397384
 20
149.00352753731639
 30
0.0
 11
433.1337624397384
 21
149.1170938192318
 31
0.0
  0
LINE
  5
A4C0
  8
DEFPOINTS
 10
453.26001671941248
 20
144.66018608353971
 30
0.0
 11
447.1337624397384
 21
145.43989117368
 31
0.0
  0
LINE
  5
A4C1
  8
DEFPOINTS
 10
446.26001671941231
 20
146.44200426535781
 30
0.0
 11
440.1337624397384
 21
147.22170935549821
 31
0.0
  0
LINE
  5
A4C2
  8
DEFPOINTS
 10
439.26001671941231
 20
148.2238224471761
 30
0.0
 11
433.1337624397384
 21
149.00352753731639
 31
0.0
  0
ARC
  5
A4C3
  8
DEFPOINTS
 10
432.13376243973829
 20
149.1170938192318
 30
0.0
 40
1.0
 50
0.0
 51
75.718904264028865
  0
ARC
  5
A4C4
  8
DEFPOINTS
 10
439.1337624397384
 20
147.2318245354524
 30
0.0
 40
1.0
 50
0.0
 51
82.746805387274634
  0
ARC
  5
A4C5
  8
DEFPOINTS
 10
446.13376243973829
 20
145.45000635363431
 30
0.0
 40
1.0
 50
0.000000000001832
 51
82.746805387274634
  0
ARC
  5
A4C6
  8
DEFPOINTS
 10
453.13376243973852
 20
143.6681881718161
 30
0.0
 40
1.0
 50
359.9999999999996
 51
82.746805387274634
  0
LINE
  5
A4C7
  8
DEFPOINTS
 10
447.1337624397384
 20
145.43989117368
 30
0.0
 11
336.13376243973943
 21
145.43989117368011
 31
0.0
  0
LINE
  5
A4C8
  8
DEFPOINTS
 10
440.1337624397384
 20
147.22170935549821
 30
0.0
 11
343.1337624397392
 21
147.22170935549821
 31
0.0
  0
LINE
  5
A4C9
  8
DEFPOINTS
 10
433.1337624397384
 20
149.00352753731639
 30
0.0
 11
350.13376243973909
 21
149.0035275373165
 31
0.0
  0
LINE
  5
A4CA
  8
DEFPOINTS
 10
426.6337624397384
 20
151.548982082771
 30
0.0
 11
356.63376243973869
 21
151.548982082771
 31
0.0
  0
ARC
  5
A4CB
  8
DEFPOINTS
 10
330.13376243973818
 20
143.6681881718161
 30
0.0
 40
1.0
 50
97.253194612725352
 51
180.00000000000051
  0
ARC
  5
A4CC
  8
DEFPOINTS
 10
337.1337624397384
 20
145.45000635363431
 30
0.0
 40
1.0
 50
97.253194612725352
 51
179.99999999999821
  0
ARC
  5
A4CD
  8
DEFPOINTS
 10
344.1337624397384
 20
147.2318245354524
 30
0.0
 40
1.0
 50
97.253194612725352
 51
180.0
  0
ARC
  5
A4CE
  8
DEFPOINTS
 10
351.13376243973852
 20
149.1170938192318
 30
0.0
 40
1.0
 50
104.28109573597111
 51
180.0
  0
LINE
  5
A4CF
  8
DEFPOINTS
 10
344.00750816006462
 20
148.2238224471761
 30
0.0
 11
350.13376243973852
 21
149.00352753731639
 31
0.0
  0
LINE
  5
A4D0
  8
DEFPOINTS
 10
337.0075081600645
 20
146.44200426535781
 30
0.0
 11
343.1337624397384
 21
147.22170935549821
 31
0.0
  0
LINE
  5
A4D1
  8
DEFPOINTS
 10
330.00750816006439
 20
144.66018608353971
 30
0.0
 11
336.13376243973852
 21
145.43989117368
 31
0.0
  0
LINE
  5
A4D2
  8
DEFPOINTS
 10
350.13376243973852
 20
149.00352753731639
 30
0.0
 11
350.13376243973852
 21
149.1170938192318
 31
0.0
  0
LINE
  5
A4D3
  8
DEFPOINTS
 10
343.1337624397384
 20
147.22170935549821
 30
0.0
 11
343.1337624397384
 21
147.2318245354524
 31
0.0
  0
LINE
  5
A4D4
  8
DEFPOINTS
 10
336.13376243973852
 20
145.43989117368
 30
0.0
 11
336.1337624397384
 21
145.45000635363431
 31
0.0
  0
LINE
  5
A4D5
  8
DEFPOINTS
 10
356.6337624397384
 20
151.548982082771
 30
0.0
 11
350.8870831591035
 21
150.08619099315479
 31
0.0
  0
LINE
  5
A4D6
  8
DEFPOINTS
 10
370.6337624397384
 20
173.548982082771
 30
0.0
 11
356.6337624397384
 21
151.548982082771
 31
0.0
  0
LINE
  5
A4D8
  8
0
 10
329.13376243973852
 20
127.548982082771
 30
0.0
 11
329.13376243973818
 21
143.6681881718161
 31
0.0
  0
LINE
  5
A4DA
  8
1
 10
391.63376243973852
 20
117.548982082771
 30
0.0
 11
391.63376243973852
 21
302.54898208277109
 31
0.0
  0
LINE
  5
A4DB
  8
1
 10
221.66379562297971
 20
117.548982082771
 30
0.0
 11
221.66379562297971
 21
302.54898208277109
 31
0.0
  0
ARC
  5
A4DD
  8
0
 10
221.66379562297689
 20
169.21924826396869
 30
0.0
 40
12.25
 50
20.698334926538031
 51
46.120122896763299
  0
LINE
  5
A4DE
  8
3
 10
230.31079562297981
 20
198.54898208285221
 30
0.0
 11
231.66379562297971
 21
196.20551734021129
 31
0.0
  0
LINE
  5
A4DF
  8
3
 10
213.01679562297991
 20
198.54898208285221
 30
0.0
 11
211.66379562297971
 21
196.20551734021129
 31
0.0
  0
LINE
  5
A4E0
  8
0
 10
231.66379562297971
 20
198.54898208285221
 30
0.0
 11
211.66379562297971
 21
198.54898208285221
 31
0.0
  0
LINE
  5
A4E1
  8
0
 10
211.66379562297971
 20
290.04898208277109
 30
0.0
 11
231.66379562297971
 21
290.04898208277092
 31
0.0
  0
LINE
  5
A4E2
  8
0
 10
229.16379562297971
 20
292.54898208277092
 30
0.0
 11
231.66379562297971
 21
290.04898208277092
 31
0.0
  0
LINE
  5
A4E3
  8
0
 10
211.66379562297971
 20
290.04898208277109
 30
0.0
 11
214.16379562297971
 21
292.54898208277109
 31
0.0
  0
LINE
  5
A4E4
  8
0
 10
211.66379562297971
 20
194.54898208277109
 30
0.0
 11
211.66379562297971
 21
220.54898208279371
 31
0.0
  0
LINE
  5
A4E5
  8
3
 10
213.01679562297991
 20
198.54898208285221
 30
0.0
 11
213.01679562297991
 21
220.5489820827934
 31
0.0
  0
LINE
  5
A4E6
  8
3
 10
230.31079562297981
 20
198.54898208285221
 30
0.0
 11
230.31079562297981
 21
220.54898208279371
 31
0.0
  0
LINE
  5
A4E7
  8
0
 10
231.66379562297971
 20
194.54898208277109
 30
0.0
 11
231.66379562297971
 21
220.54898208279371
 31
0.0
  0
LINE
  5
A4E8
  8
0
 10
214.16379562297971
 20
292.54898208277109
 30
0.0
 11
229.16379562297971
 21
292.54898208277092
 31
0.0
  0
ARC
  5
A4E9
  8
0
 10
227.66379562301299
 20
176.93017993085371
 30
0.0
 40
17.330127017333279
 50
69.743841997635613
 51
110.2561580023644
  0
LINE
  5
A4EA
  8
0
 10
233.66379562302799
 20
194.26030694818709
 30
0.0
 11
233.1637956230129
 21
194.5489820827905
 31
0.0
  0
LINE
  5
A4EB
  8
0
 10
233.66379562302799
 20
184.837657217317
 30
0.0
 11
233.1637956230129
 21
184.54898208271359
 31
0.0
  0
ARC
  5
A4EC
  8
0
 10
227.66379562301299
 20
202.16778423465041
 30
0.0
 40
17.330127017333279
 50
249.7438419976356
 51
290.25615800236437
  0
LINE
  5
A4ED
  8
0
 10
233.66379562302799
 20
194.26030694818709
 30
0.0
 11
233.66379562301299
 21
184.83765721730839
 31
0.0
  0
LINE
  5
A4EE
  8
0
 10
221.66379562301299
 20
185.90945398714621
 30
0.0
 11
221.66379562301299
 21
193.1885101783578
 31
0.0
  0
LINE
  5
A4EF
  8
0
 10
209.66379562299801
 20
194.26030694818709
 30
0.0
 11
209.66379562301299
 21
184.83765721730839
 31
0.0
  0
ARC
  5
A4F0
  8
0
 10
215.66379562301299
 20
202.16778423465041
 30
0.0
 40
17.330127017333279
 50
249.7438419976356
 51
290.25615800236437
  0
LINE
  5
A4F1
  8
0
 10
209.66379562299801
 20
184.837657217317
 30
0.0
 11
210.1637956230129
 21
184.54898208271359
 31
0.0
  0
LINE
  5
A4F2
  8
0
 10
209.66379562299801
 20
194.26030694818709
 30
0.0
 11
210.1637956230129
 21
194.5489820827905
 31
0.0
  0
ARC
  5
A4F3
  8
0
 10
215.66379562301299
 20
176.93017993085371
 30
0.0
 40
17.330127017333279
 50
69.743841997635613
 51
110.2561580023644
  0
LINE
  5
A4F4
  8
0
 10
210.16379562294659
 20
194.54898208275199
 30
0.0
 11
233.1637956230129
 21
194.5489820827905
 31
0.0
  0
LINE
  5
A4F5
  8
0
 10
233.1637956230129
 20
184.54898208271359
 30
0.0
 11
210.16379562294659
 21
184.54898208275199
 31
0.0
  0
LINE
  5
A4F6
  8
0
 10
213.16379562297979
 20
184.54898208273289
 30
0.0
 11
213.16379562297979
 21
178.0489820827473
 31
0.0
  0
LINE
  5
A4F7
  8
0
 10
230.16379562297971
 20
184.54898208273289
 30
0.0
 11
230.16379562297971
 21
178.04898208271879
 31
0.0
  0
LINE
  5
A4F8
  8
0
 10
230.16379562297971
 20
178.04898208271879
 30
0.0
 11
213.16379562297979
 21
178.04898208274699
 31
0.0
  0
ARC
  5
A4F9
  8
0
 10
221.66379562297689
 20
169.21924826396869
 30
0.0
 40
12.25
 50
133.8798771030479
 51
159.30166507346181
  0
LINE
  5
A4FA
  8
0
 10
236.1637956229805
 20
220.54898208279391
 30
0.0
 11
207.16379562297999
 21
220.54898208279371
 31
0.0
  0
LINE
  5
A4FB
  8
0
 10
207.16379562297999
 20
236.5489820827942
 30
0.0
 11
236.1637956229807
 21
236.5489820827938
 31
0.0
  0
LINE
  5
A4FC
  8
0
 10
236.16379562297999
 20
236.5489820827942
 30
0.0
 11
238.98430369866861
 21
234.92056098604391
 31
0.0
  0
ARC
  5
A4FD
  8
0
 10
234.6541766797462
 20
228.59283870292299
 30
0.0
 40
7.6674682452751766
 50
64.384247470459229
 51
124.3842474680059
  0
ARC
  5
A4FE
  8
0
 10
234.6541766797462
 20
228.59283870292299
 30
0.0
 40
7.6674682452751766
 50
55.615752531994112
 51
55.615752531994112
  0
ARC
  5
A4FF
  8
0
 10
234.6541766797462
 20
228.50512546266489
 30
0.0
 40
7.6674682452751766
 50
304.38424746800581
 51
304.38424746800581
  0
ARC
  5
A500
  8
0
 10
234.6541766797462
 20
228.50512546266489
 30
0.0
 40
7.6674682452751766
 50
235.6157525319941
 51
295.61575252954083
  0
LINE
  5
A501
  8
0
 10
236.16379562297999
 20
220.54898208279371
 30
0.0
 11
238.98430369866861
 21
222.177403179544
 31
0.0
  0
LINE
  5
A502
  8
0
 10
238.98430369866841
 20
234.92056098604391
 30
0.0
 11
238.9843036989522
 21
222.17740317970771
 31
0.0
  0
LINE
  5
A503
  8
0
 10
230.32404966082419
 20
222.17740317956739
 30
0.0
 11
230.32404966067031
 21
234.92056098604391
 31
0.0
  0
ARC
  5
A504
  8
0
 10
221.6637956230534
 20
249.4979112547822
 30
0.0
 40
28.660254037392811
 50
252.41204622557001
 51
287.5879537741294
  0
LINE
  5
A505
  8
0
 10
213.00354158513579
 20
222.17740317956739
 30
0.0
 11
213.0035415852897
 21
234.92056098604391
 31
0.0
  0
LINE
  5
A506
  8
0
 10
204.3432875472916
 20
234.92056098604391
 30
0.0
 11
204.3432875470078
 21
222.17740317970771
 31
0.0
  0
LINE
  5
A507
  8
0
 10
207.16379562297999
 20
220.54898208279371
 30
0.0
 11
204.3432875472914
 21
222.177403179544
 31
0.0
  0
ARC
  5
A508
  8
0
 10
208.67341456621381
 20
228.50512546266489
 30
0.0
 40
7.6674682452751766
 50
244.3842474704592
 51
304.38424746800581
  0
ARC
  5
A509
  8
0
 10
208.67341456621381
 20
228.50512546266489
 30
0.0
 40
7.6674682452751766
 50
235.6157525319941
 51
235.6157525319941
  0
ARC
  5
A50A
  8
0
 10
221.6637956230534
 20
207.60005291080549
 30
0.0
 40
28.660254037392811
 50
72.412046225870654
 51
107.58795377443001
  0
ARC
  5
A50B
  8
0
 10
208.67341456621381
 20
228.59283870292299
 30
0.0
 40
7.6674682452751766
 50
124.3842474680059
 51
124.3842474680059
  0
ARC
  5
A50C
  8
0
 10
208.67341456621381
 20
228.59283870292299
 30
0.0
 40
7.6674682452751766
 50
55.615752531994112
 51
115.6157525295408
  0
LINE
  5
A50D
  8
0
 10
207.16379562297999
 20
236.5489820827942
 30
0.0
 11
204.3432875472914
 21
234.92056098604391
 31
0.0
  0
LINE
  5
A50E
  8
3
 10
230.31079562297981
 20
236.548982082794
 30
0.0
 11
230.31079562297981
 21
291.40198208277093
 31
0.0
  0
LINE
  5
A50F
  8
0
 10
231.66379562297971
 20
236.5489820827938
 30
0.0
 11
231.66379562297971
 21
290.04898208277092
 31
0.0
  0
LINE
  5
A510
  8
0
 10
211.66379562297971
 20
236.548982082794
 30
0.0
 11
211.66379562297971
 21
290.04898208277109
 31
0.0
  0
LINE
  5
A511
  8
3
 10
213.01679562297991
 20
236.548982082794
 30
0.0
 11
213.01679562297991
 21
291.40198208277121
 31
0.0
  0
LINE
  5
A512
  8
0
 10
159.16379562297979
 20
127.548982082771
 30
0.0
 11
159.16379562297971
 21
143.6681881718161
 31
0.0
  0
LINE
  5
A514
  8
DEFPOINTS
 10
200.66379562297979
 20
173.548982082771
 30
0.0
 11
186.66379562297971
 21
151.548982082771
 31
0.0
  0
LINE
  5
A515
  8
DEFPOINTS
 10
186.66379562297971
 20
151.548982082771
 30
0.0
 11
180.9171163423448
 21
150.08619099315479
 31
0.0
  0
LINE
  5
A516
  8
DEFPOINTS
 10
166.16379562297979
 20
145.43989117368
 30
0.0
 11
166.16379562297979
 21
145.45000635363431
 31
0.0
  0
LINE
  5
A517
  8
DEFPOINTS
 10
173.16379562297979
 20
147.22170935549821
 30
0.0
 11
173.16379562297979
 21
147.2318245354524
 31
0.0
  0
LINE
  5
A518
  8
DEFPOINTS
 10
180.16379562297971
 20
149.00352753731639
 30
0.0
 11
180.1637956229799
 21
149.1170938192318
 31
0.0
  0
LINE
  5
A519
  8
DEFPOINTS
 10
160.03754134330569
 20
144.66018608353971
 30
0.0
 11
166.16379562297979
 21
145.43989117368
 31
0.0
  0
LINE
  5
A51A
  8
DEFPOINTS
 10
167.0375413433058
 20
146.44200426535781
 30
0.0
 11
173.16379562297979
 21
147.22170935549821
 31
0.0
  0
LINE
  5
A51B
  8
DEFPOINTS
 10
174.03754134330589
 20
148.2238224471761
 30
0.0
 11
180.16379562297971
 21
149.00352753731639
 31
0.0
  0
ARC
  5
A51C
  8
DEFPOINTS
 10
181.16379562297971
 20
149.1170938192318
 30
0.0
 40
1.0
 50
104.28109573597111
 51
180.0
  0
ARC
  5
A51D
  8
DEFPOINTS
 10
174.16379562297979
 20
147.2318245354524
 30
0.0
 40
1.0
 50
97.253194612725352
 51
180.0
  0
ARC
  5
A51E
  8
DEFPOINTS
 10
167.16379562297979
 20
145.45000635363431
 30
0.0
 40
1.0
 50
97.253194612725352
 51
179.99999999999821
  0
ARC
  5
A51F
  8
DEFPOINTS
 10
160.16379562297971
 20
143.6681881718161
 30
0.0
 40
1.0
 50
97.253194612725352
 51
180.00000000000051
  0
LINE
  5
A520
  8
DEFPOINTS
 10
256.66379562297971
 20
151.548982082771
 30
0.0
 11
186.66379562297999
 21
151.548982082771
 31
0.0
  0
LINE
  5
A521
  8
DEFPOINTS
 10
263.16379562297971
 20
149.00352753731639
 30
0.0
 11
180.16379562298039
 21
149.0035275373165
 31
0.0
  0
LINE
  5
A522
  8
DEFPOINTS
 10
270.16379562297971
 20
147.22170935549821
 30
0.0
 11
173.16379562298059
 21
147.22170935549821
 31
0.0
  0
LINE
  5
A523
  8
DEFPOINTS
 10
277.16379562297971
 20
145.43989117368
 30
0.0
 11
166.1637956229807
 21
145.43989117368011
 31
0.0
  0
ARC
  5
A524
  8
DEFPOINTS
 10
283.16379562297982
 20
143.6681881718161
 30
0.0
 40
1.0
 50
359.9999999999996
 51
82.746805387274634
  0
ARC
  5
A525
  8
DEFPOINTS
 10
276.16379562297971
 20
145.45000635363431
 30
0.0
 40
1.0
 50
0.000000000001832
 51
82.746805387274634
  0
ARC
  5
A526
  8
DEFPOINTS
 10
269.16379562297971
 20
147.2318245354524
 30
0.0
 40
1.0
 50
0.0
 51
82.746805387274634
  0
ARC
  5
A527
  8
DEFPOINTS
 10
262.16379562297971
 20
149.1170938192318
 30
0.0
 40
1.0
 50
0.0
 51
75.718904264028865
  0
LINE
  5
A528
  8
DEFPOINTS
 10
269.29004990265372
 20
148.2238224471761
 30
0.0
 11
263.16379562297971
 21
149.00352753731639
 31
0.0
  0
LINE
  5
A529
  8
DEFPOINTS
 10
276.29004990265372
 20
146.44200426535781
 30
0.0
 11
270.16379562297971
 21
147.22170935549821
 31
0.0
  0
LINE
  5
A52A
  8
DEFPOINTS
 10
283.29004990265372
 20
144.66018608353971
 30
0.0
 11
277.16379562297971
 21
145.43989117368
 31
0.0
  0
LINE
  5
A52B
  8
DEFPOINTS
 10
263.16379562297971
 20
149.00352753731639
 30
0.0
 11
263.16379562297971
 21
149.1170938192318
 31
0.0
  0
LINE
  5
A52C
  8
DEFPOINTS
 10
270.16379562297971
 20
147.22170935549821
 30
0.0
 11
270.16379562297971
 21
147.2318245354524
 31
0.0
  0
LINE
  5
A52D
  8
DEFPOINTS
 10
277.16379562297971
 20
145.43989117368
 30
0.0
 11
277.16379562297971
 21
145.45000635363431
 31
0.0
  0
LINE
  5
A52E
  8
DEFPOINTS
 10
256.66379562297971
 20
151.548982082771
 30
0.0
 11
262.4104749036145
 21
150.08619099315479
 31
0.0
  0
LINE
  5
A52F
  8
DEFPOINTS
 10
242.66379562297971
 20
173.548982082771
 30
0.0
 11
256.66379562297971
 21
151.548982082771
 31
0.0
  0
LINE
  5
A530
  8
0
 10
242.66379562297971
 20
173.548982082771
 30
0.0
 11
200.66379562297979
 21
173.548982082771
 31
0.0
  0
LINE
  5
A533
  8
0
 10
284.16379562297971
 20
127.548982082771
 30
0.0
 11
284.16379562297982
 21
143.6681881718161
 31
0.0
  0
LINE
  5
A534
  8
0
 10
284.16379562297971
 20
127.548982082771
 30
0.0
 11
159.16379562297979
 21
127.548982082771
 31
0.0
  0
TEXT
  5
A890
  8
0
 62
     3
 10
0.0
 20
0.0
 30
0.0
 40
10.0
  1
LVE125L20A
  7
STANDARD1
  0
ENDSEC
  0
EOF
