  0
SECTION
  2
HEADER
  9
$ACADVER
  1
AC1009
  9
$INSBASE
 10
0.0
 20
0.0
 30
0.0
  9
$EXTMIN
 10
0.0
 20
-2.960436562073669
 30
0.0
  9
$EXTMAX
 10
306.93131923058218
 20
360.58641047144448
 30
0.0
  9
$LIMMIN
 10
0.0
 20
0.0
  9
$LIMMAX
 10
375.0
 20
270.0
  9
$ORTHOMODE
 70
     1
  9
$REGENMODE
 70
     1
  9
$FILLMODE
 70
     1
  9
$QTEXTMODE
 70
     0
  9
$MIRRTEXT
 70
     0
  9
$DRAGMODE
 70
     2
  9
$LTSCALE
 40
6.0
  9
$OSMODE
 70
  3071
  9
$ATTMODE
 70
     1
  9
$TEXTSIZE
 40
0.2
  9
$TRACEWID
 40
0.05
  9
$TEXTSTYLE
  7
STANDARD
  9
$CLAYER
  8
0
  9
$CELTYPE
  6
BYLAYER
  9
$CECOLOR
 62
   256
  9
$DIMSCALE
 40
1.0
  9
$DIMASZ
 40
3.0
  9
$DIMEXO
 40
1.0
  9
$DIMDLI
 40
6.0
  9
$DIMRND
 40
0.0
  9
$DIMDLE
 40
0.0
  9
$DIMEXE
 40
1.0
  9
$DIMTP
 40
495.0
  9
$DIMTM
 40
0.0
  9
$DIMTXT
 40
3.0
  9
$DIMCEN
 40
0.0
  9
$DIMTSZ
 40
0.0
  9
$DIMTOL
 70
     0
  9
$DIMLIM
 70
     0
  9
$DIMTIH
 70
     0
  9
$DIMTOH
 70
     0
  9
$DIMSE1
 70
     0
  9
$DIMSE2
 70
     0
  9
$DIMTAD
 70
     1
  9
$DIMZIN
 70
     0
  9
$DIMBLK
  1

  9
$DIMASO
 70
     0
  9
$DIMSHO
 70
     0
  9
$DIMPOST
  1

  9
$DIMAPOST
  1

  9
$DIMALT
 70
     0
  9
$DIMALTD
 70
     2
  9
$DIMALTF
 40
25.399999999999999
  9
$DIMLFAC
 40
1.0
  9
$DIMTOFL
 70
     1
  9
$DIMTVP
 40
0.0
  9
$DIMTIX
 70
     1
  9
$DIMSOXD
 70
     0
  9
$DIMSAH
 70
     0
  9
$DIMBLK1
  1

  9
$DIMBLK2
  1

  9
$DIMSTYLE
  2
STANDARD
  9
$DIMCLRD
 70
     0
  9
$DIMCLRE
 70
     0
  9
$DIMCLRT
 70
     4
  9
$DIMTFAC
 40
1.0
  9
$DIMGAP
 40
1.0
  9
$LUNITS
 70
     2
  9
$LUPREC
 70
     4
  9
$SKETCHINC
 40
0.1
  9
$FILLETRAD
 40
2.0
  9
$AUNITS
 70
     0
  9
$AUPREC
 70
     0
  9
$MENU
  1
C:\R13\WIN\SUPPORT\ACAD-I
  9
$ELEVATION
 40
0.0
  9
$PELEVATION
 40
0.0
  9
$THICKNESS
 40
0.0
  9
$LIMCHECK
 70
     0
  9
$BLIPMODE
 70
     0
  9
$CHAMFERA
 40
0.0
  9
$CHAMFERB
 40
0.0
  9
$SKPOLY
 70
     0
  9
$TDCREATE
 40
2451962.6087837159
  9
$TDUPDATE
 40
2456597.6148547232
  9
$TDINDWG
 40
0.0150221644
  9
$TDUSRTIMER
 40
2456556.1984595479
  9
$USRTIMER
 70
     1
  9
$ANGBASE
 50
0.0
  9
$ANGDIR
 70
     0
  9
$PDMODE
 70
     0
  9
$PDSIZE
 40
0.0
  9
$PLINEWID
 40
0.0
  9
$COORDS
 70
     1
  9
$SPLFRAME
 70
     0
  9
$SPLINETYPE
 70
     6
  9
$SPLINESEGS
 70
     8
  9
$ATTDIA
 70
     0
  9
$ATTREQ
 70
     1
  9
$HANDLING
 70
     1
  9
$HANDSEED
  5
8FA5
  9
$SURFTAB1
 70
     6
  9
$SURFTAB2
 70
     6
  9
$SURFTYPE
 70
     6
  9
$SURFU
 70
     6
  9
$SURFV
 70
     6
  9
$UCSNAME
  2

  9
$UCSORG
 10
0.0
 20
0.0
 30
0.0
  9
$UCSXDIR
 10
1.0
 20
0.0
 30
0.0
  9
$UCSYDIR
 10
0.0
 20
1.0
 30
0.0
  9
$PUCSNAME
  2

  9
$PUCSORG
 10
0.0
 20
0.0
 30
0.0
  9
$PUCSXDIR
 10
1.0
 20
0.0
 30
0.0
  9
$PUCSYDIR
 10
0.0
 20
1.0
 30
0.0
  9
$USERI1
 70
     4
  9
$USERI2
 70
     1
  9
$USERI3
 70
     0
  9
$USERI4
 70
     0
  9
$USERI5
 70
     0
  9
$USERR1
 40
1.0
  9
$USERR2
 40
3.0
  9
$USERR3
 40
3.0
  9
$USERR4
 40
3.0
  9
$USERR5
 40
10.0
  9
$WORLDVIEW
 70
     1
  9
$SHADEDGE
 70
     3
  9
$SHADEDIF
 70
    70
  9
$TILEMODE
 70
     1
  9
$MAXACTVP
 70
    16
  9
$PLIMCHECK
 70
     0
  9
$PEXTMIN
 10
1.0000000000000000E+020
 20
1.0000000000000000E+020
 30
1.0000000000000000E+020
  9
$PEXTMAX
 10
-1.0000000000000000E+020
 20
-1.0000000000000000E+020
 30
-1.0000000000000000E+020
  9
$PLIMMIN
 10
0.0
 20
0.0
  9
$PLIMMAX
 10
12.0
 20
9.0
  9
$UNITMODE
 70
     0
  9
$VISRETAIN
 70
     0
  9
$PLINEGEN
 70
     0
  9
$PSLTSCALE
 70
     0
  0
ENDSEC
  0
SECTION
  2
TABLES
  0
TABLE
  2
VPORT
 70
     1
  0
VPORT
  2
*ACTIVE
 70
     0
 10
0.0
 20
0.0
 11
1.0
 21
1.0
 12
187.49427839065231
 22
179.59471486207241
 13
0.0
 23
0.0
 14
10.0
 24
10.0
 15
10.0
 25
10.0
 16
0.0
 26
0.0
 36
1.0
 17
0.0
 27
0.0
 37
0.0
 40
369.33279282945148
 41
2.304913294797688
 42
50.0
 43
0.0
 44
0.0
 50
0.0
 51
0.0
 71
    16
 72
   100
 73
     1
 74
     0
 75
     0
 76
     0
 77
     0
 78
     0
  0
ENDTAB
  0
TABLE
  2
LTYPE
 70
     3
  0
LTYPE
  2
CONTINUOUS
 70
     0
  3
Solid Line
 72
    65
 73
     0
 40
0.0
  0
LTYPE
  2
PHANTOM2
 70
     0
  3
___ _ _ ___ _ _ ___ _ _ ___ _ _
 72
    65
 73
     6
 40
1.25
 49
0.625
 49
-0.125
 49
0.125
 49
-0.125
 49
0.125
 49
-0.125
  0
LTYPE
  2
CENTER
 70
     0
  3
____ _ ____ _ ____ _ ____ _ ____ _ ____ _ ____
 72
    65
 73
     4
 40
2.0
 49
1.25
 49
-0.25
 49
0.25
 49
-0.25
  0
ENDTAB
  0
TABLE
  2
LAYER
 70
     4
  0
LAYER
  2
0
 70
     0
 62
     7
  6
CONTINUOUS
  0
LAYER
  2
1
 70
     0
 62
     1
  6
CENTER
  0
LAYER
  2
3
 70
     0
 62
     3
  6
CONTINUOUS
  0
LAYER
  2
DEFPOINTS
 70
     0
 62
     7
  6
CONTINUOUS
  0
ENDTAB
  0
TABLE
  2
STYLE
 70
     3
  0
STYLE
  2
STANDARD
 70
     0
 40
0.0
 41
1.0
 50
0.0
 71
     0
 42
0.2
  3
SIMPLEX
  4
BIGFONT
  0
STYLE
  2
ANNOTATIVE
 70
     0
 40
0.0
 41
1.0
 50
0.0
 71
     0
 42
0.2
  3
txt
  4

  0
STYLE
  2
STANDARD1
 70
     0
 40
0.0
 41
1.0
 50
0.0
 71
     0
 42
3.0
  3
txt
  4

  0
ENDTAB
  0
TABLE
  2
VIEW
 70
     0
  0
ENDTAB
  0
TABLE
  2
UCS
 70
     0
  0
ENDTAB
  0
TABLE
  2
APPID
 70
    29
  0
APPID
  2
ACAD
 70
     0
  0
APPID
  2
ACADANNOTATIVE
 70
     0
  0
APPID
  2
GENIUS_GENOREF_13
 70
     0
  0
APPID
  2
GENIUS_GENOENT_13
 70
     0
  0
APPID
  2
GENIUS_GENBH_13
 70
     0
  0
APPID
  2
GENIUS_GENOBJ_13
 70
     0
  0
APPID
  2
GENIUS_GENODEF_13
 70
     0
  0
APPID
  2
GENIUS_GENOLIS_13
 70
     0
  0
APPID
  2
GENIUS_GENOBJ-NBEHI-BHF_13
 70
     0
  0
APPID
  2
GENIUS_GENOBJ-NBEHI-BHB_13
 70
     0
  0
APPID
  2
GENIUS_GENOBJ-F-PART_13
 70
     0
  0
APPID
  2
GENIUS_GEFSTDP_13
 70
     0
  0
APPID
  2
GENIUS_GENOBJ-N-RSSYM_13
 70
     0
  0
APPID
  2
GENIUS_GENSYMENT_13
 70
     0
  0
APPID
  2
GENIUS_GENOBJ-N-TIT_13
 70
     0
  0
APPID
  2
GENIUS_GENTITLE_13
 70
     0
  0
APPID
  2
GENIUS_GENZVEED_13
 70
     0
  0
APPID
  2
GENIUS_GENOBJ-N-LEADER_13
 70
     0
  0
APPID
  2
GENIUS_GENOBJ-N-FIL_13
 70
     0
  0
APPID
  2
GENIUS_GENOBJ-N-SEC_13
 70
     0
  0
APPID
  2
GENIUS_GENOBJ-N-CRS_13
 70
     0
  0
APPID
  2
GENIUS_GENOBJ-N-ZOO_13
 70
     0
  0
APPID
  2
GENIUS_GENZOO_13
 70
     0
  0
APPID
  2
GENIUS_GENOBJ-F-TOL_13
 70
     0
  0
APPID
  2
GENIUS_GENFIL_13
 70
     0
  0
APPID
  2
GENIUS_GENOBJ-N-CHA_13
 70
     0
  0
APPID
  2
ACAD_EXEMPT_FROM_CAD_STANDARDS
 70
     0
  0
APPID
  2
ACAD_MLEADERVER
 70
     0
  0
APPID
  2
ACAD_NAV_VCDISPLAY
 70
     0
  0
ENDTAB
  0
TABLE
  2
DIMSTYLE
 70
     2
  0
DIMSTYLE
  2
STANDARD
 70
     0
  3

  4

  5

  6

  7

 40
1.0
 41
0.18
 42
0.0625
 43
0.38
 44
0.18
 45
0.0
 46
0.0
 47
0.0
 48
0.0
140
0.18
141
0.09
142
0.0
143
25.399999999999999
144
1.0
145
0.0
146
1.0
147
0.09
 71
     0
 72
     0
 73
     1
 74
     1
 75
     0
 76
     0
 77
     0
 78
     0
170
     0
171
     2
172
     0
173
     0
174
     0
175
     0
176
     0
177
     0
178
     0
  0
DIMSTYLE
  2
ANNOTATIVE
 70
     0
  3

  4

  5

  6

  7

 40
1.0
 41
0.18
 42
0.0625
 43
0.38
 44
0.18
 45
0.0
 46
0.0
 47
0.0
 48
0.0
140
0.18
141
0.09
142
0.0
143
25.399999999999999
144
1.0
145
0.0
146
1.0
147
0.09
 71
     0
 72
     0
 73
     1
 74
     1
 75
     0
 76
     0
 77
     0
 78
     0
170
     0
171
     2
172
     0
173
     0
174
     0
175
     0
176
     0
177
     0
178
     0
  0
ENDTAB
  0
ENDSEC
  0
SECTION
  2
BLOCKS
  0
BLOCK
  8
0
  2
$MODEL_SPACE
 70
     0
 10
0.0
 20
0.0
 30
0.0
  3
$MODEL_SPACE
  1

  0
ENDBLK
  5
8EC7
  8
0
  0
BLOCK
 67
     1
  8
0
  2
$PAPER_SPACE
 70
     0
 10
0.0
 20
0.0
 30
0.0
  3
$PAPER_SPACE
  1

  0
ENDBLK
  5
8EC3
 67
     1
  8
0
  0
ENDSEC
  0
SECTION
  2
ENTITIES
  0
LINE
  5
8B34
  8
0
 10
131.5081483345366
 20
34.488992335550343
 30
0.0
 11
31.5081483345366
 21
34.488992335550392
 31
0.0
  0
LINE
  5
8B35
  8
0
 10
131.5081483345366
 20
34.488992335550392
 30
0.0
 11
131.5081483345366
 21
43.669188432831781
 31
0.0
  0
LINE
  5
8B37
  8
0
 10
98.008148334536585
 20
58.48899233555035
 30
0.0
 11
65.008148334536585
 21
58.488992335550392
 31
0.0
  0
LINE
  5
8B39
  8
DEFPOINTS
 10
99.008148334536585
 20
57.488992335550321
 30
0.0
 11
99.008148334536585
 21
57.488992335550392
 31
0.0
  0
LINE
  5
8B3A
  8
DEFPOINTS
 10
105.5081483345366
 20
54.750417681032211
 30
0.0
 11
105.5081483345366
 21
54.488992335550392
 31
0.0
  0
LINE
  5
8B3B
  8
DEFPOINTS
 10
111.5081483345366
 20
51.76823311549424
 30
0.0
 11
111.5081483345366
 21
51.488992335550343
 31
0.0
  0
LINE
  5
8B3C
  8
DEFPOINTS
 10
118.5081483345365
 20
48.734690922795998
 30
0.0
 11
118.5081483345365
 21
48.488992335550392
 31
0.0
  0
LINE
  5
8B3D
  8
DEFPOINTS
 10
126.5081483345366
 20
45.708215929145908
 30
0.0
 11
126.5081483345366
 21
45.488992335550321
 31
0.0
  0
LINE
  5
8B3E
  8
DEFPOINTS
 10
99.008148334536585
 20
57.488992335550392
 30
0.0
 11
104.8022341833741
 21
55.706196689754172
 31
0.0
  0
LINE
  5
8B3F
  8
DEFPOINTS
 10
105.5081483345366
 20
54.488992335550392
 30
0.0
 11
110.82437610055339
 21
52.716916413544709
 31
0.0
  0
LINE
  5
8B40
  8
DEFPOINTS
 10
111.5081483345366
 20
51.488992335550343
 30
0.0
 11
117.78286946243379
 21
49.696214870436791
 31
0.0
  0
LINE
  5
8B41
  8
DEFPOINTS
 10
118.5081483345365
 20
48.488992335550392
 30
0.0
 11
125.7506839595729
 21
46.678358429291279
 31
0.0
  0
ARC
  5
8B42
  8
DEFPOINTS
 10
125.5081483345366
 20
45.708215929145908
 30
0.0
 40
1.0
 50
0.0
 51
75.963756532073333
  0
ARC
  5
8B43
  8
DEFPOINTS
 10
117.5081483345365
 20
48.734690922795998
 30
0.0
 40
1.0
 50
0.0
 51
74.054604099077153
  0
ARC
  5
8B44
  8
DEFPOINTS
 10
110.5081483345366
 20
51.76823311549424
 30
0.0
 40
1.0
 50
0.0
 51
71.565051177077734
  0
ARC
  5
8B45
  8
DEFPOINTS
 10
104.5081483345366
 20
54.750417681032211
 30
0.0
 40
1.0
 50
0.0
 51
72.897271030947451
  0
ARC
  5
8B46
  8
DEFPOINTS
 10
98.008148334536585
 20
57.488992335550321
 30
0.0
 40
1.0
 50
0.0
 51
89.999999999999986
  0
LINE
  5
8B47
  8
DEFPOINTS
 10
126.5081483345366
 20
45.488992335550321
 30
0.0
 11
130.7042644696748
 21
44.649769108522698
 31
0.0
  0
ARC
  5
8B48
  8
DEFPOINTS
 10
130.5081483345366
 20
43.669188432831781
 30
0.0
 40
1.0
 50
359.99999999999972
 51
78.690067525979913
  0
ARC
  5
8B49
  8
DEFPOINTS
 10
32.5081483345366
 20
43.669188432831781
 30
0.0
 40
1.0
 50
101.3099324740201
 51
180.00000000000031
  0
LINE
  5
8B4A
  8
DEFPOINTS
 10
36.5081483345366
 20
45.488992335550321
 30
0.0
 11
32.312032199398352
 21
44.649769108522698
 31
0.0
  0
ARC
  5
8B4B
  8
DEFPOINTS
 10
65.008148334536585
 20
57.488992335550321
 30
0.0
 40
1.0
 50
90.000000000000057
 51
180.0
  0
ARC
  5
8B4C
  8
DEFPOINTS
 10
58.5081483345366
 20
54.750417681032211
 30
0.0
 40
1.0
 50
107.10272896905251
 51
180.0
  0
ARC
  5
8B4D
  8
DEFPOINTS
 10
52.508148334536592
 20
51.76823311549424
 30
0.0
 40
1.0
 50
108.43494882292219
 51
180.0
  0
ARC
  5
8B4E
  8
DEFPOINTS
 10
45.508148334536592
 20
48.734690922795998
 30
0.0
 40
1.0
 50
105.9453959009228
 51
180.0
  0
ARC
  5
8B4F
  8
DEFPOINTS
 10
37.5081483345366
 20
45.708215929145908
 30
0.0
 40
1.0
 50
104.0362434679266
 51
180.0
  0
LINE
  5
8B50
  8
DEFPOINTS
 10
44.5081483345366
 20
48.488992335550392
 30
0.0
 11
37.265612709500253
 21
46.678358429291279
 31
0.0
  0
LINE
  5
8B51
  8
DEFPOINTS
 10
51.5081483345366
 20
51.488992335550343
 30
0.0
 11
45.233427206639249
 21
49.696214870436791
 31
0.0
  0
LINE
  5
8B52
  8
DEFPOINTS
 10
57.508148334536592
 20
54.488992335550392
 30
0.0
 11
52.19192056851977
 21
52.716916413544709
 31
0.0
  0
LINE
  5
8B53
  8
DEFPOINTS
 10
64.0081483345366
 20
57.488992335550392
 30
0.0
 11
58.21406248569906
 21
55.706196689754172
 31
0.0
  0
LINE
  5
8B54
  8
DEFPOINTS
 10
36.5081483345366
 20
45.708215929145908
 30
0.0
 11
36.5081483345366
 21
45.488992335550321
 31
0.0
  0
LINE
  5
8B55
  8
DEFPOINTS
 10
44.5081483345366
 20
48.734690922795998
 30
0.0
 11
44.5081483345366
 21
48.488992335550392
 31
0.0
  0
LINE
  5
8B56
  8
DEFPOINTS
 10
51.5081483345366
 20
51.76823311549424
 30
0.0
 11
51.5081483345366
 21
51.488992335550343
 31
0.0
  0
LINE
  5
8B57
  8
DEFPOINTS
 10
57.508148334536592
 20
54.750417681032211
 30
0.0
 11
57.508148334536592
 21
54.488992335550392
 31
0.0
  0
LINE
  5
8B58
  8
DEFPOINTS
 10
64.0081483345366
 20
57.488992335550321
 30
0.0
 11
64.0081483345366
 21
57.488992335550392
 31
0.0
  0
LINE
  5
8B5A
  8
0
 10
31.5081483345366
 20
34.488992335550392
 30
0.0
 11
31.5081483345366
 21
43.669188432831781
 31
0.0
  0
LINE
  5
8B5B
  8
DEFPOINTS
 10
36.5081483345366
 20
45.488992335550321
 30
0.0
 11
126.5081483345366
 21
45.488992335550321
 31
0.0
  0
LINE
  5
8B5C
  8
DEFPOINTS
 10
44.5081483345366
 20
48.488992335550392
 30
0.0
 11
118.5081483345365
 21
48.488992335550392
 31
0.0
  0
LINE
  5
8B5D
  8
DEFPOINTS
 10
51.5081483345366
 20
51.488992335550343
 30
0.0
 11
111.5081483345366
 21
51.488992335550343
 31
0.0
  0
LINE
  5
8B5E
  8
DEFPOINTS
 10
105.5081483345366
 20
54.488992335550392
 30
0.0
 11
57.508148334536592
 21
54.488992335550392
 31
0.0
  0
LINE
  5
8B5F
  8
DEFPOINTS
 10
64.0081483345366
 20
57.488992335550392
 30
0.0
 11
99.008148334536585
 21
57.488992335550392
 31
0.0
  0
CIRCLE
  5
8B60
  8
DEFPOINTS
 10
81.508148334536585
 20
300.58641047144448
 30
0.0
 40
50.0
  0
CIRCLE
  5
8B61
  8
DEFPOINTS
 10
81.508148334536585
 20
300.58641047144448
 30
0.0
 40
45.0
  0
CIRCLE
  5
8B62
  8
DEFPOINTS
 10
81.508148334536585
 20
300.58641047144448
 30
0.0
 40
37.0
  0
CIRCLE
  5
8B63
  8
DEFPOINTS
 10
81.508148334536585
 20
300.58641047144448
 30
0.0
 40
30.0
  0
CIRCLE
  5
8B64
  8
DEFPOINTS
 10
81.508148334536585
 20
300.58641047144448
 30
0.0
 40
23.999999999999989
  0
CIRCLE
  5
8B65
  8
DEFPOINTS
 10
81.508148334536585
 20
300.58641047144448
 30
0.0
 40
17.499999999999979
  0
CIRCLE
  5
8B66
  8
0
 10
81.508148334536585
 20
300.58641047144448
 30
0.0
 40
14.5
  0
LINE
  5
8B67
  8
0
 10
64.187640258847964
 20
300.58641047144482
 30
0.0
 11
72.847894296692417
 21
285.58641047144448
 31
0.0
  0
LINE
  5
8B68
  8
0
 10
72.847894296692417
 20
315.58641047144448
 30
0.0
 11
64.187640258847964
 21
300.58641047144482
 31
0.0
  0
LINE
  5
8B69
  8
0
 10
90.168402372380797
 20
315.58641047144448
 30
0.0
 11
72.847894296692417
 21
315.58641047144448
 31
0.0
  0
LINE
  5
8B6A
  8
0
 10
98.828656410225449
 20
300.58641047144448
 30
0.0
 11
90.168402372380797
 21
315.58641047144448
 31
0.0
  0
LINE
  5
8B6B
  8
0
 10
90.168402372381024
 20
285.58641047144448
 30
0.0
 11
98.828656410225449
 21
300.58641047144448
 31
0.0
  0
LINE
  5
8B6C
  8
0
 10
72.847894296692417
 20
285.58641047144448
 30
0.0
 11
90.168402372381024
 21
285.58641047144448
 31
0.0
  0
CIRCLE
  5
8B6D
  8
3
 10
81.508148334536585
 20
300.58641047144448
 30
0.0
 40
8.6470000000000002
  0
CIRCLE
  5
8B6E
  8
0
 10
81.508148334536585
 20
300.58641047144448
 30
0.0
 40
10.0
  0
LINE
  5
8B6F
  8
3
 10
72.861148334536651
 20
119.4889923355731
 30
0.0
 11
72.861148334536651
 21
214.3419923355506
 31
0.0
  0
LINE
  5
8B70
  8
0
 10
71.508148334536585
 20
119.4889923355731
 30
0.0
 11
71.508148334536585
 21
212.98899233555039
 31
0.0
  0
LINE
  5
8B71
  8
0
 10
91.508148334536585
 20
119.4889923355729
 30
0.0
 11
91.508148334536585
 21
212.98899233555031
 31
0.0
  0
LINE
  5
8B72
  8
3
 10
90.15514833453652
 20
119.4889923355731
 30
0.0
 11
90.15514833453652
 21
214.3419923355502
 31
0.0
  0
LINE
  5
8B73
  8
0
 10
67.008148334536813
 20
119.4889923355733
 30
0.0
 11
64.187640258848205
 21
117.860571238823
 31
0.0
  0
ARC
  5
8B74
  8
0
 10
68.517767277770659
 20
111.53284895570209
 30
0.0
 40
7.6674682452751766
 50
55.615752531994502
 51
115.61575252953971
  0
ARC
  5
8B75
  8
0
 10
68.517767277770659
 20
111.53284895570209
 30
0.0
 40
7.6674682452751766
 50
124.3842474680055
 51
124.3842474680055
  0
ARC
  5
8B76
  8
0
 10
81.508148334610254
 20
90.540063163584563
 30
0.0
 40
28.660254037392811
 50
72.412046225870512
 51
107.58795377442971
  0
ARC
  5
8B77
  8
0
 10
68.517767277770659
 20
111.4451357154442
 30
0.0
 40
7.6674682452751766
 50
235.6157525319945
 51
235.6157525319945
  0
ARC
  5
8B78
  8
0
 10
68.517767277770659
 20
111.4451357154442
 30
0.0
 40
7.6674682452751766
 50
244.3842474704602
 51
304.38424746800558
  0
LINE
  5
8B79
  8
0
 10
67.008148334536813
 20
103.488992335573
 30
0.0
 11
64.187640258848205
 21
105.1174134323233
 31
0.0
  0
LINE
  5
8B7A
  8
0
 10
64.187640258848432
 20
117.860571238823
 30
0.0
 11
64.18764025856467
 21
105.117413432487
 31
0.0
  0
LINE
  5
8B7B
  8
0
 10
72.84789429669263
 20
105.11741343234669
 30
0.0
 11
72.847894296846562
 21
117.860571238823
 31
0.0
  0
ARC
  5
8B7C
  8
0
 10
81.508148334610254
 20
132.4379215075615
 30
0.0
 40
28.660254037392811
 50
252.41204622557021
 51
287.5879537741294
  0
LINE
  5
8B7D
  8
0
 10
90.168402372381024
 20
105.11741343234669
 30
0.0
 11
90.168402372227064
 21
117.860571238823
 31
0.0
  0
LINE
  5
8B7E
  8
0
 10
98.828656410225221
 20
117.860571238823
 30
0.0
 11
98.828656410508984
 21
105.117413432487
 31
0.0
  0
LINE
  5
8B7F
  8
0
 10
96.008148334536827
 20
103.488992335573
 30
0.0
 11
98.828656410225449
 21
105.1174134323233
 31
0.0
  0
ARC
  5
8B80
  8
0
 10
94.498529391302995
 20
111.4451357154442
 30
0.0
 40
7.6674682452751766
 50
235.6157525319945
 51
295.61575252953969
  0
ARC
  5
8B81
  8
0
 10
94.498529391302995
 20
111.4451357154442
 30
0.0
 40
7.6674682452751766
 50
304.38424746800558
 51
304.38424746800558
  0
ARC
  5
8B82
  8
0
 10
94.498529391302995
 20
111.53284895570209
 30
0.0
 40
7.6674682452751766
 50
55.615752531994502
 51
55.615752531994502
  0
ARC
  5
8B83
  8
0
 10
94.498529391302995
 20
111.53284895570209
 30
0.0
 40
7.6674682452751766
 50
64.384247470460238
 51
124.3842474680055
  0
LINE
  5
8B84
  8
0
 10
96.008148334536827
 20
119.4889923355733
 30
0.0
 11
98.828656410225449
 21
117.860571238823
 31
0.0
  0
LINE
  5
8B85
  8
0
 10
67.008148334536813
 20
119.4889923355733
 30
0.0
 11
96.008148334537509
 21
119.4889923355729
 31
0.0
  0
LINE
  5
8B86
  8
0
 10
96.008148334537282
 20
103.4889923355732
 30
0.0
 11
67.008148334536813
 21
103.488992335573
 31
0.0
  0
ARC
  5
8B87
  8
0
 10
81.50814833453363
 20
52.159258516748068
 30
0.0
 40
12.25
 50
133.87987710304819
 51
148.8879791802687
  0
LINE
  5
8B88
  8
0
 10
90.008148334536585
 20
60.98899233549821
 30
0.0
 11
73.008148334536585
 21
60.98899233552639
 31
0.0
  0
LINE
  5
8B89
  8
0
 10
90.008148334536585
 20
67.488992335512307
 30
0.0
 11
90.008148334536585
 21
60.98899233549821
 31
0.0
  0
LINE
  5
8B8A
  8
0
 10
73.008148334536585
 20
67.488992335512307
 30
0.0
 11
73.008148334536585
 21
60.988992335526632
 31
0.0
  0
LINE
  5
8B8B
  8
0
 10
93.008148334569796
 20
67.488992335492966
 30
0.0
 11
70.008148334503403
 21
67.488992335531407
 31
0.0
  0
LINE
  5
8B8C
  8
0
 10
70.008148334503403
 20
77.488992335531393
 30
0.0
 11
93.008148334569796
 21
77.488992335569804
 31
0.0
  0
ARC
  5
8B8D
  8
0
 10
75.508148334569796
 20
59.870190183633099
 30
0.0
 40
17.330127017333279
 50
69.743841997634789
 51
110.2561580023652
  0
LINE
  5
8B8E
  8
0
 10
69.508148334554789
 20
77.200317200966424
 30
0.0
 11
70.008148334569796
 21
77.488992335569804
 31
0.0
  0
LINE
  5
8B8F
  8
0
 10
69.508148334554789
 20
67.777667470096389
 30
0.0
 11
70.008148334569796
 21
67.488992335492966
 31
0.0
  0
ARC
  5
8B90
  8
0
 10
75.508148334569796
 20
85.107794487429715
 30
0.0
 40
17.330127017333279
 50
249.7438419976348
 51
290.25615800236528
  0
LINE
  5
8B91
  8
0
 10
69.508148334554789
 20
77.200317200966424
 30
0.0
 11
69.508148334569796
 21
67.777667470087749
 31
0.0
  0
LINE
  5
8B92
  8
0
 10
81.508148334569796
 20
68.849464239925609
 30
0.0
 11
81.508148334569796
 21
76.128520431137176
 31
0.0
  0
LINE
  5
8B93
  8
0
 10
93.508148334584774
 20
77.200317200966424
 30
0.0
 11
93.508148334569796
 21
67.777667470087749
 31
0.0
  0
ARC
  5
8B94
  8
0
 10
87.508148334569796
 20
85.107794487429715
 30
0.0
 40
17.330127017333279
 50
249.7438419976348
 51
290.25615800236528
  0
LINE
  5
8B95
  8
0
 10
93.508148334584774
 20
67.777667470096389
 30
0.0
 11
93.008148334569796
 21
67.488992335492966
 31
0.0
  0
LINE
  5
8B96
  8
0
 10
93.508148334584774
 20
77.200317200966424
 30
0.0
 11
93.008148334569796
 21
77.488992335569804
 31
0.0
  0
ARC
  5
8B97
  8
0
 10
87.508148334569796
 20
59.870190183633099
 30
0.0
 40
17.330127017333279
 50
69.743841997634789
 51
110.2561580023652
  0
LINE
  5
8B98
  8
0
 10
74.008148334536585
 20
215.48899233555039
 30
0.0
 11
89.008148334536585
 21
215.48899233555031
 31
0.0
  0
LINE
  5
8B99
  8
0
 10
91.508148334536585
 20
77.488992335550492
 30
0.0
 11
91.508148334536585
 21
103.488992335573
 31
0.0
  0
LINE
  5
8B9A
  8
3
 10
90.15514833453652
 20
81.488992335550492
 30
0.0
 11
90.15514833453652
 21
103.488992335573
 31
0.0
  0
LINE
  5
8B9B
  8
3
 10
72.861148334536651
 20
81.488992335550492
 30
0.0
 11
72.861148334536651
 21
103.4889923355728
 31
0.0
  0
LINE
  5
8B9C
  8
0
 10
71.508148334536585
 20
77.488992335550492
 30
0.0
 11
71.508148334536585
 21
103.488992335573
 31
0.0
  0
LINE
  5
8B9D
  8
0
 10
71.508148334536585
 20
212.98899233555039
 30
0.0
 11
74.008148334536585
 21
215.48899233555039
 31
0.0
  0
LINE
  5
8B9E
  8
0
 10
89.008148334536585
 20
215.48899233555031
 30
0.0
 11
91.508148334536585
 21
212.98899233555031
 31
0.0
  0
LINE
  5
8B9F
  8
0
 10
71.508148334536585
 20
212.98899233555039
 30
0.0
 11
91.508148334536585
 21
212.98899233555031
 31
0.0
  0
LINE
  5
8BA0
  8
0
 10
91.508148334536585
 20
81.488992335550492
 30
0.0
 11
71.508148334536585
 21
81.488992335550492
 31
0.0
  0
LINE
  5
8BA1
  8
3
 10
72.861148334536651
 20
81.488992335550492
 30
0.0
 11
71.508148334536585
 21
79.145527592909616
 31
0.0
  0
LINE
  5
8BA2
  8
3
 10
90.15514833453652
 20
81.488992335550492
 30
0.0
 11
91.508148334536585
 21
79.145527592909616
 31
0.0
  0
ARC
  5
8BA3
  8
0
 10
81.50814833453363
 20
52.159258516748068
 30
0.0
 40
12.25
 50
31.112020819731239
 51
46.120122896763412
  0
LINE
  5
8BA4
  8
1
 10
81.508148334536585
 20
360.58641047144448
 30
0.0
 11
81.508148334536585
 21
240.58641047144451
 31
0.0
  0
LINE
  5
8BA5
  8
1
 10
141.5081483345366
 20
300.58641047144448
 30
0.0
 11
21.5081483345366
 21
300.58641047144448
 31
0.0
  0
LINE
  5
8BA6
  8
1
 10
81.508148334536585
 20
225.48899233555039
 30
0.0
 11
81.508148334536372
 21
24.488992335550371
 31
0.0
  0
LINE
  5
8BA7
  8
1
 10
256.93131923058218
 20
225.48899233555039
 30
0.0
 11
256.93131923058189
 21
24.488992335550371
 31
0.0
  0
LINE
  5
8BA8
  8
0
 10
248.4313192305822
 20
67.488992335512307
 30
0.0
 11
248.4313192305822
 21
60.988992335526632
 31
0.0
  0
LINE
  5
8BA9
  8
0
 10
265.43131923058218
 20
67.488992335512307
 30
0.0
 11
265.43131923058218
 21
60.98899233549821
 31
0.0
  0
LINE
  5
8BAA
  8
DEFPOINTS
 10
239.4313192305822
 20
57.488992335550392
 30
0.0
 11
274.43131923058218
 21
57.488992335550392
 31
0.0
  0
LINE
  5
8BAB
  8
DEFPOINTS
 10
280.93131923058218
 20
54.488992335550392
 30
0.0
 11
232.9313192305822
 21
54.488992335550392
 31
0.0
  0
LINE
  5
8BAC
  8
DEFPOINTS
 10
226.9313192305822
 20
51.488992335550343
 30
0.0
 11
286.93131923058218
 21
51.488992335550343
 31
0.0
  0
LINE
  5
8BAD
  8
DEFPOINTS
 10
219.9313192305822
 20
48.488992335550392
 30
0.0
 11
293.93131923058218
 21
48.488992335550392
 31
0.0
  0
LINE
  5
8BAE
  8
DEFPOINTS
 10
211.9313192305822
 20
45.488992335550321
 30
0.0
 11
301.93131923058218
 21
45.488992335550321
 31
0.0
  0
LINE
  5
8BAF
  8
0
 10
206.9313192305822
 20
34.488992335550392
 30
0.0
 11
206.93131923058209
 21
43.669188432831781
 31
0.0
  0
LINE
  5
8BB1
  8
DEFPOINTS
 10
239.4313192305822
 20
57.488992335550321
 30
0.0
 11
239.4313192305822
 21
57.488992335550392
 31
0.0
  0
LINE
  5
8BB2
  8
DEFPOINTS
 10
232.9313192305822
 20
54.750417681032211
 30
0.0
 11
232.9313192305822
 21
54.488992335550392
 31
0.0
  0
LINE
  5
8BB3
  8
DEFPOINTS
 10
226.9313192305822
 20
51.76823311549424
 30
0.0
 11
226.9313192305822
 21
51.488992335550343
 31
0.0
  0
LINE
  5
8BB4
  8
DEFPOINTS
 10
219.9313192305822
 20
48.734690922795998
 30
0.0
 11
219.9313192305822
 21
48.488992335550392
 31
0.0
  0
LINE
  5
8BB5
  8
DEFPOINTS
 10
211.9313192305822
 20
45.708215929145908
 30
0.0
 11
211.9313192305822
 21
45.488992335550321
 31
0.0
  0
LINE
  5
8BB6
  8
DEFPOINTS
 10
239.4313192305822
 20
57.488992335550392
 30
0.0
 11
233.63723338174461
 21
55.706196689754172
 31
0.0
  0
LINE
  5
8BB7
  8
DEFPOINTS
 10
232.9313192305822
 20
54.488992335550392
 30
0.0
 11
227.61509146456521
 21
52.716916413544709
 31
0.0
  0
LINE
  5
8BB8
  8
DEFPOINTS
 10
226.9313192305822
 20
51.488992335550343
 30
0.0
 11
220.65659810268471
 21
49.696214870436791
 31
0.0
  0
LINE
  5
8BB9
  8
DEFPOINTS
 10
219.9313192305822
 20
48.488992335550392
 30
0.0
 11
212.68878360554569
 21
46.678358429291279
 31
0.0
  0
ARC
  5
8BBA
  8
DEFPOINTS
 10
212.9313192305822
 20
45.708215929145908
 30
0.0
 40
1.0
 50
104.0362434679266
 51
180.0
  0
ARC
  5
8BBB
  8
DEFPOINTS
 10
220.9313192305822
 20
48.734690922795998
 30
0.0
 40
1.0
 50
105.9453959009228
 51
180.0
  0
ARC
  5
8BBC
  8
DEFPOINTS
 10
227.9313192305822
 20
51.76823311549424
 30
0.0
 40
1.0
 50
108.43494882292219
 51
180.0
  0
ARC
  5
8BBD
  8
DEFPOINTS
 10
233.9313192305822
 20
54.750417681032211
 30
0.0
 40
1.0
 50
107.10272896905251
 51
180.0
  0
ARC
  5
8BBE
  8
DEFPOINTS
 10
240.4313192305822
 20
57.488992335550321
 30
0.0
 40
1.0
 50
90.000000000000057
 51
180.0
  0
LINE
  5
8BBF
  8
DEFPOINTS
 10
211.9313192305822
 20
45.488992335550321
 30
0.0
 11
207.73520309544389
 21
44.649769108522698
 31
0.0
  0
ARC
  5
8BC0
  8
DEFPOINTS
 10
207.93131923058209
 20
43.669188432831781
 30
0.0
 40
1.0
 50
101.3099324740201
 51
180.00000000000031
  0
ARC
  5
8BC1
  8
DEFPOINTS
 10
305.93131923058218
 20
43.669188432831781
 30
0.0
 40
1.0
 50
359.99999999999972
 51
78.690067525979913
  0
LINE
  5
8BC2
  8
DEFPOINTS
 10
301.93131923058218
 20
45.488992335550321
 30
0.0
 11
306.12743536572032
 21
44.649769108522698
 31
0.0
  0
ARC
  5
8BC3
  8
DEFPOINTS
 10
273.43131923058218
 20
57.488992335550321
 30
0.0
 40
1.0
 50
0.0
 51
89.999999999999986
  0
ARC
  5
8BC4
  8
DEFPOINTS
 10
279.93131923058218
 20
54.750417681032211
 30
0.0
 40
1.0
 50
0.0
 51
72.897271030947451
  0
ARC
  5
8BC5
  8
DEFPOINTS
 10
285.93131923058218
 20
51.76823311549424
 30
0.0
 40
1.0
 50
0.0
 51
71.565051177077734
  0
ARC
  5
8BC6
  8
DEFPOINTS
 10
292.93131923058218
 20
48.734690922795998
 30
0.0
 40
1.0
 50
0.0
 51
74.054604099077153
  0
ARC
  5
8BC7
  8
DEFPOINTS
 10
300.93131923058218
 20
45.708215929145908
 30
0.0
 40
1.0
 50
0.0
 51
75.963756532073333
  0
LINE
  5
8BC8
  8
DEFPOINTS
 10
293.93131923058218
 20
48.488992335550392
 30
0.0
 11
301.17385485561829
 21
46.678358429291279
 31
0.0
  0
LINE
  5
8BC9
  8
DEFPOINTS
 10
286.93131923058218
 20
51.488992335550343
 30
0.0
 11
293.20604035847958
 21
49.696214870436791
 31
0.0
  0
LINE
  5
8BCA
  8
DEFPOINTS
 10
280.93131923058218
 20
54.488992335550392
 30
0.0
 11
286.24754699659889
 21
52.716916413544709
 31
0.0
  0
LINE
  5
8BCB
  8
DEFPOINTS
 10
274.43131923058218
 20
57.488992335550392
 30
0.0
 11
280.2254050794196
 21
55.706196689754172
 31
0.0
  0
LINE
  5
8BCC
  8
DEFPOINTS
 10
301.93131923058218
 20
45.708215929145908
 30
0.0
 11
301.93131923058218
 21
45.488992335550321
 31
0.0
  0
LINE
  5
8BCD
  8
DEFPOINTS
 10
293.93131923058218
 20
48.734690922795998
 30
0.0
 11
293.93131923058218
 21
48.488992335550392
 31
0.0
  0
LINE
  5
8BCE
  8
DEFPOINTS
 10
286.93131923058218
 20
51.76823311549424
 30
0.0
 11
286.93131923058218
 21
51.488992335550343
 31
0.0
  0
LINE
  5
8BCF
  8
DEFPOINTS
 10
280.93131923058218
 20
54.750417681032211
 30
0.0
 11
280.93131923058218
 21
54.488992335550392
 31
0.0
  0
LINE
  5
8BD0
  8
DEFPOINTS
 10
274.43131923058218
 20
57.488992335550321
 30
0.0
 11
274.43131923058218
 21
57.488992335550392
 31
0.0
  0
LINE
  5
8BD2
  8
0
 10
273.43131923058218
 20
58.48899233555035
 30
0.0
 11
240.4313192305822
 21
58.488992335550392
 31
0.0
  0
LINE
  5
8BD4
  8
0
 10
306.93131923058218
 20
34.488992335550392
 30
0.0
 11
306.93131923058218
 21
43.669188432831781
 31
0.0
  0
LINE
  5
8BD5
  8
0
 10
306.93131923058218
 20
34.488992335550343
 30
0.0
 11
206.9313192305822
 21
34.488992335550392
 31
0.0
  0
LINE
  5
8BD6
  8
0
 10
268.43131923052829
 20
67.488992335631565
 30
0.0
 11
245.43131923074381
 21
67.488992335631565
 31
0.0
  0
LINE
  5
8BD7
  8
0
 10
245.43131923063609
 20
77.488992335631536
 30
0.0
 11
268.43131923052829
 21
77.488992335631536
 31
0.0
  0
ARC
  5
8BD8
  8
0
 10
267.32362407604961
 20
71.066342605345881
 30
0.0
 40
6.1339745957208196
 50
64.384247469845135
 51
124.3842474712072
  0
LINE
  5
8BD9
  8
0
 10
270.78772569120912
 20
76.12852043123732
 30
0.0
 11
268.43131923052829
 21
77.488992335631536
 31
0.0
  0
LINE
  5
8BDA
  8
0
 10
270.78772569120912
 20
68.849464240025782
 30
0.0
 11
268.43131923052829
 21
67.488992335631565
 31
0.0
  0
ARC
  5
8BDB
  8
0
 10
267.32362407604961
 20
73.911642065917235
 30
0.0
 40
6.1339745957208196
 50
235.61575252879319
 51
295.61575253015491
  0
LINE
  5
8BDC
  8
0
 10
270.78772569118718
 20
76.12852043123732
 30
0.0
 11
270.78772569118718
 21
68.849464240013049
 31
0.0
  0
LINE
  5
8BDD
  8
0
 10
263.85952246091142
 20
76.12852043123732
 30
0.0
 11
263.85952246091142
 21
68.849464240025782
 31
0.0
  0
LINE
  5
8BDE
  8
0
 10
250.00311600036071
 20
76.12852043123732
 30
0.0
 11
250.00311600036071
 21
68.849464240025782
 31
0.0
  0
LINE
  5
8BDF
  8
0
 10
243.07491277008489
 20
76.12852043123732
 30
0.0
 11
243.07491277008489
 21
68.849464240013049
 31
0.0
  0
ARC
  5
8BE0
  8
0
 10
256.93131923063612
 20
90.705870698335957
 30
0.0
 40
22.928203228139491
 50
252.41204622431439
 51
287.58795377568561
  0
ARC
  5
8BE1
  8
0
 10
246.5390143852226
 20
73.911642065917235
 30
0.0
 40
6.1339745957208196
 50
244.38424746984521
 51
304.38424747120678
  0
LINE
  5
8BE2
  8
0
 10
243.07491277006309
 20
68.849464240025782
 30
0.0
 11
245.43131923074381
 21
67.488992335631565
 31
0.0
  0
LINE
  5
8BE3
  8
0
 10
243.07491277006309
 20
76.12852043123732
 30
0.0
 11
245.43131923074381
 21
77.488992335631536
 31
0.0
  0
ARC
  5
8BE4
  8
0
 10
246.5390143852226
 20
71.066342605345881
 30
0.0
 40
6.1339745957208196
 50
55.615752528792761
 51
115.61575253015479
  0
ARC
  5
8BE5
  8
0
 10
256.93131923063612
 20
54.272113972927173
 30
0.0
 40
22.928203228139491
 50
72.412046224314381
 51
107.58795377568561
  0
LINE
  5
8BE6
  8
3
 10
265.57831923058211
 20
81.488992335550407
 30
0.0
 11
266.93131923058218
 21
79.145527592909502
 31
0.0
  0
LINE
  5
8BE7
  8
3
 10
248.28431923058221
 20
81.488992335550407
 30
0.0
 11
246.9313192305822
 21
79.145527592909502
 31
0.0
  0
LINE
  5
8BE8
  8
0
 10
266.93131923058218
 20
81.488992335550407
 30
0.0
 11
246.9313192305822
 21
81.488992335550407
 31
0.0
  0
LINE
  5
8BE9
  8
0
 10
246.9313192305822
 20
212.98899233555039
 30
0.0
 11
266.93131923058218
 21
212.98899233555019
 31
0.0
  0
LINE
  5
8BEA
  8
0
 10
264.43131923058218
 20
215.48899233555019
 30
0.0
 11
266.93131923058218
 21
212.98899233555019
 31
0.0
  0
LINE
  5
8BEB
  8
0
 10
246.9313192305822
 20
212.98899233555039
 30
0.0
 11
249.4313192305822
 21
215.48899233555039
 31
0.0
  0
LINE
  5
8BEC
  8
0
 10
246.9313192305822
 20
77.488992335550378
 30
0.0
 11
246.9313192305822
 21
103.4889923355729
 31
0.0
  0
LINE
  5
8BED
  8
3
 10
248.28431923058221
 20
81.488992335550407
 30
0.0
 11
248.28431923058221
 21
103.4889923355726
 31
0.0
  0
LINE
  5
8BEE
  8
3
 10
265.57831923058211
 20
81.488992335550407
 30
0.0
 11
265.57831923058211
 21
103.4889923355729
 31
0.0
  0
LINE
  5
8BEF
  8
0
 10
266.93131923058218
 20
77.488992335550378
 30
0.0
 11
266.93131923058218
 21
103.4889923355729
 31
0.0
  0
LINE
  5
8BF0
  8
0
 10
249.4313192305822
 20
215.48899233555039
 30
0.0
 11
264.43131923058218
 21
215.48899233555019
 31
0.0
  0
LINE
  5
8BF1
  8
0
 10
248.4313192305822
 20
67.488992335512194
 30
0.0
 11
248.4313192305822
 21
60.988992335526532
 31
0.0
  0
LINE
  5
8BF2
  8
0
 10
265.43131923058218
 20
67.488992335512194
 30
0.0
 11
265.43131923058218
 21
60.988992335498097
 31
0.0
  0
LINE
  5
8BF3
  8
0
 10
265.43131923058218
 20
60.988992335498097
 30
0.0
 11
248.4313192305822
 21
60.988992335526291
 31
0.0
  0
ARC
  5
8BF4
  8
0
 10
256.93131923057911
 20
52.159258516747961
 30
0.0
 40
12.25
 50
133.87987710304881
 51
148.8879791802681
  0
LINE
  5
8BF5
  8
3
 10
265.57831923058211
 20
119.488992335573
 30
0.0
 11
265.57831923058211
 21
214.3419923355502
 31
0.0
  0
LINE
  5
8BF6
  8
0
 10
266.93131923058218
 20
119.4889923355728
 30
0.0
 11
266.93131923058218
 21
212.98899233555019
 31
0.0
  0
LINE
  5
8BF7
  8
0
 10
246.9313192305822
 20
119.488992335573
 30
0.0
 11
246.9313192305822
 21
212.98899233555039
 31
0.0
  0
LINE
  5
8BF8
  8
3
 10
248.28431923058221
 20
119.488992335573
 30
0.0
 11
248.28431923058221
 21
214.34199233555049
 31
0.0
  0
ARC
  5
8BF9
  8
0
 10
264.43131923058257
 20
97.537658427309125
 30
0.0
 40
21.662658773668529
 50
69.743841999600619
 51
110.2561580003994
  0
LINE
  5
8BFA
  8
0
 10
271.4313192305811
 20
119.488992335573
 30
0.0
 11
271.9313192305824
 21
119.20031720097749
 31
0.0
  0
LINE
  5
8BFB
  8
0
 10
271.4313192305811
 20
103.4889923355736
 30
0.0
 11
271.9313192305824
 21
103.77766747016901
 31
0.0
  0
ARC
  5
8BFC
  8
0
 10
264.43131923058257
 20
125.44032624383721
 30
0.0
 40
21.662658773668529
 50
249.74384199960059
 51
290.25615800039941
  0
LINE
  5
8BFD
  8
0
 10
271.93131923058257
 20
119.20031720097749
 30
0.0
 11
271.9313192305824
 21
103.77766747016901
 31
0.0
  0
LINE
  5
8BFE
  8
0
 10
241.9313192305826
 20
119.20031720097749
 30
0.0
 11
241.9313192305828
 21
103.77766747016901
 31
0.0
  0
ARC
  5
8BFF
  8
0
 10
249.4313192305826
 20
125.44032624383721
 30
0.0
 40
21.662658773668529
 50
249.74384199960059
 51
290.25615800039941
  0
LINE
  5
8C00
  8
0
 10
242.43131923058419
 20
103.4889923355736
 30
0.0
 11
241.9313192305828
 21
103.77766747016901
 31
0.0
  0
LINE
  5
8C01
  8
0
 10
242.43131923058419
 20
119.488992335573
 30
0.0
 11
241.9313192305828
 21
119.20031720097749
 31
0.0
  0
ARC
  5
8C02
  8
0
 10
249.4313192305826
 20
97.537658427309125
 30
0.0
 40
21.662658773668529
 50
69.743841999600619
 51
110.2561580003994
  0
LINE
  5
8C03
  8
0
 10
242.43131923058419
 20
119.488992335573
 30
0.0
 11
271.4313192305811
 21
119.488992335573
 31
0.0
  0
LINE
  5
8C04
  8
0
 10
271.43131923058269
 20
103.4889923355736
 30
0.0
 11
242.43131923058419
 21
103.4889923355736
 31
0.0
  0
LINE
  5
8C05
  8
0
 10
256.93131923058257
 20
117.8605712388229
 30
0.0
 11
256.93131923058257
 21
105.1174134323187
 31
0.0
  0
ARC
  5
8C06
  8
0
 10
256.93131923057911
 20
52.159258516747961
 30
0.0
 40
12.25
 50
31.112020819731811
 51
46.120122896761671
  0
TEXT
  5
8F48
  8
0
 62
     3
 10
0.0
 20
0.0
 30
0.0
 40
10.0
  1
LVE100L20B
  7
STANDARD1
  0
ENDSEC
  0
EOF
