  0
SECTION
  2
HEADER
  9
$ACADVER
  1
AC1009
  9
$INSBASE
 10
0.0
 20
0.0
 30
0.0
  9
$EXTMIN
 10
0.0
 20
-2.960436562073669
 30
0.0
  9
$EXTMAX
 10
193.8392912104789
 20
302.73189592753238
 30
0.0
  9
$LIMMIN
 10
0.0
 20
0.0
  9
$LIMMAX
 10
375.0
 20
270.0
  9
$ORTHOMODE
 70
     1
  9
$REGENMODE
 70
     1
  9
$FILLMODE
 70
     1
  9
$QTEXTMODE
 70
     0
  9
$MIRRTEXT
 70
     0
  9
$DRAGMODE
 70
     2
  9
$LTSCALE
 40
6.0
  9
$OSMODE
 70
    37
  9
$ATTMODE
 70
     1
  9
$TEXTSIZE
 40
0.2
  9
$TRACEWID
 40
0.05
  9
$TEXTSTYLE
  7
STANDARD
  9
$CLAYER
  8
0
  9
$CELTYPE
  6
BYLAYER
  9
$CECOLOR
 62
   256
  9
$DIMSCALE
 40
1.0
  9
$DIMASZ
 40
3.0
  9
$DIMEXO
 40
1.0
  9
$DIMDLI
 40
6.0
  9
$DIMRND
 40
0.0
  9
$DIMDLE
 40
0.0
  9
$DIMEXE
 40
1.0
  9
$DIMTP
 40
495.0
  9
$DIMTM
 40
0.0
  9
$DIMTXT
 40
3.0
  9
$DIMCEN
 40
0.0
  9
$DIMTSZ
 40
0.0
  9
$DIMTOL
 70
     0
  9
$DIMLIM
 70
     0
  9
$DIMTIH
 70
     0
  9
$DIMTOH
 70
     0
  9
$DIMSE1
 70
     0
  9
$DIMSE2
 70
     0
  9
$DIMTAD
 70
     1
  9
$DIMZIN
 70
     0
  9
$DIMBLK
  1

  9
$DIMASO
 70
     0
  9
$DIMSHO
 70
     0
  9
$DIMPOST
  1

  9
$DIMAPOST
  1

  9
$DIMALT
 70
     0
  9
$DIMALTD
 70
     2
  9
$DIMALTF
 40
25.399999999999999
  9
$DIMLFAC
 40
1.0
  9
$DIMTOFL
 70
     1
  9
$DIMTVP
 40
0.0
  9
$DIMTIX
 70
     1
  9
$DIMSOXD
 70
     0
  9
$DIMSAH
 70
     0
  9
$DIMBLK1
  1

  9
$DIMBLK2
  1

  9
$DIMSTYLE
  2
STANDARD
  9
$DIMCLRD
 70
     0
  9
$DIMCLRE
 70
     0
  9
$DIMCLRT
 70
     4
  9
$DIMTFAC
 40
1.0
  9
$DIMGAP
 40
1.0
  9
$LUNITS
 70
     2
  9
$LUPREC
 70
     4
  9
$SKETCHINC
 40
0.1
  9
$FILLETRAD
 40
2.0
  9
$AUNITS
 70
     0
  9
$AUPREC
 70
     0
  9
$MENU
  1
C:\R13\WIN\SUPPORT\ACAD-I
  9
$ELEVATION
 40
0.0
  9
$PELEVATION
 40
0.0
  9
$THICKNESS
 40
0.0
  9
$LIMCHECK
 70
     0
  9
$BLIPMODE
 70
     0
  9
$CHAMFERA
 40
0.0
  9
$CHAMFERB
 40
0.0
  9
$SKPOLY
 70
     0
  9
$TDCREATE
 40
2451962.4347351389
  9
$TDUPDATE
 40
2456598.7205699999
  9
$TDINDWG
 40
0.0969515509
  9
$TDUSRTIMER
 40
2456598.0524893869
  9
$USRTIMER
 70
     1
  9
$ANGBASE
 50
0.0
  9
$ANGDIR
 70
     0
  9
$PDMODE
 70
     0
  9
$PDSIZE
 40
0.0
  9
$PLINEWID
 40
0.0
  9
$COORDS
 70
     1
  9
$SPLFRAME
 70
     0
  9
$SPLINETYPE
 70
     6
  9
$SPLINESEGS
 70
     8
  9
$ATTDIA
 70
     0
  9
$ATTREQ
 70
     1
  9
$HANDLING
 70
     1
  9
$HANDSEED
  5
5B94
  9
$SURFTAB1
 70
     6
  9
$SURFTAB2
 70
     6
  9
$SURFTYPE
 70
     6
  9
$SURFU
 70
     6
  9
$SURFV
 70
     6
  9
$UCSNAME
  2

  9
$UCSORG
 10
0.0
 20
0.0
 30
0.0
  9
$UCSXDIR
 10
1.0
 20
0.0
 30
0.0
  9
$UCSYDIR
 10
0.0
 20
1.0
 30
0.0
  9
$PUCSNAME
  2

  9
$PUCSORG
 10
0.0
 20
0.0
 30
0.0
  9
$PUCSXDIR
 10
1.0
 20
0.0
 30
0.0
  9
$PUCSYDIR
 10
0.0
 20
1.0
 30
0.0
  9
$USERI1
 70
     4
  9
$USERI2
 70
     1
  9
$USERI3
 70
     0
  9
$USERI4
 70
     0
  9
$USERI5
 70
     0
  9
$USERR1
 40
1.0
  9
$USERR2
 40
3.0
  9
$USERR3
 40
3.0
  9
$USERR4
 40
3.0
  9
$USERR5
 40
10.0
  9
$WORLDVIEW
 70
     1
  9
$SHADEDGE
 70
     3
  9
$SHADEDIF
 70
    70
  9
$TILEMODE
 70
     1
  9
$MAXACTVP
 70
    16
  9
$PLIMCHECK
 70
     0
  9
$PEXTMIN
 10
1.0000000000000000E+020
 20
1.0000000000000000E+020
 30
1.0000000000000000E+020
  9
$PEXTMAX
 10
-1.0000000000000000E+020
 20
-1.0000000000000000E+020
 30
-1.0000000000000000E+020
  9
$PLIMMIN
 10
0.0
 20
0.0
  9
$PLIMMAX
 10
12.0
 20
9.0
  9
$UNITMODE
 70
     0
  9
$VISRETAIN
 70
     0
  9
$PLINEGEN
 70
     0
  9
$PSLTSCALE
 70
     0
  0
ENDSEC
  0
SECTION
  2
TABLES
  0
TABLE
  2
VPORT
 70
     1
  0
VPORT
  2
*ACTIVE
 70
     0
 10
0.0
 20
0.0
 11
1.0
 21
1.0
 12
187.4942783906524
 22
192.55716734258209
 13
0.0
 23
0.0
 14
10.0
 24
10.0
 15
10.0
 25
10.0
 16
0.0
 26
0.0
 36
1.0
 17
0.0
 27
0.0
 37
0.0
 40
394.47203890302711
 41
1.755244755244755
 42
50.0
 43
0.0
 44
0.0
 50
0.0
 51
0.0
 71
    16
 72
   100
 73
     1
 74
     0
 75
     0
 76
     0
 77
     0
 78
     0
  0
ENDTAB
  0
TABLE
  2
LTYPE
 70
     3
  0
LTYPE
  2
CONTINUOUS
 70
     0
  3
Solid Line
 72
    65
 73
     0
 40
0.0
  0
LTYPE
  2
PHANTOM2
 70
     0
  3
___ _ _ ___ _ _ ___ _ _ ___ _ _
 72
    65
 73
     6
 40
1.25
 49
0.625
 49
-0.125
 49
0.125
 49
-0.125
 49
0.125
 49
-0.125
  0
LTYPE
  2
CENTER
 70
     0
  3
____ _ ____ _ ____ _ ____ _ ____ _ ____ _ ____
 72
    65
 73
     4
 40
2.0
 49
1.25
 49
-0.25
 49
0.25
 49
-0.25
  0
ENDTAB
  0
TABLE
  2
LAYER
 70
     3
  0
LAYER
  2
0
 70
     0
 62
     7
  6
CONTINUOUS
  0
LAYER
  2
1
 70
     0
 62
     1
  6
CENTER
  0
LAYER
  2
3
 70
     0
 62
     3
  6
CONTINUOUS
  0
ENDTAB
  0
TABLE
  2
STYLE
 70
     3
  0
STYLE
  2
STANDARD
 70
     0
 40
0.0
 41
1.0
 50
0.0
 71
     0
 42
0.2
  3
SIMPLEX
  4
BIGFONT
  0
STYLE
  2
ANNOTATIVE
 70
     0
 40
0.0
 41
1.0
 50
0.0
 71
     0
 42
0.2
  3
txt
  4

  0
STYLE
  2
STANDARD1
 70
     0
 40
0.0
 41
1.0
 50
0.0
 71
     0
 42
3.0
  3
txt
  4

  0
ENDTAB
  0
TABLE
  2
VIEW
 70
     0
  0
ENDTAB
  0
TABLE
  2
UCS
 70
     0
  0
ENDTAB
  0
TABLE
  2
APPID
 70
    29
  0
APPID
  2
ACAD
 70
     0
  0
APPID
  2
ACADANNOTATIVE
 70
     0
  0
APPID
  2
GENIUS_GENOREF_13
 70
     0
  0
APPID
  2
GENIUS_GENOENT_13
 70
     0
  0
APPID
  2
GENIUS_GENBH_13
 70
     0
  0
APPID
  2
GENIUS_GENOBJ_13
 70
     0
  0
APPID
  2
GENIUS_GENODEF_13
 70
     0
  0
APPID
  2
GENIUS_GENOLIS_13
 70
     0
  0
APPID
  2
GENIUS_GENOBJ-NBEHI-BHF_13
 70
     0
  0
APPID
  2
GENIUS_GENOBJ-NBEHI-BHB_13
 70
     0
  0
APPID
  2
GENIUS_GENOBJ-F-PART_13
 70
     0
  0
APPID
  2
GENIUS_GEFSTDP_13
 70
     0
  0
APPID
  2
GENIUS_GENOBJ-N-RSSYM_13
 70
     0
  0
APPID
  2
GENIUS_GENSYMENT_13
 70
     0
  0
APPID
  2
GENIUS_GENOBJ-N-TIT_13
 70
     0
  0
APPID
  2
GENIUS_GENTITLE_13
 70
     0
  0
APPID
  2
GENIUS_GENZVEED_13
 70
     0
  0
APPID
  2
GENIUS_GENOBJ-N-LEADER_13
 70
     0
  0
APPID
  2
GENIUS_GENOBJ-N-FIL_13
 70
     0
  0
APPID
  2
GENIUS_GENOBJ-N-SEC_13
 70
     0
  0
APPID
  2
GENIUS_GENOBJ-N-CRS_13
 70
     0
  0
APPID
  2
GENIUS_GENOBJ-N-ZOO_13
 70
     0
  0
APPID
  2
GENIUS_GENZOO_13
 70
     0
  0
APPID
  2
GENIUS_GENOBJ-F-TOL_13
 70
     0
  0
APPID
  2
GENIUS_GENFIL_13
 70
     0
  0
APPID
  2
GENIUS_GENOBJ-N-CHA_13
 70
     0
  0
APPID
  2
ACAD_EXEMPT_FROM_CAD_STANDARDS
 70
     0
  0
APPID
  2
ACAD_MLEADERVER
 70
     0
  0
APPID
  2
ACAD_NAV_VCDISPLAY
 70
     0
  0
ENDTAB
  0
TABLE
  2
DIMSTYLE
 70
     2
  0
DIMSTYLE
  2
STANDARD
 70
     0
  3

  4

  5

  6

  7

 40
1.0
 41
0.18
 42
0.0625
 43
0.38
 44
0.18
 45
0.0
 46
0.0
 47
0.0
 48
0.0
140
0.18
141
0.09
142
0.0
143
25.399999999999999
144
1.0
145
0.0
146
1.0
147
0.09
 71
     0
 72
     0
 73
     1
 74
     1
 75
     0
 76
     0
 77
     0
 78
     0
170
     0
171
     2
172
     0
173
     0
174
     0
175
     0
176
     0
177
     0
178
     0
  0
DIMSTYLE
  2
ANNOTATIVE
 70
     0
  3

  4

  5

  6

  7

 40
1.0
 41
0.18
 42
0.0625
 43
0.38
 44
0.18
 45
0.0
 46
0.0
 47
0.0
 48
0.0
140
0.18
141
0.09
142
0.0
143
25.399999999999999
144
1.0
145
0.0
146
1.0
147
0.09
 71
     0
 72
     0
 73
     1
 74
     1
 75
     0
 76
     0
 77
     0
 78
     0
170
     0
171
     2
172
     0
173
     0
174
     0
175
     0
176
     0
177
     0
178
     0
  0
ENDTAB
  0
ENDSEC
  0
SECTION
  2
BLOCKS
  0
BLOCK
  8
0
  2
$MODEL_SPACE
 70
     0
 10
0.0
 20
0.0
 30
0.0
  3
$MODEL_SPACE
  1

  0
ENDBLK
  5
5A5B
  8
0
  0
BLOCK
 67
     1
  8
0
  2
$PAPER_SPACE
 70
     0
 10
0.0
 20
0.0
 30
0.0
  3
$PAPER_SPACE
  1

  0
ENDBLK
  5
5A57
 67
     1
  8
0
  0
ENDSEC
  0
SECTION
  2
ENTITIES
  0
LINE
  5
5632
  8
1
 10
158.83929121047879
 20
23.451590630767669
 30
0.0
 11
158.8392912104797
 21
212.45159063076741
 31
0.0
  0
LINE
  5
5633
  8
3
 10
165.75679121047909
 20
99.240265765330847
 30
0.0
 11
165.75679121047909
 21
206.53409063076711
 31
0.0
  0
LINE
  5
5634
  8
0
 10
166.83929121047899
 20
99.240265765332666
 30
0.0
 11
166.83929121047899
 21
205.45159063076721
 31
0.0
  0
LINE
  5
5635
  8
0
 10
150.83929121047899
 20
99.240265765305807
 30
0.0
 11
150.83929121047899
 21
205.45159063076761
 31
0.0
  0
LINE
  5
5636
  8
3
 10
151.92179121047911
 20
99.240265765307655
 30
0.0
 11
151.92179121047911
 21
206.53409063076739
 31
0.0
  0
LINE
  5
5637
  8
3
 10
151.92179121047911
 20
61.451590630767441
 30
0.0
 11
150.83929121047899
 21
59.576645631574152
 31
0.0
  0
LINE
  5
5638
  8
0
 10
150.83929121047899
 20
205.45159063076761
 30
0.0
 11
152.8392912104791
 21
207.45159063076741
 31
0.0
  0
LINE
  5
5639
  8
0
 10
150.83929121047899
 20
59.315743508604783
 30
0.0
 11
150.83929121047899
 21
86.240265765359482
 31
0.0
  0
LINE
  5
563A
  8
3
 10
151.92179121047911
 20
61.451590630767441
 30
0.0
 11
151.92179121047911
 21
86.240265765357677
 31
0.0
  0
LINE
  5
563B
  8
3
 10
165.75679121047909
 20
61.451590630767441
 30
0.0
 11
166.83929121047899
 21
59.576645631574152
 31
0.0
  0
LINE
  5
563C
  8
0
 10
150.83929121047899
 20
61.451590630767441
 30
0.0
 11
166.83929121047899
 21
61.451590630767441
 31
0.0
  0
LINE
  5
563D
  8
0
 10
166.83929121047899
 20
205.45159063076721
 30
0.0
 11
150.83929121047899
 21
205.45159063076741
 31
0.0
  0
LINE
  5
563E
  8
0
 10
164.8392912104791
 20
207.45159063076721
 30
0.0
 11
166.83929121047899
 21
205.45159063076721
 31
0.0
  0
LINE
  5
563F
  8
3
 10
165.75679121047909
 20
61.451590630767441
 30
0.0
 11
165.75679121047909
 21
86.240265765334698
 31
0.0
  0
LINE
  5
5640
  8
0
 10
166.83929121047899
 20
59.315743508604328
 30
0.0
 11
166.83929121047899
 21
86.240265765332666
 31
0.0
  0
LINE
  5
5641
  8
0
 10
152.8392912104791
 20
207.45159063076741
 30
0.0
 11
164.8392912104791
 21
207.45159063076721
 31
0.0
  0
LINE
  5
5642
  8
0
 10
166.6039970928322
 20
53.451590630767441
 30
0.0
 11
151.07458532812569
 21
53.451590630767441
 31
0.0
  0
LINE
  5
5643
  8
0
 10
151.07458532812609
 20
59.451590630767669
 30
0.0
 11
166.6039970928322
 21
59.451590630767207
 31
0.0
  0
ARC
  5
5644
  8
0
 10
165.7674944407544
 20
55.226427111123712
 30
0.0
 40
4.0893163974808306
 50
64.384247467887079
 51
124.3842474680048
  0
LINE
  5
5645
  8
0
 10
168.07689551751281
 20
58.601212328788961
 30
0.0
 11
166.603997092832
 21
59.451590630767669
 31
0.0
  0
LINE
  5
5646
  8
0
 10
168.07689551751281
 20
54.301968932745922
 30
0.0
 11
166.603997092832
 21
53.451590630767207
 31
0.0
  0
ARC
  5
5647
  8
0
 10
165.7674944407544
 20
57.67675415041117
 30
0.0
 40
4.0893163974808306
 50
235.61575253199521
 51
295.61575253211288
  0
LINE
  5
5648
  8
0
 10
168.07689551751281
 20
58.601212328788961
 30
0.0
 11
168.07689551751281
 21
54.301968932745922
 31
0.0
  0
LINE
  5
5649
  8
0
 10
163.45809336399691
 20
58.601212328788961
 30
0.0
 11
163.45809336399611
 21
54.301968932745467
 31
0.0
  0
LINE
  5
564A
  8
0
 10
154.2204890569609
 20
58.601212328788961
 30
0.0
 11
154.22048905696161
 21
54.301968932745467
 31
0.0
  0
LINE
  5
564B
  8
0
 10
149.60168690344511
 20
58.601212328788961
 30
0.0
 11
149.60168690344511
 21
54.301968932745922
 31
0.0
  0
ARC
  5
564C
  8
0
 10
158.83929121047831
 20
68.87290657313406
 30
0.0
 40
15.28546882020385
 50
252.4120462260301
 51
287.58795377396979
  0
ARC
  5
564D
  8
0
 10
151.91108798020349
 20
57.67675415041117
 30
0.0
 40
4.0893163974808306
 50
244.38424746788701
 51
304.38424746800479
  0
LINE
  5
564E
  8
0
 10
149.60168690344511
 20
54.301968932745922
 30
0.0
 11
151.07458532812609
 21
53.451590630767207
 31
0.0
  0
LINE
  5
564F
  8
0
 10
149.60168690344511
 20
58.601212328788961
 30
0.0
 11
151.07458532812609
 21
59.451590630767669
 31
0.0
  0
ARC
  5
5650
  8
0
 10
158.83929121047831
 20
44.030274688400603
 30
0.0
 40
15.28546882020385
 50
72.412046226030185
 51
107.5879537739699
  0
ARC
  5
5651
  8
0
 10
151.91108798020349
 20
55.226427111123712
 30
0.0
 40
4.0893163974808306
 50
55.615752531995142
 51
115.61575253211289
  0
LINE
  5
5652
  8
0
 10
170.3392912104791
 20
86.240265765326953
 30
0.0
 11
147.33929121041271
 21
86.240265765365393
 31
0.0
  0
LINE
  5
5653
  8
0
 10
147.33929121041271
 20
99.240265765299924
 30
0.0
 11
170.3392912104791
 21
99.24026576533835
 31
0.0
  0
ARC
  5
5654
  8
0
 10
152.8392912104791
 20
81.621463613401616
 30
0.0
 40
17.330127017333279
 50
69.743841997642988
 51
110.256158002357
  0
LINE
  5
5655
  8
0
 10
146.8392912104641
 20
98.951590630734941
 30
0.0
 11
147.3392912104791
 21
99.24026576533835
 31
0.0
  0
LINE
  5
5656
  8
0
 10
146.8392912104641
 20
86.528940899930376
 30
0.0
 11
147.3392912104791
 21
86.240265765326953
 31
0.0
  0
ARC
  5
5657
  8
0
 10
152.8392912104791
 20
103.8590679172637
 30
0.0
 40
17.330127017333279
 50
249.7438419976429
 51
290.25615800235693
  0
LINE
  5
5658
  8
0
 10
146.8392912104641
 20
98.951590630734941
 30
0.0
 11
146.83929121047899
 21
86.528940899921736
 31
0.0
  0
LINE
  5
5659
  8
0
 10
158.8392912104791
 20
87.600737669759624
 30
0.0
 11
158.8392912104791
 21
97.879793860905707
 31
0.0
  0
LINE
  5
565A
  8
0
 10
170.83929121049411
 20
98.951590630734941
 30
0.0
 11
170.83929121047899
 21
86.528940899921736
 31
0.0
  0
ARC
  5
565B
  8
0
 10
164.8392912104791
 20
103.8590679172637
 30
0.0
 40
17.330127017333279
 50
249.7438419976429
 51
290.25615800235693
  0
LINE
  5
565C
  8
0
 10
170.83929121049411
 20
86.528940899930376
 30
0.0
 11
170.3392912104791
 21
86.240265765326953
 31
0.0
  0
LINE
  5
565D
  8
0
 10
170.83929121049411
 20
98.951590630734941
 30
0.0
 11
170.3392912104791
 21
99.24026576533835
 31
0.0
  0
ARC
  5
565E
  8
0
 10
164.8392912104791
 20
81.621463613401616
 30
0.0
 40
17.330127017333279
 50
69.743841997642988
 51
110.256158002357
  0
LINE
  5
565F
  8
0
 10
153.3392912104793
 20
50.451590630767427
 30
0.0
 11
153.3392912104793
 21
53.451590630767207
 31
0.0
  0
LINE
  5
5660
  8
0
 10
164.3392912104793
 20
50.451590630767427
 30
0.0
 11
164.3392912104793
 21
53.451590630767207
 31
0.0
  0
LINE
  5
5661
  8
1
 10
51.839258451767819
 20
23.451590630767669
 30
0.0
 11
51.839258451767819
 21
212.45159063076761
 31
0.0
  0
LINE
  5
5662
  8
0
 10
43.839258451767819
 20
99.240265765267196
 30
0.0
 11
43.839258451767819
 21
205.45159063076761
 31
0.0
  0
LINE
  5
5663
  8
3
 10
44.921758451767801
 20
99.240265765267196
 30
0.0
 11
44.921758451767801
 21
206.53409063076759
 31
0.0
  0
LINE
  5
5664
  8
0
 10
59.839258451767819
 20
99.240265765267196
 30
0.0
 11
59.839258451767819
 21
205.45159063076761
 31
0.0
  0
LINE
  5
5665
  8
3
 10
58.756758451767823
 20
99.240265765267196
 30
0.0
 11
58.756758451767823
 21
206.53409063076759
 31
0.0
  0
LINE
  5
5666
  8
0
 10
44.074552569414202
 20
53.451590630767441
 30
0.0
 11
59.603964334120292
 21
53.451590630767441
 31
0.0
  0
LINE
  5
5667
  8
0
 10
59.603964334119141
 20
59.451590630767441
 30
0.0
 11
44.074552569415339
 21
59.451590630767441
 31
0.0
  0
ARC
  5
5668
  8
0
 10
47.83925845176735
 20
47.7623254959774
 30
0.0
 40
11.55341801262729
 50
69.743841999608421
 51
110.25615800039159
  0
LINE
  5
5669
  8
0
 10
43.839258451767357
 20
59.315743508604783
 30
0.0
 11
44.074552569415339
 21
59.451590630767441
 31
0.0
  0
ARC
  5
566A
  8
0
 10
47.83925845176735
 20
65.140855765557035
 30
0.0
 40
11.55341801262729
 50
249.74384199960841
 51
290.25615800039151
  0
LINE
  5
566B
  8
0
 10
43.839258451767357
 20
53.587437752929638
 30
0.0
 11
44.074552569415339
 21
53.451590630766752
 31
0.0
  0
LINE
  5
566C
  8
0
 10
43.839258451767357
 20
59.315743508604783
 30
0.0
 11
43.839258451767357
 21
53.587437752929638
 31
0.0
  0
LINE
  5
566D
  8
0
 10
51.839258451767357
 20
58.601212328788719
 30
0.0
 11
51.839258451767357
 21
54.301968932745467
 31
0.0
  0
LINE
  5
566E
  8
0
 10
59.83925845176735
 20
59.315743508604783
 30
0.0
 11
59.83925845176735
 21
53.587437752929638
 31
0.0
  0
ARC
  5
566F
  8
0
 10
55.839258451767357
 20
65.140855765557035
 30
0.0
 40
11.55341801262729
 50
249.74384199960841
 51
290.25615800039151
  0
LINE
  5
5670
  8
0
 10
59.83925845176735
 20
53.587437752929638
 30
0.0
 11
59.603964334119141
 21
53.451590630766752
 31
0.0
  0
LINE
  5
5671
  8
0
 10
59.83925845176735
 20
59.315743508604783
 30
0.0
 11
59.603964334119141
 21
59.451590630767441
 31
0.0
  0
ARC
  5
5672
  8
0
 10
55.839258451767357
 20
47.7623254959774
 30
0.0
 40
11.55341801262729
 50
69.743841999608421
 51
110.25615800039159
  0
LINE
  5
5673
  8
0
 10
45.839258451767812
 20
207.45159063076761
 30
0.0
 11
57.839258451767812
 21
207.45159063076761
 31
0.0
  0
LINE
  5
5674
  8
0
 10
59.839258451767819
 20
59.315743508604328
 30
0.0
 11
59.839258451767819
 21
86.240265765332424
 31
0.0
  0
LINE
  5
5675
  8
3
 10
58.756758451767823
 20
61.451590630767669
 30
0.0
 11
58.756758451767823
 21
86.240265765332424
 31
0.0
  0
LINE
  5
5676
  8
3
 10
44.921758451767801
 20
61.451590630767669
 30
0.0
 11
44.921758451767801
 21
86.240265765332424
 31
0.0
  0
LINE
  5
5677
  8
0
 10
43.839258451767819
 20
59.315743508605003
 30
0.0
 11
43.839258451767819
 21
86.240265765332666
 31
0.0
  0
LINE
  5
5678
  8
0
 10
43.839258451767819
 20
205.45159063076761
 30
0.0
 11
45.839258451767812
 21
207.45159063076761
 31
0.0
  0
LINE
  5
5679
  8
0
 10
57.839258451767812
 20
207.45159063076761
 30
0.0
 11
59.839258451767819
 21
205.45159063076761
 31
0.0
  0
LINE
  5
567A
  8
0
 10
59.839258451767819
 20
205.45159063076761
 30
0.0
 11
43.839258451767819
 21
205.45159063076761
 31
0.0
  0
LINE
  5
567B
  8
0
 10
43.839258451767819
 20
61.451590630767669
 30
0.0
 11
59.839258451767819
 21
61.451590630767669
 31
0.0
  0
LINE
  5
567C
  8
3
 10
44.921758451767801
 20
61.451590630767669
 30
0.0
 11
43.839258451767819
 21
59.576645631574358
 31
0.0
  0
LINE
  5
567D
  8
3
 10
58.756758451767823
 20
61.451590630767669
 30
0.0
 11
59.839258451767819
 21
59.576645631574358
 31
0.0
  0
LINE
  5
567E
  8
0
 10
63.339258451659823
 20
86.240265765332666
 30
0.0
 11
40.339258451875352
 21
86.240265765332666
 31
0.0
  0
LINE
  5
567F
  8
0
 10
40.339258451767591
 20
99.240265765267196
 30
0.0
 11
63.339258451659823
 21
99.240265765267196
 31
0.0
  0
ARC
  5
5680
  8
0
 10
62.231563297181083
 20
92.81761603498127
 30
0.0
 40
6.1339745957208196
 50
64.384247469854927
 51
124.3842474712113
  0
LINE
  5
5681
  8
0
 10
65.69566491234059
 20
97.879793860872951
 30
0.0
 11
63.339258451659823
 21
99.240265765267196
 31
0.0
  0
LINE
  5
5682
  8
0
 10
65.69566491234059
 20
87.600737669726882
 30
0.0
 11
63.339258451659823
 21
86.240265765332666
 31
0.0
  0
ARC
  5
5683
  8
0
 10
62.231563297181083
 20
92.662915495618336
 30
0.0
 40
6.1339745957208196
 50
235.6157525287887
 51
295.61575253014507
  0
LINE
  5
5684
  8
0
 10
65.695664912318733
 20
97.879793860872951
 30
0.0
 11
65.695664912318733
 21
87.600737669714121
 31
0.0
  0
LINE
  5
5685
  8
0
 10
58.767461682042949
 20
97.879793860872951
 30
0.0
 11
58.767461682042949
 21
87.600737669726882
 31
0.0
  0
LINE
  5
5686
  8
0
 10
44.911055221492219
 20
97.879793860872951
 30
0.0
 11
44.911055221492219
 21
87.600737669726882
 31
0.0
  0
LINE
  5
5687
  8
0
 10
37.982851991216421
 20
97.879793860872951
 30
0.0
 11
37.982851991216421
 21
87.600737669714121
 31
0.0
  0
ARC
  5
5688
  8
0
 10
51.839258451767599
 20
109.457144128037
 30
0.0
 40
22.928203228139491
 50
252.41204622431411
 51
287.58795377568589
  0
ARC
  5
5689
  8
0
 10
41.446953606354093
 20
92.662915495618336
 30
0.0
 40
6.1339745957208196
 50
244.38424746985481
 51
304.38424747121132
  0
LINE
  5
568A
  8
0
 10
37.982851991194593
 20
87.600737669726882
 30
0.0
 11
40.339258451875352
 21
86.240265765332666
 31
0.0
  0
LINE
  5
568B
  8
0
 10
37.982851991194593
 20
97.879793860872951
 30
0.0
 11
40.339258451875352
 21
99.240265765267196
 31
0.0
  0
ARC
  5
568C
  8
0
 10
41.446953606354093
 20
92.81761603498127
 30
0.0
 40
6.1339745957208196
 50
55.615752528788647
 51
115.6157525301451
  0
ARC
  5
568D
  8
0
 10
51.839258451767599
 20
76.023387402562562
 30
0.0
 40
22.928203228139491
 50
72.412046224314153
 51
107.5879537756858
  0
LINE
  5
568E
  8
0
 10
57.33925845176713
 20
50.451590630767662
 30
0.0
 11
57.33925845176713
 21
53.451590630767441
 31
0.0
  0
LINE
  5
568F
  8
0
 10
46.339258451767137
 20
50.451590630767662
 30
0.0
 11
46.339258451767137
 21
53.451590630767441
 31
0.0
  0
CIRCLE
  5
5690
  8
3
 10
51.839258451767819
 20
262.73189592753238
 30
0.0
 40
6.9175000000000004
  0
CIRCLE
  5
5691
  8
0
 10
51.839258451767819
 20
262.73189592753238
 30
0.0
 40
8.0
  0
CIRCLE
  5
5692
  8
0
 10
51.839258451767819
 20
262.73189592753238
 30
0.0
 40
11.5
  0
LINE
  5
5693
  8
0
 10
65.695664912318733
 20
262.73189592753238
 30
0.0
 11
58.767461682043162
 21
274.73189592753238
 31
0.0
  0
LINE
  5
5694
  8
0
 10
58.767461682043162
 20
250.73189592753241
 30
0.0
 11
65.695664912318733
 21
262.73189592753238
 31
0.0
  0
LINE
  5
5695
  8
0
 10
44.911055221492219
 20
250.73189592753241
 30
0.0
 11
58.767461682043162
 21
250.73189592753241
 31
0.0
  0
LINE
  5
5696
  8
0
 10
37.982851991216648
 20
262.73189592753238
 30
0.0
 11
44.911055221492219
 21
250.73189592753241
 31
0.0
  0
LINE
  5
5697
  8
0
 10
44.911055221492219
 20
274.73189592753238
 30
0.0
 11
37.982851991216648
 21
262.73189592753238
 31
0.0
  0
LINE
  5
5698
  8
0
 10
58.767461682043162
 20
274.73189592753238
 30
0.0
 11
44.911055221492219
 21
274.73189592753238
 31
0.0
  0
LINE
  5
56A8
  8
0
 10
62.300463593610182
 20
49.744483849581002
 30
0.0
 11
63.314668287833442
 21
48.730279155357721
 31
0.0
  0
LINE
  5
56B0
  8
0
 10
86.839258451767805
 20
37.254869319292311
 30
0.0
 11
86.839258451767805
 21
37.658379652007852
 31
0.0
  0
LINE
  5
56B7
  8
0
 10
86.839258451767805
 20
31.951590630767669
 30
0.0
 11
86.839258451767805
 21
37.254869319292311
 31
0.0
  0
LINE
  5
56B8
  8
0
 10
82.249094517341732
 20
31.451590630767669
 30
0.0
 11
82.249094517341732
 21
28.451590630767669
 31
0.0
  0
LINE
  5
56B9
  8
0
 10
86.339258451767805
 20
31.451590630767669
 30
0.0
 11
86.839258451767805
 21
31.951590630767669
 31
0.0
  0
LINE
  5
56BA
  8
0
 10
81.1015535337351
 20
40.123721778308663
 30
0.0
 11
86.126606337334124
 21
38.61620593722887
 31
0.0
  0
LINE
  5
56BB
  8
0
 10
81.088510604012043
 20
40.123721778308663
 30
0.0
 11
81.088510604012043
 21
40.527719012532771
 31
0.0
  0
LINE
  5
56BC
  8
0
 10
75.363848615702366
 20
42.992574237325023
 30
0.0
 11
80.376458949728175
 21
41.485364954517308
 31
0.0
  0
LINE
  5
56BD
  8
0
 10
69.052373205866161
 20
45.861426696341368
 30
0.0
 11
69.052373205866161
 21
46.264937029056902
 31
0.0
  0
LINE
  5
56BE
  8
0
 10
75.363848615702366
 20
42.992574237325023
 30
0.0
 11
75.363848615702366
 21
43.376319379932283
 31
0.0
  0
LINE
  5
56BF
  8
0
 10
69.052373205866161
 20
45.861426696341368
 30
0.0
 11
74.62696602149434
 21
44.341083201170022
 31
0.0
  0
LINE
  5
56C0
  8
0
 10
63.314668287833442
 20
48.730279155357721
 30
0.0
 11
68.339721091432665
 21
47.222763314278147
 31
0.0
  0
ARC
  5
56C1
  8
0
 10
85.839258451767819
 20
37.658379652007852
 30
0.0
 40
1.0
 50
0.0
 51
73.300755766006262
  0
ARC
  5
56C2
  8
0
 10
80.088510604012043
 20
40.527719012532771
 30
0.0
 40
1.0
 50
0.0
 51
73.264833729935503
  0
ARC
  5
56C3
  8
0
 10
74.363848615702423
 20
43.376319379932283
 30
0.0
 40
1.0
 50
0.0
 51
74.744881296941827
  0
ARC
  5
56C4
  8
0
 10
68.052373205866161
 20
46.264937029056902
 30
0.0
 40
1.0
 50
0.0
 51
73.300755766006262
  0
LINE
  5
56C5
  8
0
 10
62.300463593610182
 20
49.744483849581002
 30
0.0
 11
60.593356812423728
 21
50.451590630767662
 31
0.0
  0
LINE
  5
56C7
  8
0
 10
21.429422386193881
 20
28.451590630767669
 30
0.0
 11
82.249094517341732
 21
28.451590630767669
 31
0.0
  0
LINE
  5
56C8
  8
0
 10
41.378053309925441
 20
49.744483849581002
 30
0.0
 11
43.085160091111902
 21
50.451590630767662
 31
0.0
  0
ARC
  5
56C9
  8
0
 10
35.626143697669477
 20
46.264937029056902
 30
0.0
 40
1.0
 50
106.69924423399409
 51
180.0
  0
ARC
  5
56CA
  8
0
 10
29.314668287833229
 20
43.376319379932283
 30
0.0
 40
1.0
 50
105.2551187030578
 51
180.0
  0
ARC
  5
56CB
  8
0
 10
23.590006299523559
 20
40.527719012532771
 30
0.0
 40
1.0
 50
106.7351662700647
 51
180.0
  0
ARC
  5
56CC
  8
0
 10
17.839258451767819
 20
37.658379652007852
 30
0.0
 40
1.0
 50
106.6992442339937
 51
180.0
  0
LINE
  5
56CD
  8
0
 10
40.363848615702167
 20
48.730279155357721
 30
0.0
 11
35.338795812102951
 21
47.222763314278147
 31
0.0
  0
LINE
  5
56CE
  8
0
 10
34.626143697669477
 20
45.861426696341368
 30
0.0
 11
29.05155088204129
 21
44.341083201170022
 31
0.0
  0
LINE
  5
56CF
  8
0
 10
28.314668287833229
 20
42.992574237325023
 30
0.0
 11
28.314668287833229
 21
43.376319379932283
 31
0.0
  0
LINE
  5
56D0
  8
0
 10
34.626143697669477
 20
45.861426696341368
 30
0.0
 11
34.626143697669477
 21
46.264937029056902
 31
0.0
  0
LINE
  5
56D1
  8
0
 10
28.314668287833229
 20
42.992574237325023
 30
0.0
 11
23.302057953807431
 21
41.485364954517308
 31
0.0
  0
LINE
  5
56D2
  8
0
 10
22.590006299523569
 20
40.123721778308663
 30
0.0
 11
22.590006299523569
 21
40.527719012532771
 31
0.0
  0
LINE
  5
56D3
  8
0
 10
22.57696336980052
 20
40.123721778308663
 30
0.0
 11
17.55191056620151
 21
38.61620593722887
 31
0.0
  0
LINE
  5
56D4
  8
0
 10
17.339258451767819
 20
31.451590630767669
 30
0.0
 11
16.839258451767819
 21
31.951590630767669
 31
0.0
  0
LINE
  5
56D5
  8
0
 10
21.429422386193881
 20
31.451590630767669
 30
0.0
 11
21.429422386193881
 21
28.451590630767669
 31
0.0
  0
LINE
  5
56D6
  8
0
 10
16.839258451767819
 20
31.951590630767669
 30
0.0
 11
16.839258451767819
 21
37.254869319292311
 31
0.0
  0
LINE
  5
56DD
  8
0
 10
16.839258451767819
 20
37.254869319292311
 30
0.0
 11
16.839258451767819
 21
37.658379652007852
 31
0.0
  0
LINE
  5
56DE
  8
0
 10
43.085160091111902
 20
50.451590630767662
 30
0.0
 11
60.593356812423742
 21
50.451590630767662
 31
0.0
  0
LINE
  5
56DF
  8
0
 10
40.363848615702167
 20
48.730279155357721
 30
0.0
 11
63.314668287833427
 21
48.730279155357721
 31
0.0
  0
LINE
  5
56E0
  8
0
 10
34.626143697669477
 20
45.861426696341368
 30
0.0
 11
69.052373205866161
 21
45.861426696341368
 31
0.0
  0
LINE
  5
56E1
  8
0
 10
28.314668287833229
 20
42.992574237325023
 30
0.0
 11
75.363848615702366
 21
42.992574237325023
 31
0.0
  0
LINE
  5
56E2
  8
0
 10
22.57696336980052
 20
40.123721778308663
 30
0.0
 11
81.101553533735142
 21
40.123721778308663
 31
0.0
  0
LINE
  5
56E3
  8
0
 10
17.339258451767819
 20
31.451590630767669
 30
0.0
 11
86.339258451767805
 21
31.451590630767669
 31
0.0
  0
LINE
  5
56E4
  8
0
 10
16.839258451767819
 20
37.254869319292311
 30
0.0
 11
86.839258451767805
 21
37.254869319292311
 31
0.0
  0
LINE
  5
56E5
  8
0
 10
41.378053309925441
 20
49.744483849581002
 30
0.0
 11
40.363848615702167
 21
48.730279155357721
 31
0.0
  0
CIRCLE
  5
56E6
  8
0
 10
51.839258451767819
 20
262.73189592753238
 30
0.0
 40
35.00000000000005
  0
CIRCLE
  5
56E7
  8
0
 10
51.839258451767819
 20
262.73189592753221
 30
0.0
 40
29.249252152244249
  0
CIRCLE
  5
56E8
  8
0
 10
51.839258451767819
 20
262.73189592753221
 30
0.0
 40
23.52459016393459
  0
CIRCLE
  5
56E9
  8
0
 10
51.839258451767819
 20
262.73189592753238
 30
0.0
 40
17.213114754098338
  0
LINE
  5
56EA
  8
1
 10
51.839258451767819
 20
302.73189592753238
 30
0.0
 11
51.839258451767819
 21
222.73189592753221
 31
0.0
  0
LINE
  5
56EB
  8
1
 10
91.839258451767805
 20
262.73189592753238
 30
0.0
 11
11.839258451767821
 21
262.73189592753238
 31
0.0
  0
LINE
  5
56EC
  8
0
 10
148.37808606863661
 20
49.744483849581002
 30
0.0
 11
147.3638813744133
 21
48.730279155357721
 31
0.0
  0
LINE
  5
56ED
  8
0
 10
123.8392912104789
 20
37.254869319292311
 30
0.0
 11
193.8392912104789
 21
37.254869319292311
 31
0.0
  0
LINE
  5
56EE
  8
0
 10
124.3392912104789
 20
31.451590630767669
 30
0.0
 11
193.3392912104789
 21
31.451590630767669
 31
0.0
  0
LINE
  5
56EF
  8
0
 10
129.57699612851161
 20
40.123721778308663
 30
0.0
 11
188.1015862924462
 21
40.123721778308663
 31
0.0
  0
LINE
  5
56F0
  8
0
 10
135.31470104654429
 20
42.992574237325023
 30
0.0
 11
182.36388137441341
 21
42.992574237325023
 31
0.0
  0
LINE
  5
56F1
  8
0
 10
141.62617645638059
 20
45.861426696341368
 30
0.0
 11
176.0524059645773
 21
45.861426696341368
 31
0.0
  0
LINE
  5
56F2
  8
0
 10
147.3638813744133
 20
48.730279155357721
 30
0.0
 11
170.31470104654451
 21
48.730279155357721
 31
0.0
  0
LINE
  5
56F3
  8
0
 10
150.08519284982299
 20
50.451590630767662
 30
0.0
 11
167.59338957113491
 21
50.451590630767662
 31
0.0
  0
LINE
  5
56F4
  8
0
 10
123.8392912104789
 20
37.254869319292311
 30
0.0
 11
123.8392912104789
 21
37.658379652007852
 31
0.0
  0
LINE
  5
56FB
  8
0
 10
123.8392912104789
 20
31.951590630767669
 30
0.0
 11
123.8392912104789
 21
37.254869319292311
 31
0.0
  0
LINE
  5
56FC
  8
0
 10
128.42945514490501
 20
31.451590630767669
 30
0.0
 11
128.42945514490501
 21
28.451590630767669
 31
0.0
  0
LINE
  5
56FD
  8
0
 10
124.3392912104789
 20
31.451590630767669
 30
0.0
 11
123.8392912104789
 21
31.951590630767669
 31
0.0
  0
LINE
  5
56FE
  8
0
 10
129.57699612851161
 20
40.123721778308663
 30
0.0
 11
124.5519433249126
 21
38.61620593722887
 31
0.0
  0
LINE
  5
56FF
  8
0
 10
129.59003905823459
 20
40.123721778308663
 30
0.0
 11
129.59003905823459
 21
40.527719012532771
 31
0.0
  0
LINE
  5
5700
  8
0
 10
135.31470104654429
 20
42.992574237325023
 30
0.0
 11
130.30209071251849
 21
41.485364954517308
 31
0.0
  0
LINE
  5
5701
  8
0
 10
141.62617645638059
 20
45.861426696341368
 30
0.0
 11
141.62617645638059
 21
46.264937029056902
 31
0.0
  0
LINE
  5
5702
  8
0
 10
135.31470104654429
 20
42.992574237325023
 30
0.0
 11
135.31470104654429
 21
43.376319379932283
 31
0.0
  0
LINE
  5
5703
  8
0
 10
141.62617645638059
 20
45.861426696341368
 30
0.0
 11
136.0515836407524
 21
44.341083201170022
 31
0.0
  0
LINE
  5
5704
  8
0
 10
147.3638813744133
 20
48.730279155357721
 30
0.0
 11
142.338828570814
 21
47.222763314278147
 31
0.0
  0
ARC
  5
5705
  8
0
 10
124.8392912104789
 20
37.658379652007852
 30
0.0
 40
1.0
 50
106.6992442339937
 51
180.0
  0
ARC
  5
5706
  8
0
 10
130.59003905823459
 20
40.527719012532771
 30
0.0
 40
1.0
 50
106.73516627006521
 51
180.0
  0
ARC
  5
5707
  8
0
 10
136.31470104654429
 20
43.376319379932283
 30
0.0
 40
1.0
 50
105.2551187030581
 51
180.0
  0
ARC
  5
5708
  8
0
 10
142.62617645638059
 20
46.264937029056902
 30
0.0
 40
1.0
 50
106.69924423399451
 51
180.0
  0
LINE
  5
5709
  8
0
 10
148.37808606863661
 20
49.744483849581002
 30
0.0
 11
150.08519284982299
 21
50.451590630767662
 31
0.0
  0
LINE
  5
570A
  8
0
 10
128.42945514490501
 20
28.451590630767669
 30
0.0
 11
189.2491272760528
 21
28.451590630767669
 31
0.0
  0
LINE
  5
570C
  8
0
 10
169.30049635232129
 20
49.744483849581002
 30
0.0
 11
167.59338957113479
 21
50.451590630767662
 31
0.0
  0
ARC
  5
570D
  8
0
 10
175.0524059645773
 20
46.264937029056902
 30
0.0
 40
1.0
 50
0.0
 51
73.30075576600548
  0
ARC
  5
570E
  8
0
 10
181.36388137441341
 20
43.376319379932283
 30
0.0
 40
1.0
 50
0.0
 51
74.744881296941827
  0
ARC
  5
570F
  8
0
 10
187.08854336272319
 20
40.527719012532771
 30
0.0
 40
1.0
 50
0.0
 51
73.264833729934722
  0
ARC
  5
5710
  8
0
 10
192.8392912104789
 20
37.658379652007852
 30
0.0
 40
1.0
 50
0.0
 51
73.30075576600548
  0
LINE
  5
5711
  8
0
 10
170.31470104654451
 20
48.730279155357721
 30
0.0
 11
175.33975385014381
 21
47.222763314278147
 31
0.0
  0
LINE
  5
5712
  8
0
 10
176.05240596457719
 20
45.861426696341368
 30
0.0
 11
181.6269987802055
 21
44.341083201170022
 31
0.0
  0
LINE
  5
5713
  8
0
 10
182.36388137441341
 20
42.992574237325023
 30
0.0
 11
182.36388137441341
 21
43.376319379932283
 31
0.0
  0
LINE
  5
5714
  8
0
 10
176.05240596457719
 20
45.861426696341368
 30
0.0
 11
176.05240596457719
 21
46.264937029056902
 31
0.0
  0
LINE
  5
5715
  8
0
 10
182.36388137441341
 20
42.992574237325023
 30
0.0
 11
187.37649170843929
 21
41.485364954517308
 31
0.0
  0
LINE
  5
5716
  8
0
 10
188.08854336272319
 20
40.123721778308663
 30
0.0
 11
188.08854336272319
 21
40.527719012532771
 31
0.0
  0
LINE
  5
5717
  8
0
 10
188.1015862924462
 20
40.123721778308663
 30
0.0
 11
193.12663909604521
 21
38.61620593722887
 31
0.0
  0
LINE
  5
5718
  8
0
 10
193.3392912104789
 20
31.451590630767669
 30
0.0
 11
193.8392912104789
 21
31.951590630767669
 31
0.0
  0
LINE
  5
5719
  8
0
 10
189.2491272760528
 20
31.451590630767669
 30
0.0
 11
189.2491272760528
 21
28.451590630767669
 31
0.0
  0
LINE
  5
571A
  8
0
 10
193.8392912104789
 20
31.951590630767669
 30
0.0
 11
193.8392912104789
 21
37.254869319292311
 31
0.0
  0
LINE
  5
571E
  8
0
 10
193.8392912104789
 20
37.254869319292311
 30
0.0
 11
193.8392912104789
 21
37.658379652007852
 31
0.0
  0
LINE
  5
5725
  8
0
 10
169.30049635232129
 20
49.744483849581002
 30
0.0
 11
170.31470104654451
 21
48.730279155357721
 31
0.0
  0
TEXT
  5
5ADB
  8
0
 62
     3
 10
0.0
 20
0.0
 30
0.0
 40
10.0
  1
LVAR70S16C
  7
STANDARD1
  0
ENDSEC
  0
EOF
