  0
SECTION
  2
HEADER
  9
$ACADVER
  1
AC1009
  9
$INSBASE
 10
0.0
 20
0.0
 30
0.0
  9
$EXTMIN
 10
0.0
 20
-2.960436562073669
 30
0.0
  9
$EXTMAX
 10
192.72606159703571
 20
226.43276633201631
 30
0.0
  9
$LIMMIN
 10
0.0
 20
0.0
  9
$LIMMAX
 10
375.0
 20
270.0
  9
$ORTHOMODE
 70
     1
  9
$REGENMODE
 70
     1
  9
$FILLMODE
 70
     1
  9
$QTEXTMODE
 70
     0
  9
$MIRRTEXT
 70
     0
  9
$DRAGMODE
 70
     2
  9
$LTSCALE
 40
6.0
  9
$OSMODE
 70
  3071
  9
$ATTMODE
 70
     1
  9
$TEXTSIZE
 40
0.2
  9
$TRACEWID
 40
0.05
  9
$TEXTSTYLE
  7
STANDARD
  9
$CLAYER
  8
0
  9
$CELTYPE
  6
BYLAYER
  9
$CECOLOR
 62
   256
  9
$DIMSCALE
 40
1.0
  9
$DIMASZ
 40
3.0
  9
$DIMEXO
 40
1.0
  9
$DIMDLI
 40
6.0
  9
$DIMRND
 40
0.0
  9
$DIMDLE
 40
0.0
  9
$DIMEXE
 40
1.0
  9
$DIMTP
 40
495.0
  9
$DIMTM
 40
0.0
  9
$DIMTXT
 40
3.0
  9
$DIMCEN
 40
0.0
  9
$DIMTSZ
 40
0.0
  9
$DIMTOL
 70
     0
  9
$DIMLIM
 70
     0
  9
$DIMTIH
 70
     0
  9
$DIMTOH
 70
     0
  9
$DIMSE1
 70
     0
  9
$DIMSE2
 70
     0
  9
$DIMTAD
 70
     1
  9
$DIMZIN
 70
     0
  9
$DIMBLK
  1

  9
$DIMASO
 70
     0
  9
$DIMSHO
 70
     0
  9
$DIMPOST
  1

  9
$DIMAPOST
  1

  9
$DIMALT
 70
     0
  9
$DIMALTD
 70
     2
  9
$DIMALTF
 40
25.399999999999999
  9
$DIMLFAC
 40
1.0
  9
$DIMTOFL
 70
     1
  9
$DIMTVP
 40
0.0
  9
$DIMTIX
 70
     1
  9
$DIMSOXD
 70
     0
  9
$DIMSAH
 70
     0
  9
$DIMBLK1
  1

  9
$DIMBLK2
  1

  9
$DIMSTYLE
  2
STANDARD
  9
$DIMCLRD
 70
     0
  9
$DIMCLRE
 70
     0
  9
$DIMCLRT
 70
     4
  9
$DIMTFAC
 40
1.0
  9
$DIMGAP
 40
1.0
  9
$LUNITS
 70
     2
  9
$LUPREC
 70
     4
  9
$SKETCHINC
 40
0.1
  9
$FILLETRAD
 40
2.0
  9
$AUNITS
 70
     0
  9
$AUPREC
 70
     0
  9
$MENU
  1
C:\R13\WIN\SUPPORT\ACAD-I
  9
$ELEVATION
 40
0.0
  9
$PELEVATION
 40
0.0
  9
$THICKNESS
 40
0.0
  9
$LIMCHECK
 70
     0
  9
$BLIPMODE
 70
     0
  9
$CHAMFERA
 40
0.0
  9
$CHAMFERB
 40
0.0
  9
$SKPOLY
 70
     0
  9
$TDCREATE
 40
2451962.4319886002
  9
$TDUPDATE
 40
2456597.6142988079
  9
$TDINDWG
 40
0.0693086458
  9
$TDUSRTIMER
 40
2456555.3019904401
  9
$USRTIMER
 70
     1
  9
$ANGBASE
 50
0.0
  9
$ANGDIR
 70
     0
  9
$PDMODE
 70
     0
  9
$PDSIZE
 40
0.0
  9
$PLINEWID
 40
0.0
  9
$COORDS
 70
     1
  9
$SPLFRAME
 70
     0
  9
$SPLINETYPE
 70
     6
  9
$SPLINESEGS
 70
     8
  9
$ATTDIA
 70
     0
  9
$ATTREQ
 70
     1
  9
$HANDLING
 70
     1
  9
$HANDSEED
  5
530B
  9
$SURFTAB1
 70
     6
  9
$SURFTAB2
 70
     6
  9
$SURFTYPE
 70
     6
  9
$SURFU
 70
     6
  9
$SURFV
 70
     6
  9
$UCSNAME
  2

  9
$UCSORG
 10
0.0
 20
0.0
 30
0.0
  9
$UCSXDIR
 10
1.0
 20
0.0
 30
0.0
  9
$UCSYDIR
 10
0.0
 20
1.0
 30
0.0
  9
$PUCSNAME
  2

  9
$PUCSORG
 10
0.0
 20
0.0
 30
0.0
  9
$PUCSXDIR
 10
1.0
 20
0.0
 30
0.0
  9
$PUCSYDIR
 10
0.0
 20
1.0
 30
0.0
  9
$USERI1
 70
     4
  9
$USERI2
 70
     1
  9
$USERI3
 70
     0
  9
$USERI4
 70
     0
  9
$USERI5
 70
     0
  9
$USERR1
 40
1.0
  9
$USERR2
 40
3.0
  9
$USERR3
 40
3.0
  9
$USERR4
 40
3.0
  9
$USERR5
 40
10.0
  9
$WORLDVIEW
 70
     1
  9
$SHADEDGE
 70
     3
  9
$SHADEDIF
 70
    70
  9
$TILEMODE
 70
     1
  9
$MAXACTVP
 70
    16
  9
$PLIMCHECK
 70
     0
  9
$PEXTMIN
 10
1.0000000000000000E+020
 20
1.0000000000000000E+020
 30
1.0000000000000000E+020
  9
$PEXTMAX
 10
-1.0000000000000000E+020
 20
-1.0000000000000000E+020
 30
-1.0000000000000000E+020
  9
$PLIMMIN
 10
0.0
 20
0.0
  9
$PLIMMAX
 10
12.0
 20
9.0
  9
$UNITMODE
 70
     0
  9
$VISRETAIN
 70
     0
  9
$PLINEGEN
 70
     0
  9
$PSLTSCALE
 70
     0
  0
ENDSEC
  0
SECTION
  2
TABLES
  0
TABLE
  2
VPORT
 70
     1
  0
VPORT
  2
*ACTIVE
 70
     0
 10
0.0
 20
0.0
 11
1.0
 21
1.0
 12
187.49427839065231
 22
134.10366293909439
 13
0.0
 23
0.0
 14
10.0
 24
10.0
 15
10.0
 25
10.0
 16
0.0
 26
0.0
 36
1.0
 17
0.0
 27
0.0
 37
0.0
 40
277.29405978699532
 41
2.304913294797688
 42
50.0
 43
0.0
 44
0.0
 50
0.0
 51
0.0
 71
    16
 72
   100
 73
     1
 74
     0
 75
     0
 76
     0
 77
     0
 78
     0
  0
ENDTAB
  0
TABLE
  2
LTYPE
 70
     3
  0
LTYPE
  2
CONTINUOUS
 70
     0
  3
Solid Line
 72
    65
 73
     0
 40
0.0
  0
LTYPE
  2
PHANTOM2
 70
     0
  3
___ _ _ ___ _ _ ___ _ _ ___ _ _
 72
    65
 73
     6
 40
1.25
 49
0.625
 49
-0.125
 49
0.125
 49
-0.125
 49
0.125
 49
-0.125
  0
LTYPE
  2
CENTER
 70
     0
  3
____ _ ____ _ ____ _ ____ _ ____ _ ____ _ ____
 72
    65
 73
     4
 40
2.0
 49
1.25
 49
-0.25
 49
0.25
 49
-0.25
  0
ENDTAB
  0
TABLE
  2
LAYER
 70
     3
  0
LAYER
  2
0
 70
     0
 62
     7
  6
CONTINUOUS
  0
LAYER
  2
1
 70
     0
 62
     1
  6
CENTER
  0
LAYER
  2
3
 70
     0
 62
     3
  6
CONTINUOUS
  0
ENDTAB
  0
TABLE
  2
STYLE
 70
     3
  0
STYLE
  2
STANDARD
 70
     0
 40
0.0
 41
1.0
 50
0.0
 71
     0
 42
0.2
  3
SIMPLEX
  4
BIGFONT
  0
STYLE
  2
ANNOTATIVE
 70
     0
 40
0.0
 41
1.0
 50
0.0
 71
     0
 42
0.2
  3
txt
  4

  0
STYLE
  2
STANDARD1
 70
     0
 40
0.0
 41
1.0
 50
0.0
 71
     0
 42
3.0
  3
txt
  4

  0
ENDTAB
  0
TABLE
  2
VIEW
 70
     0
  0
ENDTAB
  0
TABLE
  2
UCS
 70
     0
  0
ENDTAB
  0
TABLE
  2
APPID
 70
    29
  0
APPID
  2
ACAD
 70
     0
  0
APPID
  2
ACADANNOTATIVE
 70
     0
  0
APPID
  2
GENIUS_GENOREF_13
 70
     0
  0
APPID
  2
GENIUS_GENOENT_13
 70
     0
  0
APPID
  2
GENIUS_GENBH_13
 70
     0
  0
APPID
  2
GENIUS_GENOBJ_13
 70
     0
  0
APPID
  2
GENIUS_GENODEF_13
 70
     0
  0
APPID
  2
GENIUS_GENOLIS_13
 70
     0
  0
APPID
  2
GENIUS_GENOBJ-NBEHI-BHF_13
 70
     0
  0
APPID
  2
GENIUS_GENOBJ-NBEHI-BHB_13
 70
     0
  0
APPID
  2
GENIUS_GENOBJ-F-PART_13
 70
     0
  0
APPID
  2
GENIUS_GEFSTDP_13
 70
     0
  0
APPID
  2
GENIUS_GENOBJ-N-RSSYM_13
 70
     0
  0
APPID
  2
GENIUS_GENSYMENT_13
 70
     0
  0
APPID
  2
GENIUS_GENOBJ-N-TIT_13
 70
     0
  0
APPID
  2
GENIUS_GENTITLE_13
 70
     0
  0
APPID
  2
GENIUS_GENZVEED_13
 70
     0
  0
APPID
  2
GENIUS_GENOBJ-N-LEADER_13
 70
     0
  0
APPID
  2
GENIUS_GENOBJ-N-FIL_13
 70
     0
  0
APPID
  2
GENIUS_GENOBJ-N-SEC_13
 70
     0
  0
APPID
  2
GENIUS_GENOBJ-N-CRS_13
 70
     0
  0
APPID
  2
GENIUS_GENOBJ-N-ZOO_13
 70
     0
  0
APPID
  2
GENIUS_GENZOO_13
 70
     0
  0
APPID
  2
GENIUS_GENOBJ-F-TOL_13
 70
     0
  0
APPID
  2
GENIUS_GENFIL_13
 70
     0
  0
APPID
  2
GENIUS_GENOBJ-N-CHA_13
 70
     0
  0
APPID
  2
ACAD_EXEMPT_FROM_CAD_STANDARDS
 70
     0
  0
APPID
  2
ACAD_MLEADERVER
 70
     0
  0
APPID
  2
ACAD_NAV_VCDISPLAY
 70
     0
  0
ENDTAB
  0
TABLE
  2
DIMSTYLE
 70
     2
  0
DIMSTYLE
  2
STANDARD
 70
     0
  3

  4

  5

  6

  7

 40
1.0
 41
0.18
 42
0.0625
 43
0.38
 44
0.18
 45
0.0
 46
0.0
 47
0.0
 48
0.0
140
0.18
141
0.09
142
0.0
143
25.399999999999999
144
1.0
145
0.0
146
1.0
147
0.09
 71
     0
 72
     0
 73
     1
 74
     1
 75
     0
 76
     0
 77
     0
 78
     0
170
     0
171
     2
172
     0
173
     0
174
     0
175
     0
176
     0
177
     0
178
     0
  0
DIMSTYLE
  2
ANNOTATIVE
 70
     0
  3

  4

  5

  6

  7

 40
1.0
 41
0.18
 42
0.0625
 43
0.38
 44
0.18
 45
0.0
 46
0.0
 47
0.0
 48
0.0
140
0.18
141
0.09
142
0.0
143
25.399999999999999
144
1.0
145
0.0
146
1.0
147
0.09
 71
     0
 72
     0
 73
     1
 74
     1
 75
     0
 76
     0
 77
     0
 78
     0
170
     0
171
     2
172
     0
173
     0
174
     0
175
     0
176
     0
177
     0
178
     0
  0
ENDTAB
  0
ENDSEC
  0
SECTION
  2
BLOCKS
  0
BLOCK
  8
0
  2
$MODEL_SPACE
 70
     0
 10
0.0
 20
0.0
 30
0.0
  3
$MODEL_SPACE
  1

  0
ENDBLK
  5
522E
  8
0
  0
BLOCK
 67
     1
  8
0
  2
$PAPER_SPACE
 70
     0
 10
0.0
 20
0.0
 30
0.0
  3
$PAPER_SPACE
  1

  0
ENDBLK
  5
522A
 67
     1
  8
0
  0
ENDSEC
  0
SECTION
  2
ENTITIES
  0
LINE
  5
4E59
  8
0
 10
61.187233980166873
 20
42.453589829930593
 30
0.0
 11
62.201438674390147
 21
41.439385135707191
 31
0.0
  0
LINE
  5
4E61
  8
0
 10
85.726028838324495
 20
29.963975299641682
 30
0.0
 11
85.726028838324495
 21
30.367485632357219
 31
0.0
  0
LINE
  5
4E68
  8
0
 10
85.726028838324495
 20
24.66069661111715
 30
0.0
 11
85.726028838324495
 21
29.963975299641682
 31
0.0
  0
LINE
  5
4E69
  8
0
 10
81.135864903898437
 20
24.16069661111715
 30
0.0
 11
81.135864903898437
 21
21.16069661111715
 31
0.0
  0
LINE
  5
4E6A
  8
0
 10
85.226028838324524
 20
24.16069661111715
 30
0.0
 11
85.726028838324495
 21
24.66069661111715
 31
0.0
  0
LINE
  5
4E6B
  8
0
 10
79.988323920291819
 20
32.832827758658141
 30
0.0
 11
85.013376723890929
 21
31.325311917578361
 31
0.0
  0
LINE
  5
4E6C
  8
0
 10
79.975280990568763
 20
32.832827758658141
 30
0.0
 11
79.975280990568763
 21
33.236824992882362
 31
0.0
  0
LINE
  5
4E6D
  8
0
 10
74.250619002258986
 20
35.701680217674493
 30
0.0
 11
79.26322933628478
 21
34.1944709348668
 31
0.0
  0
LINE
  5
4E6E
  8
0
 10
67.939143592422852
 20
38.570532676690853
 30
0.0
 11
67.939143592422852
 21
38.974043009406387
 31
0.0
  0
LINE
  5
4E6F
  8
0
 10
74.250619002258986
 20
35.701680217674372
 30
0.0
 11
74.250619002259086
 21
36.085425360281761
 31
0.0
  0
LINE
  5
4E70
  8
0
 10
67.939143592422852
 20
38.570532676690853
 30
0.0
 11
73.513736408051173
 21
37.050189181519492
 31
0.0
  0
LINE
  5
4E71
  8
0
 10
62.201438674390147
 20
41.439385135707191
 30
0.0
 11
67.226491477989271
 21
39.931869294627532
 31
0.0
  0
ARC
  5
4E72
  8
0
 10
84.726028838324495
 20
30.367485632357219
 30
0.0
 40
1.0
 50
0.0
 51
73.300755766006219
  0
ARC
  5
4E73
  8
0
 10
78.975280990568763
 20
33.236824992882362
 30
0.0
 40
1.0
 50
0.0
 51
73.264833729935233
  0
ARC
  5
4E74
  8
0
 10
73.250619002259086
 20
36.085425360281761
 30
0.0
 40
1.0
 50
0.0
 51
74.74488129694214
  0
ARC
  5
4E75
  8
0
 10
66.939143592422852
 20
38.974043009406387
 30
0.0
 40
1.0
 50
0.0
 51
73.300755766005906
  0
LINE
  5
4E76
  8
0
 10
61.187233980166873
 20
42.453589829930593
 30
0.0
 11
59.480127198980412
 21
43.160696611117132
 31
0.0
  0
LINE
  5
4E78
  8
0
 10
20.316192772750568
 20
21.16069661111715
 30
0.0
 11
81.135864903898437
 21
21.16069661111715
 31
0.0
  0
LINE
  5
4E79
  8
0
 10
40.264823696482161
 20
42.453589829930593
 30
0.0
 11
41.971930477668593
 21
43.160696611117132
 31
0.0
  0
ARC
  5
4E7A
  8
0
 10
34.512914084226168
 20
38.974043009406387
 30
0.0
 40
1.0
 50
106.69924423399409
 51
180.0
  0
ARC
  5
4E7B
  8
0
 10
28.201438674389919
 20
36.085425360281761
 30
0.0
 40
1.0
 50
105.2551187030578
 51
180.0
  0
ARC
  5
4E7C
  8
0
 10
22.47677668608026
 20
33.236824992882362
 30
0.0
 40
1.0
 50
106.7351662700647
 51
180.0
  0
ARC
  5
4E7D
  8
0
 10
16.72602883832451
 20
30.367485632357219
 30
0.0
 40
1.0
 50
106.6992442339937
 51
180.0
  0
LINE
  5
4E7E
  8
0
 10
39.250619002258873
 20
41.439385135707191
 30
0.0
 11
34.225566198659749
 21
39.931869294627532
 31
0.0
  0
LINE
  5
4E7F
  8
0
 10
33.512914084226168
 20
38.570532676690853
 30
0.0
 11
27.938321268597861
 21
37.050189181519492
 31
0.0
  0
LINE
  5
4E80
  8
0
 10
27.20143867439003
 20
35.701680217674372
 30
0.0
 11
27.201438674389919
 21
36.085425360281761
 31
0.0
  0
LINE
  5
4E81
  8
0
 10
33.512914084226168
 20
38.570532676690853
 30
0.0
 11
33.512914084226168
 21
38.974043009406387
 31
0.0
  0
LINE
  5
4E82
  8
0
 10
27.20143867439003
 20
35.701680217674493
 30
0.0
 11
22.188828340364239
 21
34.1944709348668
 31
0.0
  0
LINE
  5
4E83
  8
0
 10
21.47677668608026
 20
32.832827758658141
 30
0.0
 11
21.47677668608026
 21
33.236824992882362
 31
0.0
  0
LINE
  5
4E84
  8
0
 10
21.463733756357229
 20
32.832827758658141
 30
0.0
 11
16.438680952758091
 21
31.325311917578361
 31
0.0
  0
LINE
  5
4E85
  8
0
 10
16.22602883832451
 20
24.16069661111715
 30
0.0
 11
15.72602883832451
 21
24.66069661111715
 31
0.0
  0
LINE
  5
4E86
  8
0
 10
20.316192772750568
 20
24.16069661111715
 30
0.0
 11
20.316192772750568
 21
21.16069661111715
 31
0.0
  0
LINE
  5
4E87
  8
0
 10
15.72602883832451
 20
24.66069661111715
 30
0.0
 11
15.72602883832451
 21
29.963975299641682
 31
0.0
  0
LINE
  5
4E8E
  8
0
 10
15.72602883832451
 20
29.963975299641682
 30
0.0
 11
15.72602883832451
 21
30.367485632357219
 31
0.0
  0
LINE
  5
4E8F
  8
0
 10
41.971930477668593
 20
43.160696611117132
 30
0.0
 11
59.480127198980448
 21
43.160696611117132
 31
0.0
  0
LINE
  5
4E90
  8
0
 10
39.250619002258873
 20
41.439385135707191
 30
0.0
 11
62.201438674390147
 21
41.439385135707191
 31
0.0
  0
LINE
  5
4E91
  8
0
 10
33.512914084226168
 20
38.570532676690853
 30
0.0
 11
67.939143592422852
 21
38.570532676690853
 31
0.0
  0
LINE
  5
4E92
  8
0
 10
27.20143867439003
 20
35.701680217674493
 30
0.0
 11
74.250619002259015
 21
35.701680217674493
 31
0.0
  0
LINE
  5
4E93
  8
0
 10
21.463733756357229
 20
32.832827758658141
 30
0.0
 11
79.988323920291819
 21
32.832827758658148
 31
0.0
  0
LINE
  5
4E94
  8
0
 10
16.22602883832451
 20
24.16069661111715
 30
0.0
 11
85.226028838324524
 21
24.160696611117139
 31
0.0
  0
LINE
  5
4E95
  8
0
 10
15.72602883832451
 20
29.963975299641682
 30
0.0
 11
85.726028838324495
 21
29.963975299641671
 31
0.0
  0
LINE
  5
4E96
  8
0
 10
40.264823696482161
 20
42.453589829930593
 30
0.0
 11
39.250619002258873
 21
41.439385135707191
 31
0.0
  0
CIRCLE
  5
4E97
  8
0
 10
50.72602883832451
 20
186.43276633201609
 30
0.0
 40
35.00000000000005
  0
CIRCLE
  5
4E98
  8
0
 10
50.72602883832451
 20
186.43276633201609
 30
0.0
 40
29.249252152244249
  0
CIRCLE
  5
4E99
  8
0
 10
50.72602883832451
 20
186.43276633201609
 30
0.0
 40
23.52459016393453
  0
CIRCLE
  5
4E9A
  8
0
 10
50.72602883832451
 20
186.43276633201609
 30
0.0
 40
17.213114754098338
  0
CIRCLE
  5
4E9B
  8
0
 10
50.72602883832451
 20
186.43276633201609
 30
0.0
 40
11.47540983606563
  0
LINE
  5
4E9D
  8
1
 10
50.72602883832451
 20
226.43276633201631
 30
0.0
 11
50.72602883832451
 21
146.4327663320162
 31
0.0
  0
LINE
  5
4E9E
  8
1
 10
90.726028838324495
 20
186.43276633201609
 30
0.0
 11
10.72602883832451
 21
186.43276633201609
 31
0.0
  0
LINE
  5
4E9F
  8
1
 10
50.72602883832451
 20
16.160696611117139
 30
0.0
 11
50.72602883832451
 21
125.1606966111171
 31
0.0
  0
LINE
  5
4EA0
  8
1
 10
157.72606159703579
 20
16.160696611117139
 30
0.0
 11
157.72606159703579
 21
125.1606966111171
 31
0.0
  0
LINE
  5
4EA1
  8
0
 10
147.26485645519341
 20
42.453589829930593
 30
0.0
 11
146.25065176097019
 21
41.439385135707191
 31
0.0
  0
LINE
  5
4EA2
  8
0
 10
122.72606159703579
 20
29.963975299641671
 30
0.0
 11
192.72606159703571
 21
29.963975299641671
 31
0.0
  0
LINE
  5
4EA3
  8
0
 10
123.22606159703579
 20
24.160696611117139
 30
0.0
 11
192.22606159703571
 21
24.160696611117139
 31
0.0
  0
LINE
  5
4EA4
  8
0
 10
128.4637665150685
 20
32.832827758658141
 30
0.0
 11
186.988356679003
 21
32.832827758658141
 31
0.0
  0
LINE
  5
4EA5
  8
0
 10
134.2014714331012
 20
35.701680217674493
 30
0.0
 11
181.2506517609703
 21
35.701680217674472
 31
0.0
  0
LINE
  5
4EA6
  8
0
 10
140.51294684293751
 20
38.570532676690853
 30
0.0
 11
174.93917635113419
 21
38.570532676690853
 31
0.0
  0
LINE
  5
4EA7
  8
0
 10
146.25065176097019
 20
41.439385135707191
 30
0.0
 11
169.2014714331014
 21
41.439385135707191
 31
0.0
  0
LINE
  5
4EA8
  8
0
 10
148.97196323637991
 20
43.160696611117132
 30
0.0
 11
166.4801599576918
 21
43.160696611117132
 31
0.0
  0
LINE
  5
4EA9
  8
0
 10
122.72606159703579
 20
29.963975299641671
 30
0.0
 11
122.72606159703579
 21
30.367485632357209
 31
0.0
  0
LINE
  5
4EB0
  8
0
 10
122.72606159703579
 20
24.660696611117139
 30
0.0
 11
122.72606159703579
 21
29.963975299641671
 31
0.0
  0
LINE
  5
4EB1
  8
0
 10
127.3162255314619
 20
24.160696611117139
 30
0.0
 11
127.3162255314619
 21
21.160696611117139
 31
0.0
  0
LINE
  5
4EB2
  8
0
 10
123.22606159703579
 20
24.160696611117139
 30
0.0
 11
122.72606159703579
 21
24.660696611117139
 31
0.0
  0
LINE
  5
4EB3
  8
0
 10
128.4637665150685
 20
32.832827758658141
 30
0.0
 11
123.4387137114694
 21
31.325311917578361
 31
0.0
  0
LINE
  5
4EB4
  8
0
 10
128.47680944479151
 20
32.832827758658141
 30
0.0
 11
128.47680944479151
 21
33.236824992882362
 31
0.0
  0
LINE
  5
4EB5
  8
0
 10
134.2014714331012
 20
35.701680217674493
 30
0.0
 11
129.1888610990755
 21
34.1944709348668
 31
0.0
  0
LINE
  5
4EB6
  8
0
 10
140.51294684293751
 20
38.570532676690853
 30
0.0
 11
140.51294684293751
 21
38.974043009406387
 31
0.0
  0
LINE
  5
4EB7
  8
0
 10
134.2014714331012
 20
35.701680217674372
 30
0.0
 11
134.2014714331012
 21
36.085425360281761
 31
0.0
  0
LINE
  5
4EB8
  8
0
 10
140.51294684293751
 20
38.570532676690853
 30
0.0
 11
134.9383540273092
 21
37.050189181519492
 31
0.0
  0
LINE
  5
4EB9
  8
0
 10
146.25065176097019
 20
41.439385135707191
 30
0.0
 11
141.22559895737101
 21
39.931869294627532
 31
0.0
  0
ARC
  5
4EBA
  8
0
 10
123.72606159703579
 20
30.367485632357209
 30
0.0
 40
1.0
 50
106.6992442339937
 51
180.0
  0
ARC
  5
4EBB
  8
0
 10
129.47680944479151
 20
33.236824992882362
 30
0.0
 40
1.0
 50
106.7351662700647
 51
180.0
  0
ARC
  5
4EBC
  8
0
 10
135.2014714331012
 20
36.085425360281761
 30
0.0
 40
1.0
 50
105.2551187030578
 51
180.0
  0
ARC
  5
4EBD
  8
0
 10
141.51294684293751
 20
38.974043009406387
 30
0.0
 40
1.0
 50
106.69924423399409
 51
180.0
  0
LINE
  5
4EBE
  8
0
 10
147.26485645519341
 20
42.453589829930593
 30
0.0
 11
148.97196323637991
 21
43.160696611117132
 31
0.0
  0
LINE
  5
4EBF
  8
0
 10
127.3162255314619
 20
21.160696611117139
 30
0.0
 11
188.13589766260961
 21
21.160696611117139
 31
0.0
  0
LINE
  5
4EC1
  8
0
 10
168.18726673887821
 20
42.453589829930593
 30
0.0
 11
166.48015995769171
 21
43.160696611117132
 31
0.0
  0
ARC
  5
4EC2
  8
0
 10
173.93917635113411
 20
38.974043009406387
 30
0.0
 40
1.0
 50
0.0
 51
73.300755766005906
  0
ARC
  5
4EC3
  8
0
 10
180.25065176097041
 20
36.085425360281761
 30
0.0
 40
1.0
 50
0.0
 51
74.74488129694214
  0
ARC
  5
4EC4
  8
0
 10
185.97531374927999
 20
33.236824992882362
 30
0.0
 40
1.0
 50
0.0
 51
73.264833729935233
  0
ARC
  5
4EC5
  8
0
 10
191.72606159703571
 20
30.367485632357209
 30
0.0
 40
1.0
 50
0.0
 51
73.300755766006219
  0
LINE
  5
4EC6
  8
0
 10
169.2014714331014
 20
41.439385135707191
 30
0.0
 11
174.22652423670061
 21
39.931869294627532
 31
0.0
  0
LINE
  5
4EC7
  8
0
 10
174.93917635113411
 20
38.570532676690853
 30
0.0
 11
180.51376916676239
 21
37.050189181519492
 31
0.0
  0
LINE
  5
4EC8
  8
0
 10
181.2506517609703
 20
35.701680217674372
 30
0.0
 11
181.25065176097041
 21
36.085425360281761
 31
0.0
  0
LINE
  5
4EC9
  8
0
 10
174.93917635113411
 20
38.570532676690853
 30
0.0
 11
174.93917635113411
 21
38.974043009406387
 31
0.0
  0
LINE
  5
4ECA
  8
0
 10
181.2506517609703
 20
35.701680217674493
 30
0.0
 11
186.26326209499609
 21
34.1944709348668
 31
0.0
  0
LINE
  5
4ECB
  8
0
 10
186.97531374927999
 20
32.832827758658141
 30
0.0
 11
186.97531374927999
 21
33.236824992882362
 31
0.0
  0
LINE
  5
4ECC
  8
0
 10
186.98835667900309
 20
32.832827758658141
 30
0.0
 11
192.01340948260221
 21
31.325311917578361
 31
0.0
  0
LINE
  5
4ECD
  8
0
 10
192.22606159703571
 20
24.160696611117139
 30
0.0
 11
192.72606159703571
 21
24.660696611117139
 31
0.0
  0
LINE
  5
4ECE
  8
0
 10
188.13589766260961
 20
24.160696611117139
 30
0.0
 11
188.13589766260961
 21
21.160696611117139
 31
0.0
  0
LINE
  5
4ECF
  8
0
 10
192.72606159703571
 20
24.660696611117139
 30
0.0
 11
192.72606159703571
 21
29.963975299641671
 31
0.0
  0
LINE
  5
4ED6
  8
0
 10
192.72606159703571
 20
29.963975299641671
 30
0.0
 11
192.72606159703571
 21
30.367485632357209
 31
0.0
  0
LINE
  5
4EDE
  8
0
 10
168.18726673887821
 20
42.453589829930593
 30
0.0
 11
169.2014714331014
 21
41.439385135707191
 31
0.0
  0
LINE
  5
4EDF
  8
0
 10
56.226028838324282
 20
43.160696611116791
 30
0.0
 11
56.226028838324282
 21
47.160696611116677
 31
0.0
  0
LINE
  5
4EE0
  8
0
 10
45.226028838324282
 20
43.160696611116791
 30
0.0
 11
45.226028838324282
 21
47.160696611116677
 31
0.0
  0
LINE
  5
4EE1
  8
0
 10
50.726028838324282
 20
51.380041371687177
 30
0.0
 11
50.726028838324282
 21
47.94135185054607
 31
0.0
  0
LINE
  5
4EE2
  8
0
 10
43.726028838324282
 20
52.005256154026362
 30
0.0
 11
43.726028838324282
 21
47.316137068206899
 31
0.0
  0
LINE
  5
4EE3
  8
0
 10
57.726028838324282
 20
52.005256154026362
 30
0.0
 11
57.726028838324282
 21
47.316137068206899
 31
0.0
  0
LINE
  5
4EE4
  8
0
 10
57.456798069092208
 20
52.160696611116677
 30
0.0
 11
43.995259607556129
 21
52.160696611116677
 31
0.0
  0
ARC
  5
4EE5
  8
0
 10
47.226028838324282
 20
41.896015392988943
 30
0.0
 40
10.10924076103746
 50
69.743841999582529
 51
110.2561580004167
  0
LINE
  5
4EE6
  8
0
 10
43.726028838324282
 20
52.005256154026362
 30
0.0
 11
43.995259607556129
 21
52.160696611116677
 31
0.0
  0
LINE
  5
4EE7
  8
0
 10
57.726028838324282
 20
52.005256154026362
 30
0.0
 11
57.456798069092208
 21
52.160696611116677
 31
0.0
  0
ARC
  5
4EE8
  8
0
 10
54.226028838324041
 20
41.896015392988943
 30
0.0
 40
10.10924076103746
 50
69.743841999582529
 51
110.2561580004167
  0
LINE
  5
4EE9
  8
0
 10
57.456798069092208
 20
47.160696611116677
 30
0.0
 11
43.995259607556129
 21
47.160696611116677
 31
0.0
  0
ARC
  5
4EEA
  8
0
 10
47.226028838324282
 20
57.425377829244333
 30
0.0
 40
10.10924076103746
 50
249.74384199958331
 51
290.25615800041601
  0
LINE
  5
4EEB
  8
0
 10
43.726028838324282
 20
47.316137068206899
 30
0.0
 11
43.995259607556129
 21
47.160696611116677
 31
0.0
  0
LINE
  5
4EEC
  8
0
 10
57.726028838324282
 20
47.316137068206899
 30
0.0
 11
57.456798069092208
 21
47.160696611116677
 31
0.0
  0
ARC
  5
4EED
  8
0
 10
54.226028838324041
 20
57.425377829244333
 30
0.0
 40
10.10924076103746
 50
249.74384199958331
 51
290.25615800041601
  0
LINE
  5
4EEE
  8
3
 10
55.7790288383244
 20
54.160696611117139
 30
0.0
 11
56.72602883832451
 21
52.520444496349441
 31
0.0
  0
LINE
  5
4EEF
  8
3
 10
45.673028838324498
 20
54.160696611117139
 30
0.0
 11
44.726028838324488
 21
52.520444496349441
 31
0.0
  0
LINE
  5
4EF0
  8
0
 10
56.72602883832451
 20
54.160696611117139
 30
0.0
 11
44.726028838324488
 21
54.160696611117139
 31
0.0
  0
LINE
  5
4EF1
  8
0
 10
44.726028838324488
 20
118.1606966111171
 30
0.0
 11
56.72602883832451
 21
118.1606966111171
 31
0.0
  0
LINE
  5
4EF2
  8
0
 10
54.726028838324503
 20
120.1606966111171
 30
0.0
 11
56.72602883832451
 21
118.1606966111171
 31
0.0
  0
LINE
  5
4EF3
  8
0
 10
46.72602883832451
 20
120.1606966111172
 30
0.0
 11
44.726028838324488
 21
118.1606966111172
 31
0.0
  0
LINE
  5
4EF4
  8
0
 10
44.726028838324488
 20
52.160696611117139
 30
0.0
 11
44.726028838324488
 21
63.160696611117153
 31
0.0
  0
LINE
  5
4EF5
  8
3
 10
45.673028838324498
 20
54.160696611117139
 30
0.0
 11
45.673028838324377
 21
63.160696611117153
 31
0.0
  0
LINE
  5
4EF6
  8
3
 10
55.7790288383245
 20
54.160696611117139
 30
0.0
 11
55.7790288383245
 21
63.160696611117153
 31
0.0
  0
LINE
  5
4EF7
  8
0
 10
56.72602883832451
 20
52.160696611117139
 30
0.0
 11
56.72602883832451
 21
63.160696611117153
 31
0.0
  0
LINE
  5
4EF8
  8
0
 10
46.72602883832451
 20
120.1606966111172
 30
0.0
 11
54.726028838324503
 21
120.1606966111171
 31
0.0
  0
LINE
  5
4EF9
  8
0
 10
39.756373723721602
 20
72.023515700491316
 30
0.0
 11
41.726028838323252
 21
73.160696611117146
 31
0.0
  0
ARC
  5
4EFA
  8
0
 10
42.498787502372238
 20
68.015958254513862
 30
0.0
 40
4.8560632220084567
 50
55.615752531983432
 51
115.6157525319127
  0
ARC
  5
4EFB
  8
0
 10
50.72602883832463
 20
54.72052725253684
 30
0.0
 40
18.15149422398537
 50
72.412046226036352
 51
107.5879537739636
  0
ARC
  5
4EFC
  8
0
 10
58.953270174277009
 20
68.015958254513862
 30
0.0
 40
4.8560632220084567
 50
64.384247468086485
 51
124.3842474680165
  0
LINE
  5
4EFD
  8
0
 10
61.695683952927638
 20
72.023515700491316
 30
0.0
 11
59.726028838326002
 21
73.160696611117146
 31
0.0
  0
LINE
  5
4EFE
  8
0
 10
41.726028838323252
 20
73.160696611117146
 30
0.0
 11
59.726028838326002
 21
73.160696611117146
 31
0.0
  0
LINE
  5
4EFF
  8
0
 10
41.726028838323252
 20
63.160696611117153
 30
0.0
 11
59.726028838326002
 21
63.160696611117153
 31
0.0
  0
LINE
  5
4F00
  8
0
 10
61.695683952927638
 20
64.297877521742976
 30
0.0
 11
59.726028838326002
 21
63.160696611117153
 31
0.0
  0
ARC
  5
4F01
  8
0
 10
58.953270174277009
 20
68.30543496772043
 30
0.0
 40
4.8560632220084567
 50
235.61575253198339
 51
295.61575253191347
  0
ARC
  5
4F02
  8
0
 10
50.72602883832463
 20
81.600865969697466
 30
0.0
 40
18.15149422398537
 50
252.41204622603641
 51
287.5879537739637
  0
ARC
  5
4F03
  8
0
 10
42.498787502372238
 20
68.30543496772043
 30
0.0
 40
4.8560632220084567
 50
244.3842474680873
 51
304.3842474680165
  0
LINE
  5
4F04
  8
0
 10
39.756373723721602
 20
64.297877521742976
 30
0.0
 11
41.726028838323252
 21
63.160696611117153
 31
0.0
  0
LINE
  5
4F05
  8
0
 10
39.756373723721602
 20
72.023515700491316
 30
0.0
 11
39.756373723721602
 21
64.297877521742862
 31
0.0
  0
LINE
  5
4F06
  8
0
 10
45.241201281027429
 20
72.023515700491316
 30
0.0
 11
45.241201281023329
 21
64.297877521742635
 31
0.0
  0
LINE
  5
4F07
  8
0
 10
61.695683952927638
 20
72.023515700491316
 30
0.0
 11
61.695683952927638
 21
64.297877521742862
 31
0.0
  0
LINE
  5
4F08
  8
0
 10
56.210856395621811
 20
72.023515700491316
 30
0.0
 11
56.210856395625903
 21
64.297877521742635
 31
0.0
  0
LINE
  5
4F09
  8
0
 10
56.72602883832451
 20
73.160696611117146
 30
0.0
 11
56.72602883832451
 21
118.1606966111171
 31
0.0
  0
LINE
  5
4F0A
  8
3
 10
55.7790288383245
 20
73.160696611117146
 30
0.0
 11
55.779028838324606
 21
119.10769661111701
 31
0.0
  0
LINE
  5
4F0B
  8
3
 10
45.673028838324377
 20
73.160696611117146
 30
0.0
 11
45.673028838324498
 21
119.10769661111721
 31
0.0
  0
LINE
  5
4F0C
  8
0
 10
44.726028838324488
 20
73.160696611117146
 30
0.0
 11
44.726028838324488
 21
118.1606966111172
 31
0.0
  0
LINE
  5
4F0D
  8
0
 10
164.45683082780371
 20
47.160696611116677
 30
0.0
 11
150.9952923662681
 21
47.160696611116677
 31
0.0
  0
LINE
  5
4F0E
  8
0
 10
150.99529236626651
 20
52.160696611116677
 30
0.0
 11
164.45683082780349
 21
52.160696611116677
 31
0.0
  0
ARC
  5
4F0F
  8
0
 10
163.78823942352659
 20
48.427104306234028
 30
0.0
 40
3.5781518477924039
 50
64.384247467827166
 51
124.38424746803869
  0
LINE
  5
4F10
  8
0
 10
165.80896536569051
 20
51.380041371687071
 30
0.0
 11
164.45683082780371
 21
52.160696611116677
 31
0.0
  0
LINE
  5
4F11
  8
0
 10
165.80896536569051
 20
47.941351850546198
 30
0.0
 11
164.45683082780371
 21
47.160696611116677
 31
0.0
  0
ARC
  5
4F12
  8
0
 10
163.78823942352659
 20
50.894288915999347
 30
0.0
 40
3.5781518477924039
 50
235.61575253196131
 51
295.61575253217279
  0
LINE
  5
4F13
  8
0
 10
165.80896536569051
 20
51.380041371687177
 30
0.0
 11
165.80896536569051
 21
47.941351850546198
 31
0.0
  0
LINE
  5
4F14
  8
0
 10
161.76751348136139
 20
51.380041371687632
 30
0.0
 11
161.76751348136321
 21
47.94135185054801
 31
0.0
  0
LINE
  5
4F15
  8
0
 10
153.6846097127102
 20
51.38004137168582
 30
0.0
 11
153.68460971270841
 21
47.94135185054801
 31
0.0
  0
LINE
  5
4F16
  8
0
 10
149.64315782838091
 20
51.380041371687071
 30
0.0
 11
149.64315782838091
 21
47.941351850546198
 31
0.0
  0
ARC
  5
4F17
  8
0
 10
157.7260615970367
 20
60.690922285860779
 30
0.0
 40
13.374785217653811
 50
252.4120462259952
 51
287.5879537740048
  0
ARC
  5
4F18
  8
0
 10
151.6638837705448
 20
50.894288915999347
 30
0.0
 40
3.5781518477924039
 50
244.38424746782721
 51
304.38424746803872
  0
LINE
  5
4F19
  8
0
 10
149.64315782838091
 20
47.941351850546198
 30
0.0
 11
150.9952923662679
 21
47.160696611116677
 31
0.0
  0
LINE
  5
4F1A
  8
0
 10
149.64315782838091
 20
51.380041371687071
 30
0.0
 11
150.9952923662679
 21
52.160696611116677
 31
0.0
  0
ARC
  5
4F1B
  8
0
 10
157.7260615970367
 20
38.63047093637261
 30
0.0
 40
13.374785217653811
 50
72.412046225995155
 51
107.5879537740048
  0
ARC
  5
4F1C
  8
0
 10
151.6638837705448
 20
48.427104306234028
 30
0.0
 40
3.5781518477924039
 50
55.615752531961313
 51
115.61575253217271
  0
LINE
  5
4F1D
  8
0
 10
152.22606159703579
 20
43.160696611116677
 30
0.0
 11
152.22606159703579
 21
47.160696611116677
 31
0.0
  0
LINE
  5
4F1E
  8
0
 10
163.22606159703579
 20
43.160696611116677
 30
0.0
 11
163.22606159703579
 21
47.160696611116677
 31
0.0
  0
LINE
  5
4F1F
  8
0
 10
167.22606159703579
 20
72.872021476522264
 30
0.0
 11
166.72606159703579
 21
73.160696611117146
 31
0.0
  0
ARC
  5
4F20
  8
0
 10
162.47606159703579
 20
59.152337586529143
 30
0.0
 40
13.719683889993171
 50
69.743841999613011
 51
110.256158000387
  0
LINE
  5
4F21
  8
0
 10
166.72606159703579
 20
63.160696611117153
 30
0.0
 11
167.22606159703579
 21
63.521168515437239
 31
0.0
  0
LINE
  5
4F22
  8
0
 10
167.22606159703579
 20
63.521168515437239
 30
0.0
 11
167.22606159703579
 21
72.872021476522264
 31
0.0
  0
ARC
  5
4F23
  8
0
 10
162.47606159703579
 20
77.169055635705163
 30
0.0
 40
13.719683889993171
 50
249.7438419996115
 51
290.25615800038707
  0
ARC
  5
4F24
  8
0
 10
152.97606159703579
 20
77.169055635705163
 30
0.0
 40
13.719683889993171
 50
249.7438419996115
 51
290.25615800038707
  0
LINE
  5
4F25
  8
0
 10
148.22606159703579
 20
63.521168515437239
 30
0.0
 11
148.22606159703579
 21
72.872021476522264
 31
0.0
  0
LINE
  5
4F26
  8
0
 10
148.72606159703579
 20
63.160696611117153
 30
0.0
 11
148.22606159703579
 21
63.521168515437239
 31
0.0
  0
ARC
  5
4F27
  8
0
 10
152.97606159703579
 20
59.152337586529143
 30
0.0
 40
13.719683889993171
 50
69.743841999613011
 51
110.256158000387
  0
LINE
  5
4F28
  8
0
 10
148.22606159703579
 20
72.872021476522264
 30
0.0
 11
148.72606159703579
 21
73.160696611117146
 31
0.0
  0
LINE
  5
4F29
  8
0
 10
148.72606159703579
 20
73.160696611117146
 30
0.0
 11
166.72606159703579
 21
73.160696611117146
 31
0.0
  0
LINE
  5
4F2A
  8
0
 10
166.72606159703579
 20
63.160696611117153
 30
0.0
 11
148.72606159703579
 21
63.160696611117153
 31
0.0
  0
LINE
  5
4F2B
  8
0
 10
157.72606159703261
 20
72.023515700491316
 30
0.0
 11
157.72606159703579
 21
64.297877521742976
 31
0.0
  0
LINE
  5
4F2C
  8
0
 10
153.72606159703579
 20
120.1606966111171
 30
0.0
 11
161.72606159703579
 21
120.160696611117
 31
0.0
  0
LINE
  5
4F2D
  8
0
 10
163.72606159703579
 20
52.160696611117032
 30
0.0
 11
163.72606159703579
 21
63.160696611117153
 31
0.0
  0
LINE
  5
4F2E
  8
3
 10
162.77906159703579
 20
54.160696611117032
 30
0.0
 11
162.77906159703579
 21
63.160696611117153
 31
0.0
  0
LINE
  5
4F2F
  8
0
 10
161.72606159703579
 20
120.160696611117
 30
0.0
 11
163.72606159703579
 21
118.160696611117
 31
0.0
  0
LINE
  5
4F30
  8
0
 10
151.72606159703579
 20
118.1606966111171
 30
0.0
 11
163.72606159703579
 21
118.160696611117
 31
0.0
  0
LINE
  5
4F31
  8
0
 10
163.72606159703579
 20
54.160696611117032
 30
0.0
 11
151.72606159703579
 21
54.160696611117032
 31
0.0
  0
LINE
  5
4F32
  8
3
 10
162.77906159703571
 20
54.160696611117032
 30
0.0
 11
163.72606159703579
 21
52.520444496349342
 31
0.0
  0
LINE
  5
4F33
  8
0
 10
151.72606159703579
 20
52.160696611117032
 30
0.0
 11
151.72606159703579
 21
63.160696611117153
 31
0.0
  0
LINE
  5
4F34
  8
3
 10
152.67306159703571
 20
54.160696611117032
 30
0.0
 11
152.6730615970358
 21
63.160696611117153
 31
0.0
  0
LINE
  5
4F35
  8
0
 10
153.72606159703579
 20
120.1606966111171
 30
0.0
 11
151.72606159703579
 21
118.1606966111171
 31
0.0
  0
LINE
  5
4F36
  8
3
 10
152.67306159703571
 20
54.160696611117032
 30
0.0
 11
151.72606159703579
 21
52.520444496349342
 31
0.0
  0
LINE
  5
4F37
  8
3
 10
152.6730615970358
 20
73.160696611117146
 30
0.0
 11
152.6730615970358
 21
119.10769661111701
 31
0.0
  0
LINE
  5
4F38
  8
0
 10
151.72606159703579
 20
73.160696611117146
 30
0.0
 11
151.72606159703579
 21
118.1606966111171
 31
0.0
  0
LINE
  5
4F39
  8
3
 10
162.77906159703591
 20
73.160696611117146
 30
0.0
 11
162.77906159703591
 21
119.10769661111701
 31
0.0
  0
LINE
  5
4F3A
  8
0
 10
163.72606159703579
 20
73.160696611117146
 30
0.0
 11
163.72606159703579
 21
118.160696611117
 31
0.0
  0
LINE
  5
4F3B
  8
0
 10
45.241201281023102
 20
176.93276633201631
 30
0.0
 11
56.21085639562579
 21
176.93276633201631
 31
0.0
  0
CIRCLE
  5
4F3C
  8
0
 10
50.72602883832451
 20
186.43276633201609
 30
0.0
 40
9.0
  0
CIRCLE
  5
4F3D
  8
0
 10
50.72602883832451
 20
186.43276633201609
 30
0.0
 40
6.0
  0
CIRCLE
  5
4F3E
  8
3
 10
50.72602883832451
 20
186.43276633201609
 30
0.0
 40
5.052999999999999
  0
LINE
  5
4F3F
  8
0
 10
56.21085639562579
 20
176.93276633201631
 30
0.0
 11
61.695683952927311
 21
186.43276633201609
 31
0.0
  0
LINE
  5
4F40
  8
0
 10
61.695683952927311
 20
186.43276633201609
 30
0.0
 11
56.21085639562601
 21
195.93276633201631
 31
0.0
  0
LINE
  5
4F41
  8
0
 10
56.21085639562601
 20
195.93276633201631
 30
0.0
 11
45.241201281023208
 21
195.93276633201631
 31
0.0
  0
LINE
  5
4F42
  8
0
 10
45.241201281023208
 20
195.93276633201631
 30
0.0
 11
39.756373723721602
 21
186.43276633201609
 31
0.0
  0
LINE
  5
4F43
  8
0
 10
39.756373723721602
 20
186.43276633201609
 30
0.0
 11
45.241201281023102
 21
176.93276633201631
 31
0.0
  0
TEXT
  5
52AE
  8
0
 62
     3
 10
0.0
 20
0.0
 30
0.0
 40
10.0
  1
LVAR70S12B
  7
STANDARD1
  0
ENDSEC
  0
EOF
