  0
SECTION
  2
HEADER
  9
$ACADVER
  1
AC1009
  9
$INSBASE
 10
0.0
 20
0.0
 30
0.0
  9
$EXTMIN
 10
0.0
 20
-2.960436562073669
 30
0.0
  9
$EXTMAX
 10
482.02268898838389
 20
489.64168350576853
 30
0.0
  9
$LIMMIN
 10
0.0
 20
0.0
  9
$LIMMAX
 10
375.0
 20
270.0
  9
$ORTHOMODE
 70
     0
  9
$REGENMODE
 70
     1
  9
$FILLMODE
 70
     1
  9
$QTEXTMODE
 70
     0
  9
$MIRRTEXT
 70
     0
  9
$DRAGMODE
 70
     2
  9
$LTSCALE
 40
6.0
  9
$OSMODE
 70
  3071
  9
$ATTMODE
 70
     1
  9
$TEXTSIZE
 40
0.2
  9
$TRACEWID
 40
0.05
  9
$TEXTSTYLE
  7
STANDARD
  9
$CLAYER
  8
0
  9
$CELTYPE
  6
BYLAYER
  9
$CECOLOR
 62
   256
  9
$DIMSCALE
 40
1.0
  9
$DIMASZ
 40
3.0
  9
$DIMEXO
 40
1.0
  9
$DIMDLI
 40
6.0
  9
$DIMRND
 40
0.0
  9
$DIMDLE
 40
0.0
  9
$DIMEXE
 40
1.0
  9
$DIMTP
 40
495.0
  9
$DIMTM
 40
0.0
  9
$DIMTXT
 40
3.0
  9
$DIMCEN
 40
0.0
  9
$DIMTSZ
 40
0.0
  9
$DIMTOL
 70
     0
  9
$DIMLIM
 70
     0
  9
$DIMTIH
 70
     0
  9
$DIMTOH
 70
     0
  9
$DIMSE1
 70
     0
  9
$DIMSE2
 70
     0
  9
$DIMTAD
 70
     1
  9
$DIMZIN
 70
     0
  9
$DIMBLK
  1

  9
$DIMASO
 70
     0
  9
$DIMSHO
 70
     0
  9
$DIMPOST
  1

  9
$DIMAPOST
  1

  9
$DIMALT
 70
     0
  9
$DIMALTD
 70
     2
  9
$DIMALTF
 40
25.399999999999999
  9
$DIMLFAC
 40
1.0
  9
$DIMTOFL
 70
     1
  9
$DIMTVP
 40
0.0
  9
$DIMTIX
 70
     1
  9
$DIMSOXD
 70
     0
  9
$DIMSAH
 70
     0
  9
$DIMBLK1
  1

  9
$DIMBLK2
  1

  9
$DIMSTYLE
  2
STANDARD
  9
$DIMCLRD
 70
     0
  9
$DIMCLRE
 70
     0
  9
$DIMCLRT
 70
     4
  9
$DIMTFAC
 40
1.0
  9
$DIMGAP
 40
1.0
  9
$LUNITS
 70
     2
  9
$LUPREC
 70
     4
  9
$SKETCHINC
 40
0.1
  9
$FILLETRAD
 40
2.0
  9
$AUNITS
 70
     0
  9
$AUPREC
 70
     0
  9
$MENU
  1
C:\R13\WIN\SUPPORT\ACAD-I
  9
$ELEVATION
 40
0.0
  9
$PELEVATION
 40
0.0
  9
$THICKNESS
 40
0.0
  9
$LIMCHECK
 70
     0
  9
$BLIPMODE
 70
     0
  9
$CHAMFERA
 40
0.0
  9
$CHAMFERB
 40
0.0
  9
$SKPOLY
 70
     0
  9
$TDCREATE
 40
2451963.4753060648
  9
$TDUPDATE
 40
2456597.613708206
  9
$TDINDWG
 40
0.0994802662
  9
$TDUSRTIMER
 40
2456556.181202291
  9
$USRTIMER
 70
     1
  9
$ANGBASE
 50
0.0
  9
$ANGDIR
 70
     0
  9
$PDMODE
 70
     0
  9
$PDSIZE
 40
0.0
  9
$PLINEWID
 40
0.0
  9
$COORDS
 70
     1
  9
$SPLFRAME
 70
     0
  9
$SPLINETYPE
 70
     6
  9
$SPLINESEGS
 70
     8
  9
$ATTDIA
 70
     0
  9
$ATTREQ
 70
     1
  9
$HANDLING
 70
     1
  9
$HANDSEED
  5
C6FC
  9
$SURFTAB1
 70
     6
  9
$SURFTAB2
 70
     6
  9
$SURFTYPE
 70
     6
  9
$SURFU
 70
     6
  9
$SURFV
 70
     6
  9
$UCSNAME
  2

  9
$UCSORG
 10
0.0
 20
0.0
 30
0.0
  9
$UCSXDIR
 10
1.0
 20
0.0
 30
0.0
  9
$UCSYDIR
 10
0.0
 20
1.0
 30
0.0
  9
$PUCSNAME
  2

  9
$PUCSORG
 10
0.0
 20
0.0
 30
0.0
  9
$PUCSXDIR
 10
1.0
 20
0.0
 30
0.0
  9
$PUCSYDIR
 10
0.0
 20
1.0
 30
0.0
  9
$USERI1
 70
     4
  9
$USERI2
 70
     1
  9
$USERI3
 70
     0
  9
$USERI4
 70
     0
  9
$USERI5
 70
     0
  9
$USERR1
 40
1.0
  9
$USERR2
 40
3.0
  9
$USERR3
 40
3.0
  9
$USERR4
 40
3.0
  9
$USERR5
 40
10.0
  9
$WORLDVIEW
 70
     1
  9
$SHADEDGE
 70
     3
  9
$SHADEDIF
 70
    70
  9
$TILEMODE
 70
     1
  9
$MAXACTVP
 70
    16
  9
$PLIMCHECK
 70
     0
  9
$PEXTMIN
 10
1.0000000000000000E+020
 20
1.0000000000000000E+020
 30
1.0000000000000000E+020
  9
$PEXTMAX
 10
-1.0000000000000000E+020
 20
-1.0000000000000000E+020
 30
-1.0000000000000000E+020
  9
$PLIMMIN
 10
0.0
 20
0.0
  9
$PLIMMAX
 10
12.0
 20
9.0
  9
$UNITMODE
 70
     0
  9
$VISRETAIN
 70
     0
  9
$PLINEGEN
 70
     0
  9
$PSLTSCALE
 70
     0
  0
ENDSEC
  0
SECTION
  2
TABLES
  0
TABLE
  2
VPORT
 70
     1
  0
VPORT
  2
*ACTIVE
 70
     0
 10
0.0
 20
0.0
 11
1.0
 21
1.0
 12
241.01134561648871
 22
244.4116858295761
 13
0.0
 23
0.0
 14
10.0
 24
10.0
 15
10.0
 25
10.0
 16
0.0
 26
0.0
 36
1.0
 17
0.0
 27
0.0
 37
0.0
 40
500.41794311775118
 41
2.304913294797688
 42
50.0
 43
0.0
 44
0.0
 50
0.0
 51
0.0
 71
    16
 72
   100
 73
     1
 74
     0
 75
     0
 76
     0
 77
     0
 78
     0
  0
ENDTAB
  0
TABLE
  2
LTYPE
 70
     3
  0
LTYPE
  2
CONTINUOUS
 70
     0
  3
Solid Line
 72
    65
 73
     0
 40
0.0
  0
LTYPE
  2
PHANTOM2
 70
     0
  3
___ _ _ ___ _ _ ___ _ _ ___ _ _
 72
    65
 73
     6
 40
1.25
 49
0.625
 49
-0.125
 49
0.125
 49
-0.125
 49
0.125
 49
-0.125
  0
LTYPE
  2
CENTER
 70
     0
  3
____ _ ____ _ ____ _ ____ _ ____ _ ____ _ ____
 72
    65
 73
     4
 40
2.0
 49
1.25
 49
-0.25
 49
0.25
 49
-0.25
  0
ENDTAB
  0
TABLE
  2
LAYER
 70
     4
  0
LAYER
  2
0
 70
     0
 62
     7
  6
CONTINUOUS
  0
LAYER
  2
1
 70
     0
 62
     1
  6
CENTER
  0
LAYER
  2
3
 70
     0
 62
     3
  6
CONTINUOUS
  0
LAYER
  2
DEFPOINTS
 70
     0
 62
     7
  6
CONTINUOUS
  0
ENDTAB
  0
TABLE
  2
STYLE
 70
     3
  0
STYLE
  2
STANDARD
 70
     0
 40
0.0
 41
1.0
 50
0.0
 71
     0
 42
0.2
  3
SIMPLEX
  4
BIGFONT
  0
STYLE
  2
ANNOTATIVE
 70
     0
 40
0.0
 41
1.0
 50
0.0
 71
     0
 42
0.2
  3
txt
  4

  0
STYLE
  2
STANDARD1
 70
     0
 40
0.0
 41
1.0
 50
0.0
 71
     0
 42
3.0
  3
txt
  4

  0
ENDTAB
  0
TABLE
  2
VIEW
 70
     0
  0
ENDTAB
  0
TABLE
  2
UCS
 70
     0
  0
ENDTAB
  0
TABLE
  2
APPID
 70
    30
  0
APPID
  2
ACAD
 70
     0
  0
APPID
  2
ACADANNOTATIVE
 70
     0
  0
APPID
  2
GENIUS_GENOREF_13
 70
     0
  0
APPID
  2
GENIUS_GENOENT_13
 70
     0
  0
APPID
  2
GENIUS_GENBH_13
 70
     0
  0
APPID
  2
GENIUS_GENOBJ_13
 70
     0
  0
APPID
  2
GENIUS_GENODEF_13
 70
     0
  0
APPID
  2
GENIUS_GENOLIS_13
 70
     0
  0
APPID
  2
GENIUS_GENOBJ-NBEHI-BHF_13
 70
     0
  0
APPID
  2
GENIUS_GENOBJ-NBEHI-BHB_13
 70
     0
  0
APPID
  2
GENIUS_GENOBJ-F-PART_13
 70
     0
  0
APPID
  2
GENIUS_GEFSTDP_13
 70
     0
  0
APPID
  2
GENIUS_GENOBJ-N-RSSYM_13
 70
     0
  0
APPID
  2
GENIUS_GENSYMENT_13
 70
     0
  0
APPID
  2
GENIUS_GENOBJ-N-TIT_13
 70
     0
  0
APPID
  2
GENIUS_GENTITLE_13
 70
     0
  0
APPID
  2
GENIUS_GENZVEED_13
 70
     0
  0
APPID
  2
GENIUS_GENOBJ-N-LEADER_13
 70
     0
  0
APPID
  2
GENIUS_GENOBJ-N-FIL_13
 70
     0
  0
APPID
  2
GENIUS_GENOBJ-N-SEC_13
 70
     0
  0
APPID
  2
GENIUS_GENOBJ-N-CRS_13
 70
     0
  0
APPID
  2
GENIUS_GENOBJ-N-ZOO_13
 70
     0
  0
APPID
  2
GENIUS_GENZOO_13
 70
     0
  0
APPID
  2
GENIUS_GENOBJ-F-TOL_13
 70
     0
  0
APPID
  2
GENIUS_GENFIL_13
 70
     0
  0
APPID
  2
GENIUS_GENOBJ-N-CHA_13
 70
     0
  0
APPID
  2
_CALL_MAC$
 70
     0
  0
APPID
  2
ACAD_EXEMPT_FROM_CAD_STANDARDS
 70
     0
  0
APPID
  2
ACAD_MLEADERVER
 70
     0
  0
APPID
  2
ACAD_NAV_VCDISPLAY
 70
     0
  0
ENDTAB
  0
TABLE
  2
DIMSTYLE
 70
     2
  0
DIMSTYLE
  2
STANDARD
 70
     0
  3

  4

  5

  6

  7

 40
1.0
 41
0.18
 42
0.0625
 43
0.38
 44
0.18
 45
0.0
 46
0.0
 47
0.0
 48
0.0
140
0.18
141
0.09
142
0.0
143
25.399999999999999
144
1.0
145
0.0
146
1.0
147
0.09
 71
     0
 72
     0
 73
     1
 74
     1
 75
     0
 76
     0
 77
     0
 78
     0
170
     0
171
     2
172
     0
173
     0
174
     0
175
     0
176
     0
177
     0
178
     0
  0
DIMSTYLE
  2
ANNOTATIVE
 70
     0
  3

  4

  5

  6

  7

 40
1.0
 41
0.18
 42
0.0625
 43
0.38
 44
0.18
 45
0.0
 46
0.0
 47
0.0
 48
0.0
140
0.18
141
0.09
142
0.0
143
25.399999999999999
144
1.0
145
0.0
146
1.0
147
0.09
 71
     0
 72
     0
 73
     1
 74
     1
 75
     0
 76
     0
 77
     0
 78
     0
170
     0
171
     2
172
     0
173
     0
174
     0
175
     0
176
     0
177
     0
178
     0
  0
ENDTAB
  0
ENDSEC
  0
SECTION
  2
BLOCKS
  0
BLOCK
  8
0
  2
$MODEL_SPACE
 70
     0
 10
0.0
 20
0.0
 30
0.0
  3
$MODEL_SPACE
  1

  0
ENDBLK
  5
C61D
  8
0
  0
BLOCK
 67
     1
  8
0
  2
$PAPER_SPACE
 70
     0
 10
0.0
 20
0.0
 30
0.0
  3
$PAPER_SPACE
  1

  0
ENDBLK
  5
C619
 67
     1
  8
0
  0
ENDSEC
  0
SECTION
  2
ENTITIES
  0
LINE
  5
C18B
  8
1
 10
419.52268898838389
 20
297.15549191850272
 30
0.0
 11
419.52268898838372
 21
17.155491918502658
 31
0.0
  0
LINE
  5
C18C
  8
1
 10
212.10110580385989
 20
297.15549191850272
 30
0.0
 11
212.10110580385989
 21
17.155491918502658
 31
0.0
  0
LINE
  5
C18D
  8
0
 10
224.10110580385989
 20
84.155491918502648
 30
0.0
 11
224.10110580385989
 21
89.155491918525868
 31
0.0
  0
LINE
  5
C18E
  8
0
 10
200.10110580385989
 20
84.155491918502776
 30
0.0
 11
200.10110580385989
 21
89.155491918525755
 31
0.0
  0
LINE
  5
C18F
  8
0
 10
194.60110580385981
 20
82.155491918502662
 30
0.0
 11
196.60110580385981
 21
84.155491918502648
 31
0.0
  0
LINE
  5
C190
  8
0
 10
229.60110580385989
 20
82.155491918502662
 30
0.0
 11
227.60110580385989
 21
84.155491918502648
 31
0.0
  0
LINE
  5
C191
  8
0
 10
227.60110580385989
 20
84.155491918502648
 30
0.0
 11
196.60110580385981
 21
84.155491918502648
 31
0.0
  0
LINE
  5
C192
  8
0
 10
274.60110580385992
 20
37.155491918502662
 30
0.0
 11
274.6011058038597
 21
27.155491918502658
 31
0.0
  0
LINE
  5
C193
  8
0
 10
149.60110580385989
 20
37.155491918502783
 30
0.0
 11
149.60110580385989
 21
27.155491918502779
 31
0.0
  0
LINE
  5
C194
  8
0
 10
274.6011058038597
 20
27.155491918502658
 30
0.0
 11
149.60110580385989
 21
27.155491918502779
 31
0.0
  0
LINE
  5
C195
  8
0
 10
149.60110580385989
 20
37.155491918502783
 30
0.0
 11
149.60110580385981
 21
52.274698007547848
 31
0.0
  0
LINE
  5
C196
  8
DEFPOINTS
 10
191.10110580385981
 20
82.155491918502662
 30
0.0
 11
177.10110580385981
 21
60.155491918502648
 31
0.0
  0
LINE
  5
C197
  8
DEFPOINTS
 10
177.10110580385981
 20
60.155491918502648
 30
0.0
 11
171.35442652322499
 21
58.692700828886473
 31
0.0
  0
LINE
  5
C198
  8
DEFPOINTS
 10
156.60110580385989
 20
54.046401009411753
 30
0.0
 11
156.60110580385989
 21
54.056516189365979
 31
0.0
  0
LINE
  5
C199
  8
DEFPOINTS
 10
163.60110580385989
 20
55.828219191229877
 30
0.0
 11
163.60110580385989
 21
55.838334371184139
 31
0.0
  0
LINE
  5
C19A
  8
DEFPOINTS
 10
170.60110580385989
 20
57.610037373048151
 30
0.0
 11
170.60110580385989
 21
57.72360365496354
 31
0.0
  0
LINE
  5
C19B
  8
DEFPOINTS
 10
150.47485152418579
 20
53.266695919271463
 30
0.0
 11
156.60110580385989
 21
54.046401009411753
 31
0.0
  0
LINE
  5
C19C
  8
DEFPOINTS
 10
157.47485152418591
 20
55.048514101089609
 30
0.0
 11
163.60110580385989
 21
55.828219191229877
 31
0.0
  0
LINE
  5
C19D
  8
DEFPOINTS
 10
164.47485152418591
 20
56.830332282907762
 30
0.0
 11
170.60110580385989
 21
57.610037373048151
 31
0.0
  0
ARC
  5
C19E
  8
DEFPOINTS
 10
171.60110580385989
 20
57.72360365496354
 30
0.0
 40
1.0
 50
104.28109573597089
 51
180.0
  0
ARC
  5
C19F
  8
DEFPOINTS
 10
164.60110580385989
 20
55.838334371184139
 30
0.0
 40
1.0
 50
97.253194612725267
 51
180.0
  0
ARC
  5
C1A0
  8
DEFPOINTS
 10
157.60110580385989
 20
54.056516189365979
 30
0.0
 40
1.0
 50
97.253194612725352
 51
179.99999999999821
  0
ARC
  5
C1A1
  8
DEFPOINTS
 10
150.60110580385981
 20
52.274698007547848
 30
0.0
 40
1.0
 50
97.253194612725352
 51
180.0000000000004
  0
LINE
  5
C1A2
  8
DEFPOINTS
 10
247.1011058038597
 20
60.155491918502648
 30
0.0
 11
177.10110580386009
 21
60.155491918502769
 31
0.0
  0
LINE
  5
C1A3
  8
DEFPOINTS
 10
253.6011058038597
 20
57.610037373048151
 30
0.0
 11
170.60110580386061
 21
57.610037373048151
 31
0.0
  0
LINE
  5
C1A4
  8
DEFPOINTS
 10
260.6011058038597
 20
55.828219191229877
 30
0.0
 11
163.60110580386069
 21
55.828219191229998
 31
0.0
  0
LINE
  5
C1A5
  8
DEFPOINTS
 10
267.6011058038597
 20
54.046401009411753
 30
0.0
 11
156.6011058038608
 21
54.046401009411852
 31
0.0
  0
ARC
  5
C1A6
  8
DEFPOINTS
 10
273.60110580385992
 20
52.274698007547848
 30
0.0
 40
1.0
 50
359.9999999999996
 51
82.746805387274634
  0
ARC
  5
C1A7
  8
DEFPOINTS
 10
266.6011058038597
 20
54.056516189365979
 30
0.0
 40
1.0
 50
0.000000000001832
 51
82.746805387274634
  0
ARC
  5
C1A8
  8
DEFPOINTS
 10
259.6011058038597
 20
55.838334371184139
 30
0.0
 40
1.0
 50
0.0
 51
82.746805387274748
  0
ARC
  5
C1A9
  8
DEFPOINTS
 10
252.6011058038597
 20
57.72360365496354
 30
0.0
 40
1.0
 50
0.0
 51
75.718904264029092
  0
LINE
  5
C1AA
  8
DEFPOINTS
 10
259.7273600835336
 20
56.830332282907762
 30
0.0
 11
253.6011058038597
 21
57.610037373048151
 31
0.0
  0
LINE
  5
C1AB
  8
DEFPOINTS
 10
266.7273600835336
 20
55.048514101089609
 30
0.0
 11
260.6011058038597
 21
55.828219191229877
 31
0.0
  0
LINE
  5
C1AC
  8
DEFPOINTS
 10
273.72736008353388
 20
53.266695919271463
 30
0.0
 11
267.6011058038597
 21
54.046401009411753
 31
0.0
  0
LINE
  5
C1AD
  8
DEFPOINTS
 10
253.6011058038597
 20
57.610037373048151
 30
0.0
 11
253.6011058038597
 21
57.72360365496354
 31
0.0
  0
LINE
  5
C1AE
  8
DEFPOINTS
 10
260.6011058038597
 20
55.828219191229877
 30
0.0
 11
260.6011058038597
 21
55.838334371184139
 31
0.0
  0
LINE
  5
C1AF
  8
DEFPOINTS
 10
267.6011058038597
 20
54.046401009411753
 30
0.0
 11
267.6011058038597
 21
54.056516189365979
 31
0.0
  0
LINE
  5
C1B0
  8
DEFPOINTS
 10
247.1011058038597
 20
60.155491918502648
 30
0.0
 11
252.8477850844946
 21
58.692700828886473
 31
0.0
  0
LINE
  5
C1B1
  8
DEFPOINTS
 10
233.10110580385981
 20
82.155491918502662
 30
0.0
 11
247.1011058038597
 21
60.155491918502648
 31
0.0
  0
LINE
  5
C1B2
  8
0
 10
233.10110580385981
 20
82.155491918502662
 30
0.0
 11
191.10110580385981
 21
82.155491918502662
 31
0.0
  0
LINE
  5
C1B3
  8
0
 10
274.60110580385992
 20
37.155491918502662
 30
0.0
 11
274.60110580385992
 21
52.274698007547848
 31
0.0
  0
LINE
  5
C1B4
  8
0
 10
274.6011058038597
 20
37.155491918502662
 30
0.0
 11
149.60110580385989
 21
37.155491918502783
 31
0.0
  0
LINE
  5
C1B5
  8
3
 10
225.2066058038599
 20
106.1554919185027
 30
0.0
 11
227.10110580385989
 21
102.8741216635634
 31
0.0
  0
LINE
  5
C1B6
  8
3
 10
198.9956058038598
 20
106.1554919185027
 30
0.0
 11
197.10110580385981
 21
102.8741216635634
 31
0.0
  0
LINE
  5
C1B7
  8
0
 10
197.10110580385981
 20
106.1554919185027
 30
0.0
 11
227.10110580385989
 21
106.1554919185027
 31
0.0
  0
LINE
  5
C1B8
  8
0
 10
227.10110580385989
 20
283.65549191850272
 30
0.0
 11
223.60110580385989
 21
287.15549191850261
 31
0.0
  0
LINE
  5
C1B9
  8
0
 10
197.10110580385981
 20
283.65549191850272
 30
0.0
 11
227.10110580385989
 21
283.65549191850272
 31
0.0
  0
LINE
  5
C1BA
  8
0
 10
197.10110580385981
 20
283.65549191850272
 30
0.0
 11
200.60110580385989
 21
287.15549191850261
 31
0.0
  0
LINE
  5
C1BB
  8
0
 10
197.10110580385981
 20
100.866816783907
 30
0.0
 11
197.10110580385981
 21
121.15549191850251
 31
0.0
  0
LINE
  5
C1BC
  8
3
 10
198.9956058038598
 20
106.1554919185027
 30
0.0
 11
198.9956058038598
 21
121.15549191850251
 31
0.0
  0
LINE
  5
C1BD
  8
3
 10
225.2066058038599
 20
106.15549191850261
 30
0.0
 11
225.2066058038599
 21
121.15549191850251
 31
0.0
  0
LINE
  5
C1BE
  8
0
 10
227.10110580385989
 20
100.866816783907
 30
0.0
 11
227.10110580385989
 21
121.15549191850251
 31
0.0
  0
LINE
  5
C1BF
  8
0
 10
200.60110580385989
 20
287.15549191850261
 30
0.0
 11
223.60110580385989
 21
287.15549191850261
 31
0.0
  0
LINE
  5
C1C2
  8
0
 10
197.10110580385981
 20
145.15549191850241
 30
0.0
 11
197.10110580385981
 21
283.65549191850272
 31
0.0
  0
LINE
  5
C1C3
  8
3
 10
198.9956058038598
 20
145.15549191850241
 30
0.0
 11
198.9956058038598
 21
285.54999191850249
 31
0.0
  0
LINE
  5
C1C4
  8
0
 10
227.10110580385989
 20
145.15549191850241
 30
0.0
 11
227.10110580385989
 21
283.65549191850272
 31
0.0
  0
LINE
  5
C1C5
  8
3
 10
225.2066058038599
 20
145.15549191850241
 30
0.0
 11
225.2066058038599
 21
285.54999191850249
 31
0.0
  0
LINE
  5
C1C6
  8
0
 10
404.52268898838389
 20
106.15549191850261
 30
0.0
 11
434.52268898838389
 21
106.15549191850261
 31
0.0
  0
LINE
  5
C1C7
  8
3
 10
406.417188988384
 20
106.15549191850261
 30
0.0
 11
404.52268898838389
 21
102.8741216635633
 31
0.0
  0
LINE
  5
C1C8
  8
3
 10
432.62818898838412
 20
106.15549191850261
 30
0.0
 11
434.52268898838389
 21
102.8741216635633
 31
0.0
  0
LINE
  5
C1C9
  8
0
 10
482.02268898838389
 20
37.155491918502548
 30
0.0
 11
357.02268898838389
 21
37.155491918502662
 31
0.0
  0
LINE
  5
C1CA
  8
0
 10
482.02268898838389
 20
37.155491918502548
 30
0.0
 11
482.02268898838389
 21
52.274698007547713
 31
0.0
  0
LINE
  5
C1CB
  8
0
 10
440.52268898838389
 20
82.155491918502548
 30
0.0
 11
398.52268898838389
 21
82.155491918502548
 31
0.0
  0
LINE
  5
C1CC
  8
DEFPOINTS
 10
440.52268898838389
 20
82.155491918502548
 30
0.0
 11
454.52268898838389
 21
60.155491918502541
 31
0.0
  0
LINE
  5
C1CD
  8
DEFPOINTS
 10
454.52268898838389
 20
60.155491918502541
 30
0.0
 11
460.2693682690188
 21
58.692700828886359
 31
0.0
  0
LINE
  5
C1CE
  8
DEFPOINTS
 10
475.022688988384
 20
54.046401009411611
 30
0.0
 11
475.022688988384
 21
54.056516189365873
 31
0.0
  0
LINE
  5
C1CF
  8
DEFPOINTS
 10
468.02268898838389
 20
55.828219191229771
 30
0.0
 11
468.02268898838389
 21
55.838334371184033
 31
0.0
  0
LINE
  5
C1D0
  8
DEFPOINTS
 10
461.02268898838389
 20
57.610037373048037
 30
0.0
 11
461.02268898838389
 21
57.723603654963433
 31
0.0
  0
LINE
  5
C1D1
  8
DEFPOINTS
 10
481.14894326805802
 20
53.266695919271342
 30
0.0
 11
475.022688988384
 21
54.046401009411611
 31
0.0
  0
LINE
  5
C1D2
  8
DEFPOINTS
 10
474.14894326805779
 20
55.048514101089488
 30
0.0
 11
468.02268898838389
 21
55.828219191229771
 31
0.0
  0
LINE
  5
C1D3
  8
DEFPOINTS
 10
467.14894326805791
 20
56.830332282907641
 30
0.0
 11
461.02268898838389
 21
57.610037373048037
 31
0.0
  0
ARC
  5
C1D4
  8
DEFPOINTS
 10
460.02268898838389
 20
57.723603654963433
 30
0.0
 40
1.0
 50
0.0
 51
75.718904264029092
  0
ARC
  5
C1D5
  8
DEFPOINTS
 10
467.02268898838389
 20
55.838334371184033
 30
0.0
 40
1.0
 50
0.0
 51
82.746805387274748
  0
ARC
  5
C1D6
  8
DEFPOINTS
 10
474.02268898838389
 20
54.056516189365873
 30
0.0
 40
1.0
 50
0.000000000001832
 51
82.746805387274634
  0
ARC
  5
C1D7
  8
DEFPOINTS
 10
481.02268898838389
 20
52.274698007547713
 30
0.0
 40
1.0
 50
359.9999999999996
 51
82.746805387274634
  0
LINE
  5
C1D8
  8
DEFPOINTS
 10
475.022688988384
 20
54.046401009411611
 30
0.0
 11
364.02268898838491
 21
54.046401009411753
 31
0.0
  0
LINE
  5
C1D9
  8
DEFPOINTS
 10
468.02268898838389
 20
55.828219191229771
 30
0.0
 11
371.02268898838491
 21
55.828219191229877
 31
0.0
  0
LINE
  5
C1DA
  8
DEFPOINTS
 10
461.02268898838389
 20
57.610037373048037
 30
0.0
 11
378.02268898838457
 21
57.610037373048037
 31
0.0
  0
LINE
  5
C1DB
  8
DEFPOINTS
 10
454.52268898838389
 20
60.155491918502541
 30
0.0
 11
384.52268898838417
 21
60.155491918502648
 31
0.0
  0
ARC
  5
C1DC
  8
DEFPOINTS
 10
358.022688988384
 20
52.274698007547713
 30
0.0
 40
1.0
 50
97.253194612725352
 51
180.0000000000004
  0
ARC
  5
C1DD
  8
DEFPOINTS
 10
365.02268898838389
 20
54.056516189365873
 30
0.0
 40
1.0
 50
97.253194612725352
 51
179.99999999999821
  0
ARC
  5
C1DE
  8
DEFPOINTS
 10
372.022688988384
 20
55.838334371184033
 30
0.0
 40
1.0
 50
97.253194612725267
 51
180.0
  0
ARC
  5
C1DF
  8
DEFPOINTS
 10
379.022688988384
 20
57.723603654963433
 30
0.0
 40
1.0
 50
104.28109573597089
 51
180.0
  0
LINE
  5
C1E0
  8
DEFPOINTS
 10
371.89643470870999
 20
56.830332282907641
 30
0.0
 11
378.02268898838389
 21
57.610037373048037
 31
0.0
  0
LINE
  5
C1E1
  8
DEFPOINTS
 10
364.8964347087101
 20
55.048514101089488
 30
0.0
 11
371.02268898838389
 21
55.828219191229771
 31
0.0
  0
LINE
  5
C1E2
  8
DEFPOINTS
 10
357.89643470870999
 20
53.266695919271342
 30
0.0
 11
364.022688988384
 21
54.046401009411611
 31
0.0
  0
LINE
  5
C1E3
  8
DEFPOINTS
 10
378.02268898838389
 20
57.610037373048037
 30
0.0
 11
378.02268898838389
 21
57.723603654963433
 31
0.0
  0
LINE
  5
C1E4
  8
DEFPOINTS
 10
371.02268898838389
 20
55.828219191229771
 30
0.0
 11
371.02268898838389
 21
55.838334371184033
 31
0.0
  0
LINE
  5
C1E5
  8
DEFPOINTS
 10
364.022688988384
 20
54.046401009411611
 30
0.0
 11
364.022688988384
 21
54.056516189365873
 31
0.0
  0
LINE
  5
C1E6
  8
DEFPOINTS
 10
384.522688988384
 20
60.155491918502541
 30
0.0
 11
378.77600970774893
 21
58.692700828886359
 31
0.0
  0
LINE
  5
C1E7
  8
DEFPOINTS
 10
398.52268898838389
 20
82.155491918502548
 30
0.0
 11
384.522688988384
 21
60.155491918502541
 31
0.0
  0
LINE
  5
C1E8
  8
0
 10
357.02268898838389
 20
37.155491918502662
 30
0.0
 11
357.02268898838389
 21
52.274698007547713
 31
0.0
  0
LINE
  5
C1E9
  8
0
 10
482.02268898838389
 20
27.155491918502548
 30
0.0
 11
357.02268898838389
 21
27.155491918502658
 31
0.0
  0
LINE
  5
C1EA
  8
0
 10
357.02268898838389
 20
37.155491918502662
 30
0.0
 11
357.02268898838389
 21
27.155491918502658
 31
0.0
  0
LINE
  5
C1EB
  8
0
 10
482.02268898838389
 20
37.155491918502548
 30
0.0
 11
482.02268898838389
 21
27.155491918502548
 31
0.0
  0
LINE
  5
C1EC
  8
0
 10
435.02268898838389
 20
84.155491918502562
 30
0.0
 11
404.02268898838389
 21
84.155491918502562
 31
0.0
  0
LINE
  5
C1ED
  8
0
 10
437.02268898838389
 20
82.155491918502548
 30
0.0
 11
435.02268898838389
 21
84.155491918502562
 31
0.0
  0
LINE
  5
C1EE
  8
0
 10
402.02268898838389
 20
82.155491918502548
 30
0.0
 11
404.02268898838389
 21
84.155491918502562
 31
0.0
  0
LINE
  5
C1EF
  8
0
 10
407.52268898838389
 20
84.155491918502648
 30
0.0
 11
407.52268898838412
 21
89.15549191852493
 31
0.0
  0
LINE
  5
C1F0
  8
0
 10
431.52268898838389
 20
84.155491918502562
 30
0.0
 11
431.52268898838389
 21
89.155491918525271
 31
0.0
  0
LINE
  5
C1F1
  8
0
 10
408.02268898838389
 20
287.15549191850238
 30
0.0
 11
431.02268898838389
 21
287.15549191850238
 31
0.0
  0
LINE
  5
C1F2
  8
0
 10
404.52268898838389
 20
283.65549191850238
 30
0.0
 11
408.02268898838389
 21
287.15549191850238
 31
0.0
  0
LINE
  5
C1F3
  8
0
 10
404.52268898838389
 20
283.65549191850238
 30
0.0
 11
434.52268898838389
 21
283.65549191850238
 31
0.0
  0
LINE
  5
C1F4
  8
0
 10
434.52268898838389
 20
283.65549191850238
 30
0.0
 11
431.02268898838389
 21
287.15549191850238
 31
0.0
  0
LINE
  5
C1F5
  8
3
 10
432.62818898838373
 20
145.15549191850241
 30
0.0
 11
432.62818898838412
 21
285.54999191850231
 31
0.0
  0
LINE
  5
C1F6
  8
0
 10
434.52268898838389
 20
145.15549191850261
 30
0.0
 11
434.52268898838389
 21
283.65549191850238
 31
0.0
  0
LINE
  5
C1F7
  8
3
 10
406.417188988384
 20
145.15549191850241
 30
0.0
 11
406.417188988384
 21
285.54999191850231
 31
0.0
  0
LINE
  5
C1F8
  8
0
 10
404.52268898838389
 20
145.15549191850261
 30
0.0
 11
404.52268898838389
 21
283.65549191850238
 31
0.0
  0
LINE
  5
C1F9
  8
0
 10
434.52268898838389
 20
100.86681678390759
 30
0.0
 11
434.52268898838389
 21
121.15549191850241
 31
0.0
  0
LINE
  5
C1FA
  8
3
 10
432.62818898838412
 20
106.15549191850251
 30
0.0
 11
432.62818898838373
 21
121.15549191850241
 31
0.0
  0
LINE
  5
C1FB
  8
3
 10
406.417188988384
 20
106.15549191850261
 30
0.0
 11
406.417188988384
 21
121.15549191850241
 31
0.0
  0
LINE
  5
C1FC
  8
0
 10
404.52268898838389
 20
100.86681678390801
 30
0.0
 11
404.52268898838389
 21
121.15549191850241
 31
0.0
  0
LINE
  5
C1FD
  8
0
 10
434.02268898838389
 20
89.155491918525271
 30
0.0
 11
405.02268898838332
 21
89.15549191852493
 31
0.0
  0
LINE
  5
C1FE
  8
0
 10
405.02268898838332
 20
101.15549191850261
 30
0.0
 11
434.02268898838412
 21
101.15549191850219
 31
0.0
  0
LINE
  5
C1FF
  8
0
 10
434.02268898838332
 20
101.15549191850261
 30
0.0
 11
436.843197064072
 21
99.527070821752318
 31
0.0
  0
ARC
  5
C200
  8
0
 10
432.51307004514962
 20
93.199348538631398
 30
0.0
 40
7.6674682452751766
 50
64.384247470458007
 51
124.38424746800619
  0
ARC
  5
C201
  8
0
 10
432.51307004514962
 20
93.199348538631398
 30
0.0
 40
7.6674682452751766
 50
55.615752531993778
 51
55.615752531993778
  0
ARC
  5
C202
  8
0
 10
432.51307004514962
 20
97.111635298396209
 30
0.0
 40
7.6674682452751766
 50
304.38424746800621
 51
304.38424746800621
  0
ARC
  5
C203
  8
0
 10
432.51307004514962
 20
97.111635298396209
 30
0.0
 40
7.6674682452751766
 50
235.61575253199379
 51
295.61575252954202
  0
LINE
  5
C204
  8
0
 10
434.02268898838332
 20
89.15549191852493
 30
0.0
 11
436.843197064072
 21
90.783913015275289
 31
0.0
  0
LINE
  5
C205
  8
0
 10
436.84319706407189
 20
99.527070821752204
 30
0.0
 11
436.84319706435559
 21
90.783913015438998
 31
0.0
  0
LINE
  5
C206
  8
0
 10
428.18294302622758
 20
90.783913015298708
 30
0.0
 11
428.1829430260737
 21
99.527070821752204
 31
0.0
  0
ARC
  5
C207
  8
0
 10
419.52268898845682
 20
118.1044210905135
 30
0.0
 40
28.660254037392811
 50
252.41204622557089
 51
287.58795377412838
  0
LINE
  5
C208
  8
0
 10
410.8624349505393
 20
90.783913015298708
 30
0.0
 11
410.86243495069323
 21
99.527070821752204
 31
0.0
  0
LINE
  5
C209
  8
0
 10
402.20218091269493
 20
99.527070821752204
 30
0.0
 11
402.20218091241128
 21
90.783913015438998
 31
0.0
  0
LINE
  5
C20A
  8
0
 10
405.02268898838332
 20
89.15549191852493
 30
0.0
 11
402.20218091269493
 21
90.783913015275289
 31
0.0
  0
ARC
  5
C20B
  8
0
 10
406.5323079316172
 20
97.111635298396209
 30
0.0
 40
7.6674682452751766
 50
244.38424747045789
 51
304.38424746800621
  0
ARC
  5
C20C
  8
0
 10
406.5323079316172
 20
97.111635298396209
 30
0.0
 40
7.6674682452751766
 50
235.61575253199379
 51
235.61575253199379
  0
ARC
  5
C20D
  8
0
 10
419.52268898845682
 20
72.206562746513896
 30
0.0
 40
28.660254037392811
 50
72.412046225871634
 51
107.5879537744291
  0
ARC
  5
C20E
  8
0
 10
406.5323079316172
 20
93.199348538631398
 30
0.0
 40
7.6674682452751766
 50
124.38424746800619
 51
124.38424746800619
  0
ARC
  5
C20F
  8
0
 10
406.5323079316172
 20
93.199348538631398
 30
0.0
 40
7.6674682452751766
 50
55.615752531993778
 51
115.61575252954189
  0
LINE
  5
C210
  8
0
 10
405.02268898838332
 20
101.15549191850261
 30
0.0
 11
402.20218091269493
 21
99.527070821752318
 31
0.0
  0
LINE
  5
C211
  8
0
 10
212.10110580385989
 20
99.527070821752645
 30
0.0
 11
212.10110580385989
 21
90.783913015270954
 31
0.0
  0
LINE
  5
C212
  8
0
 10
226.60110580385989
 20
89.155491918525755
 30
0.0
 11
197.6011058038614
 21
89.155491918525755
 31
0.0
  0
LINE
  5
C213
  8
0
 10
197.6011058038614
 20
101.15549191850261
 30
0.0
 11
226.6011058038583
 21
101.15549191850261
 31
0.0
  0
ARC
  5
C214
  8
0
 10
204.60110580385989
 20
79.204158010238757
 30
0.0
 40
21.662658773668529
 50
69.743841999599269
 51
110.2561580004007
  0
LINE
  5
C215
  8
0
 10
197.6011058038614
 20
101.15549191850261
 30
0.0
 11
197.10110580386009
 21
100.8668167839072
 31
0.0
  0
LINE
  5
C216
  8
0
 10
197.6011058038614
 20
89.155491918525755
 30
0.0
 11
197.10110580386009
 21
89.444167053121305
 31
0.0
  0
ARC
  5
C217
  8
0
 10
204.60110580385989
 20
111.1068258267896
 30
0.0
 40
21.662658773668529
 50
249.7438419995992
 51
290.2561580004006
  0
LINE
  5
C218
  8
0
 10
197.10110580385981
 20
100.8668167839072
 30
0.0
 11
197.10110580386009
 21
89.444167053121205
 31
0.0
  0
LINE
  5
C219
  8
0
 10
227.10110580385989
 20
100.8668167839072
 30
0.0
 11
227.1011058038597
 21
89.444167053121205
 31
0.0
  0
ARC
  5
C21A
  8
0
 10
219.60110580385989
 20
111.1068258267896
 30
0.0
 40
21.662658773668529
 50
249.7438419995992
 51
290.2561580004006
  0
LINE
  5
C21B
  8
0
 10
226.6011058038583
 20
89.155491918525755
 30
0.0
 11
227.1011058038597
 21
89.444167053121305
 31
0.0
  0
LINE
  5
C21C
  8
0
 10
226.6011058038583
 20
101.15549191850261
 30
0.0
 11
227.1011058038597
 21
100.8668167839072
 31
0.0
  0
ARC
  5
C21D
  8
0
 10
219.60110580385989
 20
79.204158010238757
 30
0.0
 40
21.662658773668529
 50
69.743841999599269
 51
110.2561580004007
  0
LINE
  5
C21F
  8
1
 10
284.6011058038597
 20
417.14168350576853
 30
0.0
 11
139.60110580385989
 21
417.14168350576853
 31
0.0
  0
LINE
  5
C220
  8
1
 10
212.10110580385989
 20
489.64168350576853
 30
0.0
 11
212.10110580385989
 21
344.64168350576858
 31
0.0
  0
CIRCLE
  5
C221
  8
0
 10
212.10110580385989
 20
417.14168350576853
 30
0.0
 40
34.999999999999829
  0
CIRCLE
  5
C222
  8
0
 10
212.10110580385989
 20
417.14168350576853
 30
0.0
 40
41.499999999999901
  0
CIRCLE
  5
C223
  8
0
 10
212.10110580385989
 20
417.14168350576853
 30
0.0
 40
48.499999999999901
  0
CIRCLE
  5
C224
  8
0
 10
212.10110580385989
 20
417.14168350576853
 30
0.0
 40
55.499999999999503
  0
CIRCLE
  5
C225
  8
0
 10
212.10110580385989
 20
417.14168350576853
 30
0.0
 40
62.499999999999929
  0
CIRCLE
  5
C236
  8
0
 10
212.10110580385989
 20
417.14168350576853
 30
0.0
 40
15.0
  0
LINE
  5
C237
  8
0
 10
225.38010580385981
 20
394.14168350576858
 30
0.0
 11
198.8221058038599
 21
394.14168350576858
 31
0.0
  0
LINE
  5
C238
  8
0
 10
225.38010580385981
 20
440.14168350576858
 30
0.0
 11
198.8221058038599
 21
440.14168350576858
 31
0.0
  0
LINE
  5
C239
  8
0
 10
198.8221058038599
 20
394.14168350576858
 30
0.0
 11
185.5511058038598
 21
417.14168350576853
 31
0.0
  0
LINE
  5
C23A
  8
0
 10
185.5511058038598
 20
417.14168350576853
 30
0.0
 11
198.8221058038599
 21
440.14168350576858
 31
0.0
  0
LINE
  5
C23B
  8
0
 10
225.38010580385981
 20
394.14168350576858
 30
0.0
 11
238.65110580385991
 21
417.14168350576853
 31
0.0
  0
LINE
  5
C23C
  8
0
 10
238.65110580385991
 20
417.14168350576853
 30
0.0
 11
225.38010580385981
 21
440.14168350576858
 31
0.0
  0
CIRCLE
  5
C371
  8
0
 10
212.10110580385989
 20
417.14168350576853
 30
0.0
 40
22.0
  0
LINE
  5
C3EC
  8
0
 10
442.52268898838372
 20
145.15549191850241
 30
0.0
 11
442.52268898838372
 21
121.15549191850251
 31
0.0
  0
LINE
  5
C3ED
  8
0
 10
442.52268898838372
 20
121.15549191850251
 30
0.0
 11
396.52268898838372
 21
121.15549191850251
 31
0.0
  0
LINE
  5
C3EE
  8
0
 10
396.52268898838372
 20
121.15549191850251
 30
0.0
 11
396.52268898838372
 21
145.15549191850241
 31
0.0
  0
LINE
  5
C3EF
  8
0
 10
396.52268898838372
 20
145.15549191850241
 30
0.0
 11
442.52268898838372
 21
145.15549191850241
 31
0.0
  0
LINE
  5
C3F0
  8
0
 10
419.52268898838372
 20
124.7054919185025
 30
0.0
 11
419.52268898838372
 21
141.60549191850251
 31
0.0
  0
ARC
  5
C3F1
  8
0
 10
431.02268898838361
 20
124.7537313551222
 30
0.0
 40
20.401760563380279
 50
55.689540662731957
 51
124.310459337268
  0
ARC
  5
C3F2
  8
0
 10
408.02268898838372
 20
124.7537313551222
 30
0.0
 40
20.4017605633803
 50
55.689540662731957
 51
124.310459337268
  0
ARC
  5
C3F3
  8
0
 10
408.02268898838372
 20
141.55725248188281
 30
0.0
 40
20.401760563380279
 50
235.6895406627319
 51
304.3104593372679
  0
ARC
  5
C3F4
  8
0
 10
431.02268898838361
 20
141.55725248188281
 30
0.0
 40
20.401760563380279
 50
235.6895406627319
 51
304.3104593372679
  0
LINE
  5
C3F5
  8
0
 10
238.6511058038601
 20
142.23634491850251
 30
0.0
 11
238.65110580385991
 21
124.0746389185025
 31
0.0
  0
LINE
  5
C3F6
  8
0
 10
185.55110580385991
 20
124.0746389185025
 30
0.0
 11
185.55110580386
 21
142.23634491850251
 31
0.0
  0
LINE
  5
C3F7
  8
0
 10
225.3811058038599
 20
124.0746389185025
 30
0.0
 11
225.3811058038599
 21
142.23634491850251
 31
0.0
  0
LINE
  5
C3F8
  8
0
 10
198.82110580385989
 20
124.0746389185025
 30
0.0
 11
198.82110580386001
 21
142.23634491850251
 31
0.0
  0
LINE
  5
C3F9
  8
0
 10
234.10110580385989
 20
145.15549191850241
 30
0.0
 11
190.10110580385981
 21
145.15549191850241
 31
0.0
  0
ARC
  5
C3FA
  8
0
 10
232.0161058038598
 20
136.15549191850249
 30
0.0
 40
9.0
 50
72.129239965408914
 51
137.4953259999975
  0
ARC
  5
C3FB
  8
0
 10
212.10110580386001
 20
113.4887369185026
 30
0.0
 40
31.666754999999998
 50
65.205353999999843
 51
114.7946460000001
  0
ARC
  5
C3FC
  8
0
 10
192.18610580385999
 20
136.15549191850249
 30
0.0
 40
9.0
 50
42.504674000002431
 51
107.87076003459789
  0
ARC
  5
C3FD
  8
0
 10
192.1861058038599
 20
130.15549191850249
 30
0.0
 40
9.0
 50
252.12923996540209
 51
317.49532599999748
  0
ARC
  5
C3FE
  8
0
 10
212.10110580385989
 20
152.8222469185024
 30
0.0
 40
31.666754999999998
 50
245.2053539999998
 51
294.79464600000011
  0
ARC
  5
C3FF
  8
0
 10
232.0161058038598
 20
130.15549191850249
 30
0.0
 40
9.0
 50
222.50467400000241
 51
287.87076003459111
  0
LINE
  5
C400
  8
0
 10
234.10110580385989
 20
121.15549191850251
 30
0.0
 11
190.10110580385981
 21
121.15549191850251
 31
0.0
  0
CIRCLE
  5
C40C
  8
3
 10
212.10110580385989
 20
417.14168350576853
 30
0.0
 40
13.105499999999999
  0
LINE
  5
C41B
  8
0
 10
185.55110580635889
 20
142.2363450686091
 30
0.0
 11
190.10110580385981
 21
145.15549191850241
 31
0.0
  0
LINE
  5
C41C
  8
0
 10
185.55110580635889
 20
124.074638768396
 30
0.0
 11
190.10110580385981
 21
121.15549191850251
 31
0.0
  0
LINE
  5
C41D
  8
0
 10
238.65110580136101
 20
124.0746387683959
 30
0.0
 11
234.10110580385989
 21
121.15549191850251
 31
0.0
  0
LINE
  5
C41E
  8
0
 10
234.10110580385989
 20
145.15549191850241
 30
0.0
 11
238.6511058013611
 21
142.2363450686091
 31
0.0
  0
TEXT
  5
C69F
  8
0
 62
     3
 10
0.0
 20
0.0
 30
0.0
 40
10.0
  1
LVAR125B30B
  7
STANDARD1
  0
ENDSEC
  0
EOF
