  0
SECTION
  2
HEADER
  9
$ACADVER
  1
AC1009
  9
$INSBASE
 10
0.0
 20
0.0
 30
0.0
  9
$EXTMIN
 10
0.0
 20
-2.960436562073669
 30
0.0
  9
$EXTMAX
 10
226.77948580997599
 20
313.42483460011613
 30
0.0
  9
$LIMMIN
 10
0.0
 20
0.0
  9
$LIMMAX
 10
375.0
 20
270.0
  9
$ORTHOMODE
 70
     1
  9
$REGENMODE
 70
     1
  9
$FILLMODE
 70
     1
  9
$QTEXTMODE
 70
     0
  9
$MIRRTEXT
 70
     0
  9
$DRAGMODE
 70
     2
  9
$LTSCALE
 40
6.0
  9
$OSMODE
 70
  3071
  9
$ATTMODE
 70
     1
  9
$TEXTSIZE
 40
0.2
  9
$TRACEWID
 40
0.05
  9
$TEXTSTYLE
  7
STANDARD
  9
$CLAYER
  8
0
  9
$CELTYPE
  6
BYLAYER
  9
$CECOLOR
 62
   256
  9
$DIMSCALE
 40
1.0
  9
$DIMASZ
 40
3.0
  9
$DIMEXO
 40
1.0
  9
$DIMDLI
 40
6.0
  9
$DIMRND
 40
0.0
  9
$DIMDLE
 40
0.0
  9
$DIMEXE
 40
1.0
  9
$DIMTP
 40
495.0
  9
$DIMTM
 40
0.0
  9
$DIMTXT
 40
3.0
  9
$DIMCEN
 40
0.0
  9
$DIMTSZ
 40
0.0
  9
$DIMTOL
 70
     0
  9
$DIMLIM
 70
     0
  9
$DIMTIH
 70
     0
  9
$DIMTOH
 70
     0
  9
$DIMSE1
 70
     0
  9
$DIMSE2
 70
     0
  9
$DIMTAD
 70
     1
  9
$DIMZIN
 70
     0
  9
$DIMBLK
  1

  9
$DIMASO
 70
     0
  9
$DIMSHO
 70
     0
  9
$DIMPOST
  1

  9
$DIMAPOST
  1

  9
$DIMALT
 70
     0
  9
$DIMALTD
 70
     2
  9
$DIMALTF
 40
25.399999999999999
  9
$DIMLFAC
 40
1.0
  9
$DIMTOFL
 70
     1
  9
$DIMTVP
 40
0.0
  9
$DIMTIX
 70
     1
  9
$DIMSOXD
 70
     0
  9
$DIMSAH
 70
     0
  9
$DIMBLK1
  1

  9
$DIMBLK2
  1

  9
$DIMSTYLE
  2
STANDARD
  9
$DIMCLRD
 70
     0
  9
$DIMCLRE
 70
     0
  9
$DIMCLRT
 70
     4
  9
$DIMTFAC
 40
1.0
  9
$DIMGAP
 40
1.0
  9
$LUNITS
 70
     2
  9
$LUPREC
 70
     4
  9
$SKETCHINC
 40
0.1
  9
$FILLETRAD
 40
2.0
  9
$AUNITS
 70
     0
  9
$AUPREC
 70
     0
  9
$MENU
  1
C:\R13\WIN\SUPPORT\ACAD-I
  9
$ELEVATION
 40
0.0
  9
$PELEVATION
 40
0.0
  9
$THICKNESS
 40
0.0
  9
$LIMCHECK
 70
     0
  9
$BLIPMODE
 70
     0
  9
$CHAMFERA
 40
0.0
  9
$CHAMFERB
 40
0.0
  9
$SKPOLY
 70
     0
  9
$TDCREATE
 40
2451962.4567227778
  9
$TDUPDATE
 40
2456597.613473658
  9
$TDINDWG
 40
0.0725713542
  9
$TDUSRTIMER
 40
2456556.177007651
  9
$USRTIMER
 70
     1
  9
$ANGBASE
 50
0.0
  9
$ANGDIR
 70
     0
  9
$PDMODE
 70
     0
  9
$PDSIZE
 40
0.0
  9
$PLINEWID
 40
0.0
  9
$COORDS
 70
     1
  9
$SPLFRAME
 70
     0
  9
$SPLINETYPE
 70
     6
  9
$SPLINESEGS
 70
     8
  9
$ATTDIA
 70
     0
  9
$ATTREQ
 70
     1
  9
$HANDLING
 70
     1
  9
$HANDSEED
  5
572F
  9
$SURFTAB1
 70
     6
  9
$SURFTAB2
 70
     6
  9
$SURFTYPE
 70
     6
  9
$SURFU
 70
     6
  9
$SURFV
 70
     6
  9
$UCSNAME
  2

  9
$UCSORG
 10
0.0
 20
0.0
 30
0.0
  9
$UCSXDIR
 10
1.0
 20
0.0
 30
0.0
  9
$UCSYDIR
 10
0.0
 20
1.0
 30
0.0
  9
$PUCSNAME
  2

  9
$PUCSORG
 10
0.0
 20
0.0
 30
0.0
  9
$PUCSXDIR
 10
1.0
 20
0.0
 30
0.0
  9
$PUCSYDIR
 10
0.0
 20
1.0
 30
0.0
  9
$USERI1
 70
     4
  9
$USERI2
 70
     1
  9
$USERI3
 70
     0
  9
$USERI4
 70
     0
  9
$USERI5
 70
     0
  9
$USERR1
 40
1.0
  9
$USERR2
 40
3.0
  9
$USERR3
 40
3.0
  9
$USERR4
 40
3.0
  9
$USERR5
 40
10.0
  9
$WORLDVIEW
 70
     1
  9
$SHADEDGE
 70
     3
  9
$SHADEDIF
 70
    70
  9
$TILEMODE
 70
     1
  9
$MAXACTVP
 70
    16
  9
$PLIMCHECK
 70
     0
  9
$PEXTMIN
 10
1.0000000000000000E+020
 20
1.0000000000000000E+020
 30
1.0000000000000000E+020
  9
$PEXTMAX
 10
-1.0000000000000000E+020
 20
-1.0000000000000000E+020
 30
-1.0000000000000000E+020
  9
$PLIMMIN
 10
0.0
 20
0.0
  9
$PLIMMAX
 10
12.0
 20
9.0
  9
$UNITMODE
 70
     0
  9
$VISRETAIN
 70
     0
  9
$PLINEGEN
 70
     0
  9
$PSLTSCALE
 70
     0
  0
ENDSEC
  0
SECTION
  2
TABLES
  0
TABLE
  2
VPORT
 70
     1
  0
VPORT
  2
*ACTIVE
 70
     0
 10
0.0
 20
0.0
 11
1.0
 21
1.0
 12
187.4942783906524
 22
155.9148123246845
 13
0.0
 23
0.0
 14
10.0
 24
10.0
 15
10.0
 25
10.0
 16
0.0
 26
0.0
 36
1.0
 17
0.0
 27
0.0
 37
0.0
 40
321.41591884977362
 41
2.304913294797688
 42
50.0
 43
0.0
 44
0.0
 50
0.0
 51
0.0
 71
    16
 72
   100
 73
     1
 74
     0
 75
     0
 76
     0
 77
     0
 78
     0
  0
ENDTAB
  0
TABLE
  2
LTYPE
 70
     3
  0
LTYPE
  2
CONTINUOUS
 70
     0
  3
Solid Line
 72
    65
 73
     0
 40
0.0
  0
LTYPE
  2
PHANTOM2
 70
     0
  3
___ _ _ ___ _ _ ___ _ _ ___ _ _
 72
    65
 73
     6
 40
1.25
 49
0.625
 49
-0.125
 49
0.125
 49
-0.125
 49
0.125
 49
-0.125
  0
LTYPE
  2
CENTER
 70
     0
  3
____ _ ____ _ ____ _ ____ _ ____ _ ____ _ ____
 72
    65
 73
     4
 40
2.0
 49
1.25
 49
-0.25
 49
0.25
 49
-0.25
  0
ENDTAB
  0
TABLE
  2
LAYER
 70
     3
  0
LAYER
  2
0
 70
     0
 62
     7
  6
CONTINUOUS
  0
LAYER
  2
1
 70
     0
 62
     1
  6
CENTER
  0
LAYER
  2
3
 70
     0
 62
     3
  6
CONTINUOUS
  0
ENDTAB
  0
TABLE
  2
STYLE
 70
     3
  0
STYLE
  2
STANDARD
 70
     0
 40
0.0
 41
1.0
 50
0.0
 71
     0
 42
0.2
  3
SIMPLEX
  4
BIGFONT
  0
STYLE
  2
ANNOTATIVE
 70
     0
 40
0.0
 41
1.0
 50
0.0
 71
     0
 42
0.2
  3
txt
  4

  0
STYLE
  2
STANDARD1
 70
     0
 40
0.0
 41
1.0
 50
0.0
 71
     0
 42
3.0
  3
txt
  4

  0
ENDTAB
  0
TABLE
  2
VIEW
 70
     0
  0
ENDTAB
  0
TABLE
  2
UCS
 70
     0
  0
ENDTAB
  0
TABLE
  2
APPID
 70
    29
  0
APPID
  2
ACAD
 70
     0
  0
APPID
  2
ACADANNOTATIVE
 70
     0
  0
APPID
  2
GENIUS_GENOREF_13
 70
     0
  0
APPID
  2
GENIUS_GENOENT_13
 70
     0
  0
APPID
  2
GENIUS_GENBH_13
 70
     0
  0
APPID
  2
GENIUS_GENOBJ_13
 70
     0
  0
APPID
  2
GENIUS_GENODEF_13
 70
     0
  0
APPID
  2
GENIUS_GENOLIS_13
 70
     0
  0
APPID
  2
GENIUS_GENOBJ-NBEHI-BHF_13
 70
     0
  0
APPID
  2
GENIUS_GENOBJ-NBEHI-BHB_13
 70
     0
  0
APPID
  2
GENIUS_GENOBJ-F-PART_13
 70
     0
  0
APPID
  2
GENIUS_GEFSTDP_13
 70
     0
  0
APPID
  2
GENIUS_GENOBJ-N-RSSYM_13
 70
     0
  0
APPID
  2
GENIUS_GENSYMENT_13
 70
     0
  0
APPID
  2
GENIUS_GENOBJ-N-TIT_13
 70
     0
  0
APPID
  2
GENIUS_GENTITLE_13
 70
     0
  0
APPID
  2
GENIUS_GENZVEED_13
 70
     0
  0
APPID
  2
GENIUS_GENOBJ-N-LEADER_13
 70
     0
  0
APPID
  2
GENIUS_GENOBJ-N-FIL_13
 70
     0
  0
APPID
  2
GENIUS_GENOBJ-N-SEC_13
 70
     0
  0
APPID
  2
GENIUS_GENOBJ-N-CRS_13
 70
     0
  0
APPID
  2
GENIUS_GENOBJ-N-ZOO_13
 70
     0
  0
APPID
  2
GENIUS_GENZOO_13
 70
     0
  0
APPID
  2
GENIUS_GENOBJ-F-TOL_13
 70
     0
  0
APPID
  2
GENIUS_GENFIL_13
 70
     0
  0
APPID
  2
GENIUS_GENOBJ-N-CHA_13
 70
     0
  0
APPID
  2
ACAD_EXEMPT_FROM_CAD_STANDARDS
 70
     0
  0
APPID
  2
ACAD_MLEADERVER
 70
     0
  0
APPID
  2
ACAD_NAV_VCDISPLAY
 70
     0
  0
ENDTAB
  0
TABLE
  2
DIMSTYLE
 70
     2
  0
DIMSTYLE
  2
STANDARD
 70
     0
  3

  4

  5

  6

  7

 40
1.0
 41
0.18
 42
0.0625
 43
0.38
 44
0.18
 45
0.0
 46
0.0
 47
0.0
 48
0.0
140
0.18
141
0.09
142
0.0
143
25.399999999999999
144
1.0
145
0.0
146
1.0
147
0.09
 71
     0
 72
     0
 73
     1
 74
     1
 75
     0
 76
     0
 77
     0
 78
     0
170
     0
171
     2
172
     0
173
     0
174
     0
175
     0
176
     0
177
     0
178
     0
  0
DIMSTYLE
  2
ANNOTATIVE
 70
     0
  3

  4

  5

  6

  7

 40
1.0
 41
0.18
 42
0.0625
 43
0.38
 44
0.18
 45
0.0
 46
0.0
 47
0.0
 48
0.0
140
0.18
141
0.09
142
0.0
143
25.399999999999999
144
1.0
145
0.0
146
1.0
147
0.09
 71
     0
 72
     0
 73
     1
 74
     1
 75
     0
 76
     0
 77
     0
 78
     0
170
     0
171
     2
172
     0
173
     0
174
     0
175
     0
176
     0
177
     0
178
     0
  0
ENDTAB
  0
ENDSEC
  0
SECTION
  2
BLOCKS
  0
BLOCK
  8
0
  2
$MODEL_SPACE
 70
     0
 10
0.0
 20
0.0
 30
0.0
  3
$MODEL_SPACE
  1

  0
ENDBLK
  5
5652
  8
0
  0
BLOCK
 67
     1
  8
0
  2
$PAPER_SPACE
 70
     0
 10
0.0
 20
0.0
 30
0.0
  3
$PAPER_SPACE
  1

  0
ENDBLK
  5
564E
 67
     1
  8
0
  0
ENDSEC
  0
SECTION
  2
ENTITIES
  0
LINE
  5
52D9
  8
1
 10
186.77948580997599
 20
177.53533244525099
 30
0.0
 11
186.77948580997599
 21
26.535332445251019
 31
0.0
  0
LINE
  5
52DA
  8
1
 10
64.501698906790352
 20
177.53533244525099
 30
0.0
 11
64.501698906790352
 21
26.535332445251019
 31
0.0
  0
LINE
  5
52DC
  8
0
 10
226.77948580997599
 20
31.535332445251019
 30
0.0
 11
146.77948580997599
 21
31.535332445251019
 31
0.0
  0
LINE
  5
52DD
  8
0
 10
226.77948580997599
 20
31.535332445251019
 30
0.0
 11
226.77948580997599
 21
40.380037113540531
 31
0.0
  0
LINE
  5
52DF
  8
0
 10
220.27948580997599
 20
43.566836211785557
 30
0.0
 11
153.27948580997599
 21
43.566836211785557
 31
0.0
  0
LINE
  5
52E0
  8
0
 10
214.27948580997599
 20
47.937861173850919
 30
0.0
 11
159.27948580997599
 21
47.937861173850919
 31
0.0
  0
LINE
  5
52E1
  8
0
 10
207.62992886105161
 20
50.83407104351113
 30
0.0
 11
165.92904275890021
 21
50.83407104351113
 31
0.0
  0
LINE
  5
52E2
  8
0
 10
200.77948580997599
 20
55.535332445251029
 30
0.0
 11
172.77948580997599
 21
55.535332445251029
 31
0.0
  0
LINE
  5
52E3
  8
0
 10
220.27948580997599
 20
43.566836211785557
 30
0.0
 11
220.27948580997599
 21
44.408223292532959
 31
0.0
  0
LINE
  5
52E4
  8
0
 10
220.27948580997599
 20
43.566836211785557
 30
0.0
 11
226.1384648892849
 21
41.313382719743672
 31
0.0
  0
LINE
  5
52E5
  8
0
 10
214.27948580997599
 20
47.937861173850919
 30
0.0
 11
219.7149619923641
 21
45.308423545017142
 31
0.0
  0
LINE
  5
52E6
  8
0
 10
207.62992886105161
 20
50.83407104351113
 30
0.0
 11
213.507584923444
 21
49.457082624124951
 31
0.0
  0
LINE
  5
52E7
  8
0
 10
201.77948580997599
 20
53.937861173850941
 30
0.0
 11
171.77948580997599
 21
53.937861173850941
 31
0.0
  0
LINE
  5
52E8
  8
0
 10
201.77948580997599
 20
53.937861173850941
 30
0.0
 11
206.93964935976601
 21
52.257000889059782
 31
0.0
  0
LINE
  5
52E9
  8
0
 10
201.77948580997599
 20
54.535332445251001
 30
0.0
 11
201.77948580997599
 21
53.937861173850941
 31
0.0
  0
LINE
  5
52EA
  8
0
 10
214.27948580997599
 20
47.937861173850919
 30
0.0
 11
214.27948580997599
 21
48.483444706603677
 31
0.0
  0
LINE
  5
52EB
  8
0
 10
207.62992886105161
 20
50.83407104351113
 30
0.0
 11
207.62992886105161
 21
51.306173242913459
 31
0.0
  0
ARC
  5
52EC
  8
0
 10
200.77948580997599
 20
54.535332445251001
 30
0.0
 40
1.0
 50
359.99999999999892
 51
90.0
  0
ARC
  5
52ED
  8
0
 10
206.6299288610517
 20
51.306173242913459
 30
0.0
 40
1.0
 50
0.0
 51
71.957612741641853
  0
ARC
  5
52EE
  8
0
 10
213.27948580997599
 20
48.483444706603677
 30
0.0
 40
1.0
 50
0.0
 51
76.814815600247044
  0
ARC
  5
52EF
  8
0
 10
225.77948580997599
 20
40.380037113540531
 30
0.0
 40
1.0
 50
0.0
 51
68.962488974578235
  0
ARC
  5
52F0
  8
0
 10
219.27948580997599
 20
44.408223292532959
 30
0.0
 40
1.0
 50
0.0
 51
64.18440202834887
  0
ARC
  5
52F2
  8
0
 10
154.27948580997599
 20
44.408223292532959
 30
0.0
 40
1.0
 50
115.8155979716511
 51
180.0
  0
ARC
  5
52F3
  8
0
 10
147.77948580997599
 20
40.380037113540531
 30
0.0
 40
1.0
 50
111.03751102542169
 51
180.0
  0
ARC
  5
52F4
  8
0
 10
160.27948580997599
 20
48.483444706603677
 30
0.0
 40
1.0
 50
103.1851843997529
 51
180.0
  0
ARC
  5
52F5
  8
0
 10
166.92904275890021
 20
51.306173242913459
 30
0.0
 40
1.0
 50
108.0423872583581
 51
180.0
  0
ARC
  5
52F6
  8
0
 10
172.77948580997599
 20
54.535332445251001
 30
0.0
 40
1.0
 50
90.0
 51
180.00000000000099
  0
LINE
  5
52F7
  8
0
 10
165.92904275890021
 20
50.83407104351113
 30
0.0
 11
165.92904275890021
 21
51.306173242913459
 31
0.0
  0
LINE
  5
52F8
  8
0
 10
159.27948580997599
 20
47.937861173850919
 30
0.0
 11
159.27948580997599
 21
48.483444706603677
 31
0.0
  0
LINE
  5
52F9
  8
0
 10
171.77948580997599
 20
54.535332445251001
 30
0.0
 11
171.77948580997599
 21
53.937861173850941
 31
0.0
  0
LINE
  5
52FA
  8
0
 10
171.77948580997599
 20
53.937861173850941
 30
0.0
 11
166.61932226018601
 21
52.257000889059782
 31
0.0
  0
LINE
  5
52FB
  8
0
 10
165.92904275890021
 20
50.83407104351113
 30
0.0
 11
160.0513866965079
 21
49.457082624124951
 31
0.0
  0
LINE
  5
52FC
  8
0
 10
159.27948580997599
 20
47.937861173850919
 30
0.0
 11
153.84400962758781
 21
45.308423545017142
 31
0.0
  0
LINE
  5
52FD
  8
0
 10
153.27948580997599
 20
43.566836211785557
 30
0.0
 11
147.420506730667
 21
41.313382719743672
 31
0.0
  0
LINE
  5
52FE
  8
0
 10
153.27948580997599
 20
43.566836211785557
 30
0.0
 11
153.27948580997599
 21
44.408223292532959
 31
0.0
  0
LINE
  5
52FF
  8
0
 10
146.77948580997599
 20
31.535332445251019
 30
0.0
 11
146.77948580997599
 21
40.380037113540531
 31
0.0
  0
CIRCLE
  5
5302
  8
0
 10
64.501698906790352
 20
267.71054888583012
 30
0.0
 40
14.99999999999997
  0
CIRCLE
  5
5303
  8
0
 10
64.501698906790352
 20
267.71054888583012
 30
0.0
 40
20.850443051075668
  0
CIRCLE
  5
5304
  8
0
 10
64.501698906790352
 20
267.71054888583012
 30
0.0
 40
27.5
  0
CIRCLE
  5
5305
  8
0
 10
64.501698906790352
 20
267.71054888583012
 30
0.0
 40
33.5
  0
LINE
  5
5307
  8
0
 10
24.501698906790349
 20
31.535332445251019
 30
0.0
 11
24.501698906790239
 21
40.380037113540531
 31
0.0
  0
LINE
  5
5308
  8
0
 10
31.001698906790359
 20
43.566836211785557
 30
0.0
 11
31.001698906790359
 21
44.408223292532959
 31
0.0
  0
LINE
  5
5309
  8
0
 10
31.001698906790359
 20
43.566836211785557
 30
0.0
 11
25.142719827481411
 21
41.313382719743672
 31
0.0
  0
LINE
  5
530A
  8
0
 10
37.001698906790352
 20
47.937861173850919
 30
0.0
 11
31.56622272440222
 21
45.308423545017142
 31
0.0
  0
LINE
  5
530B
  8
0
 10
43.65125585571468
 20
50.83407104351113
 30
0.0
 11
37.773599793322212
 21
49.457082624124951
 31
0.0
  0
LINE
  5
530C
  8
0
 10
49.501698906790352
 20
53.937861173850941
 30
0.0
 11
44.341535357000332
 21
52.257000889059782
 31
0.0
  0
LINE
  5
530D
  8
0
 10
49.501698906790352
 20
54.535332445251001
 30
0.0
 11
49.501698906790352
 21
53.937861173850941
 31
0.0
  0
LINE
  5
530E
  8
0
 10
37.001698906790352
 20
47.937861173850919
 30
0.0
 11
37.001698906790352
 21
48.483444706603677
 31
0.0
  0
LINE
  5
530F
  8
0
 10
43.65125585571468
 20
50.83407104351113
 30
0.0
 11
43.65125585571468
 21
51.306173242913459
 31
0.0
  0
ARC
  5
5310
  8
0
 10
50.501698906790352
 20
54.535332445251001
 30
0.0
 40
1.0
 50
90.0
 51
180.00000000000099
  0
ARC
  5
5311
  8
0
 10
44.65125585571468
 20
51.306173242913459
 30
0.0
 40
1.0
 50
108.0423872583581
 51
180.0
  0
ARC
  5
5312
  8
0
 10
38.001698906790352
 20
48.483444706603677
 30
0.0
 40
1.0
 50
103.1851843997529
 51
180.0
  0
ARC
  5
5313
  8
0
 10
25.501698906790239
 20
40.380037113540531
 30
0.0
 40
1.0
 50
111.03751102542169
 51
180.0
  0
ARC
  5
5314
  8
0
 10
32.001698906790352
 20
44.408223292532959
 30
0.0
 40
1.0
 50
115.8155979716511
 51
180.0
  0
ARC
  5
5316
  8
0
 10
97.001698906790352
 20
44.408223292532959
 30
0.0
 40
1.0
 50
0.0
 51
64.18440202834887
  0
ARC
  5
5317
  8
0
 10
103.5016989067903
 20
40.380037113540531
 30
0.0
 40
1.0
 50
0.0
 51
68.962488974578235
  0
ARC
  5
5318
  8
0
 10
91.001698906790352
 20
48.483444706603677
 30
0.0
 40
1.0
 50
0.0
 51
76.814815600247044
  0
ARC
  5
5319
  8
0
 10
84.352141957866024
 20
51.306173242913459
 30
0.0
 40
1.0
 50
0.0
 51
71.957612741641853
  0
ARC
  5
531A
  8
0
 10
78.501698906790324
 20
54.535332445251001
 30
0.0
 40
1.0
 50
359.99999999999892
 51
90.0
  0
LINE
  5
531B
  8
0
 10
85.352141957866024
 20
50.83407104351113
 30
0.0
 11
85.352141957866024
 21
51.306173242913459
 31
0.0
  0
LINE
  5
531C
  8
0
 10
92.001698906790352
 20
47.937861173850919
 30
0.0
 11
92.001698906790352
 21
48.483444706603677
 31
0.0
  0
LINE
  5
531D
  8
0
 10
79.501698906790338
 20
54.535332445251001
 30
0.0
 11
79.501698906790338
 21
53.937861173850941
 31
0.0
  0
LINE
  5
531E
  8
0
 10
79.501698906790338
 20
53.937861173850941
 30
0.0
 11
84.661862456580337
 21
52.257000889059782
 31
0.0
  0
LINE
  5
531F
  8
0
 10
79.501698906790338
 20
53.937861173850941
 30
0.0
 11
49.501698906790352
 21
53.937861173850941
 31
0.0
  0
LINE
  5
5320
  8
0
 10
85.352141957866024
 20
50.83407104351113
 30
0.0
 11
91.229798020258514
 21
49.457082624124951
 31
0.0
  0
LINE
  5
5321
  8
0
 10
92.001698906790352
 20
47.937861173850919
 30
0.0
 11
97.437175089178481
 21
45.308423545017142
 31
0.0
  0
LINE
  5
5322
  8
0
 10
98.001698906790367
 20
43.566836211785557
 30
0.0
 11
103.8606779860993
 21
41.313382719743672
 31
0.0
  0
LINE
  5
5323
  8
0
 10
98.001698906790367
 20
43.566836211785557
 30
0.0
 11
98.001698906790367
 21
44.408223292532959
 31
0.0
  0
LINE
  5
5324
  8
0
 10
78.501698906790324
 20
55.535332445251029
 30
0.0
 11
50.501698906790352
 21
55.535332445251029
 31
0.0
  0
LINE
  5
5325
  8
0
 10
85.35214195786611
 20
50.83407104351113
 30
0.0
 11
43.65125585571468
 21
50.83407104351113
 31
0.0
  0
LINE
  5
5326
  8
0
 10
92.001698906790352
 20
47.937861173850919
 30
0.0
 11
37.001698906790352
 21
47.937861173850919
 31
0.0
  0
LINE
  5
5327
  8
0
 10
98.001698906790367
 20
43.566836211785557
 30
0.0
 11
31.001698906790359
 21
43.566836211785557
 31
0.0
  0
LINE
  5
5328
  8
1
 10
110.2159846210761
 20
267.71054888583012
 30
0.0
 11
18.78741319250457
 21
267.71054888583012
 31
0.0
  0
LINE
  5
5329
  8
1
 10
64.501698906790352
 20
313.42483460011613
 30
0.0
 11
64.501698906790352
 21
221.99626317154431
 31
0.0
  0
CIRCLE
  5
532A
  8
0
 10
64.501698906790352
 20
267.71054888583012
 30
0.0
 40
40.00000000000005
  0
LINE
  5
532C
  8
0
 10
104.5016989067903
 20
31.535332445251019
 30
0.0
 11
104.5016989067903
 21
40.380037113540531
 31
0.0
  0
LINE
  5
532D
  8
0
 10
104.5016989067903
 20
31.535332445251019
 30
0.0
 11
24.501698906790349
 21
31.535332445251019
 31
0.0
  0
LINE
  5
533D
  8
0
 10
59.00169890678967
 20
55.535332445251029
 30
0.0
 11
59.00169890678967
 21
58.535332445250781
 31
0.0
  0
LINE
  5
533E
  8
0
 10
70.00169890678967
 20
55.535332445251029
 30
0.0
 11
70.00169890678967
 21
58.535332445250781
 31
0.0
  0
ARC
  5
533F
  8
0
 10
64.501698906790125
 20
81.107129217111378
 30
0.0
 40
22.928203228139491
 50
72.412046224314139
 51
107.5879537756858
  0
ARC
  5
5340
  8
0
 10
54.109394061376641
 20
97.901357849530086
 30
0.0
 40
6.1339745957208196
 50
55.61575252878869
 51
115.6157525301451
  0
LINE
  5
5341
  8
0
 10
50.645292446217127
 20
102.9635356754218
 30
0.0
 11
53.0016989068979
 21
104.324007579816
 31
0.0
  0
LINE
  5
5342
  8
0
 10
50.645292446217127
 20
92.6844794842102
 30
0.0
 11
53.0016989068979
 21
91.324007579815984
 31
0.0
  0
ARC
  5
5343
  8
0
 10
54.109394061376641
 20
97.746657310101682
 30
0.0
 40
6.1339745957208196
 50
244.3842474698549
 51
304.38424747121132
  0
ARC
  5
5344
  8
0
 10
64.501698906790125
 20
114.5408859425204
 30
0.0
 40
22.928203228139491
 50
252.41204622431411
 51
287.58795377568589
  0
LINE
  5
5345
  8
0
 10
50.645292446238948
 20
102.9635356754218
 30
0.0
 11
50.645292446238948
 21
92.684479484197482
 31
0.0
  0
LINE
  5
5346
  8
0
 10
57.573495676514781
 20
102.9635356754218
 30
0.0
 11
57.573495676514781
 21
92.6844794842102
 31
0.0
  0
LINE
  5
5347
  8
0
 10
71.429902137065483
 20
102.9635356754218
 30
0.0
 11
71.429902137065483
 21
92.6844794842102
 31
0.0
  0
LINE
  5
5348
  8
0
 10
78.358105367341295
 20
102.9635356754218
 30
0.0
 11
78.358105367341295
 21
92.684479484197482
 31
0.0
  0
ARC
  5
5349
  8
0
 10
74.894003752203631
 20
97.746657310101682
 30
0.0
 40
6.1339745957208196
 50
235.6157525287887
 51
295.61575253014507
  0
LINE
  5
534A
  8
0
 10
78.358105367363123
 20
92.6844794842102
 30
0.0
 11
76.00169890668235
 21
91.324007579815984
 31
0.0
  0
LINE
  5
534B
  8
0
 10
78.358105367363123
 20
102.9635356754218
 30
0.0
 11
76.00169890668235
 21
104.324007579816
 31
0.0
  0
ARC
  5
534C
  8
0
 10
74.894003752203631
 20
97.901357849530086
 30
0.0
 40
6.1339745957208196
 50
64.384247469854884
 51
124.3842474712113
  0
LINE
  5
534D
  8
0
 10
53.001698906790111
 20
104.324007579816
 30
0.0
 11
76.00169890668235
 21
104.324007579816
 31
0.0
  0
LINE
  5
534E
  8
0
 10
76.00169890668235
 20
91.324007579815984
 30
0.0
 11
53.0016989068979
 21
91.324007579815984
 31
0.0
  0
LINE
  5
534F
  8
3
 10
71.419198906790371
 20
66.535332445251029
 30
0.0
 11
72.501698906790338
 21
64.660387446057712
 31
0.0
  0
LINE
  5
5350
  8
3
 10
57.584198906790327
 20
66.535332445251029
 30
0.0
 11
56.501698906790352
 21
64.660387446057712
 31
0.0
  0
LINE
  5
5351
  8
0
 10
56.501698906790352
 20
66.535332445251029
 30
0.0
 11
72.501698906790338
 21
66.535332445251029
 31
0.0
  0
LINE
  5
5352
  8
0
 10
72.501698906790338
 20
170.53533244525099
 30
0.0
 11
56.501698906790352
 21
170.53533244525099
 31
0.0
  0
LINE
  5
5353
  8
0
 10
70.501698906790324
 20
172.53533244525099
 30
0.0
 11
72.501698906790338
 21
170.53533244525099
 31
0.0
  0
LINE
  5
5354
  8
0
 10
56.501698906790352
 20
170.53533244525099
 30
0.0
 11
58.501698906790352
 21
172.53533244525099
 31
0.0
  0
LINE
  5
5355
  8
0
 10
56.501698906790352
 20
64.399485323088356
 30
0.0
 11
56.501698906790352
 21
91.324007579815984
 31
0.0
  0
LINE
  5
5356
  8
3
 10
57.584198906790327
 20
66.535332445251029
 30
0.0
 11
57.584198906790327
 21
91.324007579815756
 31
0.0
  0
LINE
  5
5357
  8
3
 10
71.419198906790371
 20
66.535332445251029
 30
0.0
 11
71.419198906790371
 21
91.324007579815756
 31
0.0
  0
LINE
  5
5358
  8
0
 10
72.501698906790338
 20
64.399485323087674
 30
0.0
 11
72.501698906790338
 21
91.324007579815756
 31
0.0
  0
LINE
  5
5359
  8
0
 10
58.501698906790352
 20
172.53533244525099
 30
0.0
 11
70.501698906790324
 21
172.53533244525099
 31
0.0
  0
ARC
  5
535A
  8
0
 10
68.501698906789898
 20
52.846067310460739
 30
0.0
 40
11.55341801262729
 50
69.743841999608421
 51
110.25615800039159
  0
LINE
  5
535B
  8
0
 10
72.501698906789883
 20
64.399485323088129
 30
0.0
 11
72.266404789141802
 21
64.535332445250788
 31
0.0
  0
LINE
  5
535C
  8
0
 10
72.501698906789883
 20
58.671179567412992
 30
0.0
 11
72.266404789141802
 21
58.535332445250098
 31
0.0
  0
ARC
  5
535D
  8
0
 10
68.501698906789898
 20
70.224597580040381
 30
0.0
 40
11.55341801262729
 50
249.74384199960841
 51
290.25615800039151
  0
LINE
  5
535E
  8
0
 10
72.501698906789883
 20
64.399485323088129
 30
0.0
 11
72.501698906789883
 21
58.671179567412992
 31
0.0
  0
LINE
  5
535F
  8
0
 10
64.501698906789883
 20
63.684954143272073
 30
0.0
 11
64.501698906789883
 21
59.385710747228813
 31
0.0
  0
LINE
  5
5360
  8
0
 10
56.50169890678977
 20
64.399485323088129
 30
0.0
 11
56.501698906789898
 21
58.671179567412992
 31
0.0
  0
LINE
  5
5361
  8
0
 10
56.50169890678977
 20
58.671179567412992
 30
0.0
 11
56.736993024437893
 21
58.535332445250098
 31
0.0
  0
ARC
  5
5362
  8
0
 10
60.501698906789898
 20
70.224597580040381
 30
0.0
 40
11.55341801262729
 50
249.74384199960841
 51
290.25615800039151
  0
LINE
  5
5363
  8
0
 10
56.50169890678977
 20
64.399485323088129
 30
0.0
 11
56.736993024437893
 21
64.535332445250788
 31
0.0
  0
ARC
  5
5364
  8
0
 10
60.501698906789898
 20
52.846067310460739
 30
0.0
 40
11.55341801262729
 50
69.743841999608421
 51
110.25615800039159
  0
LINE
  5
5365
  8
0
 10
72.266404789141703
 20
64.535332445250788
 30
0.0
 11
56.736993024437893
 21
64.535332445250788
 31
0.0
  0
LINE
  5
5366
  8
0
 10
56.736993024436863
 20
58.535332445250781
 30
0.0
 11
72.266404789142811
 21
58.535332445250781
 31
0.0
  0
LINE
  5
5367
  8
3
 10
71.419198906790371
 20
104.324007579816
 30
0.0
 11
71.419198906790371
 21
171.617832445251
 31
0.0
  0
LINE
  5
5368
  8
0
 10
72.501698906790338
 20
104.324007579816
 30
0.0
 11
72.501698906790338
 21
170.53533244525099
 31
0.0
  0
LINE
  5
5369
  8
3
 10
57.584198906790327
 20
104.324007579816
 30
0.0
 11
57.584198906790327
 21
171.617832445251
 31
0.0
  0
LINE
  5
536A
  8
0
 10
56.501698906790352
 20
104.324007579816
 30
0.0
 11
56.501698906790352
 21
170.53533244525099
 31
0.0
  0
LINE
  5
536B
  8
0
 10
192.27948580997611
 20
55.535332445251242
 30
0.0
 11
192.27948580997611
 21
58.535332445251022
 31
0.0
  0
LINE
  5
536C
  8
0
 10
181.27948580997611
 20
55.535332445251242
 30
0.0
 11
181.27948580997611
 21
58.535332445251022
 31
0.0
  0
ARC
  5
536D
  8
0
 10
192.77948580997599
 20
86.705205427950446
 30
0.0
 40
17.330127017333279
 50
69.743841997644466
 51
110.25615800235551
  0
LINE
  5
536E
  8
0
 10
198.779485809991
 20
104.0353324452837
 30
0.0
 11
198.27948580997599
 21
104.32400757988709
 31
0.0
  0
LINE
  5
536F
  8
0
 10
198.779485809991
 20
91.612682714413722
 30
0.0
 11
198.27948580997599
 21
91.324007579810313
 31
0.0
  0
ARC
  5
5370
  8
0
 10
192.77948580997599
 20
108.942809731747
 30
0.0
 40
17.330127017333279
 50
249.74384199764449
 51
290.25615800235551
  0
LINE
  5
5371
  8
0
 10
198.779485809991
 20
104.0353324452837
 30
0.0
 11
198.77948580997599
 21
91.612682714405082
 31
0.0
  0
LINE
  5
5372
  8
0
 10
186.77948580997599
 20
92.684479484242956
 30
0.0
 11
186.77948580997599
 21
102.96353567545449
 31
0.0
  0
LINE
  5
5373
  8
0
 10
174.77948580996099
 20
104.0353324452837
 30
0.0
 11
174.77948580997599
 21
91.612682714405082
 31
0.0
  0
ARC
  5
5374
  8
0
 10
180.77948580997599
 20
108.942809731747
 30
0.0
 40
17.330127017333279
 50
249.74384199764449
 51
290.25615800235551
  0
LINE
  5
5375
  8
0
 10
174.77948580996099
 20
91.612682714413722
 30
0.0
 11
175.27948580997599
 21
91.324007579810313
 31
0.0
  0
LINE
  5
5376
  8
0
 10
174.77948580996099
 20
104.0353324452837
 30
0.0
 11
175.27948580997599
 21
104.32400757988709
 31
0.0
  0
ARC
  5
5377
  8
0
 10
180.77948580997599
 20
86.705205427950446
 30
0.0
 40
17.330127017333279
 50
69.743841997644466
 51
110.25615800235551
  0
LINE
  5
5378
  8
0
 10
175.2794858099096
 20
104.3240075798487
 30
0.0
 11
198.27948580997599
 21
104.32400757988709
 31
0.0
  0
LINE
  5
5379
  8
0
 10
198.27948580997599
 20
91.324007579810313
 30
0.0
 11
175.2794858099096
 21
91.324007579848725
 31
0.0
  0
ARC
  5
537A
  8
0
 10
179.8512825797003
 20
60.310168925607499
 30
0.0
 40
4.0893163974808306
 50
55.61575253199382
 51
115.6157525321144
  0
ARC
  5
537B
  8
0
 10
186.77948580997531
 20
49.11401650288439
 30
0.0
 40
15.28546882020385
 50
72.412046226030142
 51
107.5879537739699
  0
LINE
  5
537C
  8
0
 10
177.541881502942
 20
63.684954143272762
 30
0.0
 11
179.0147799276229
 21
64.535332445251456
 31
0.0
  0
LINE
  5
537D
  8
0
 10
177.541881502942
 20
59.385710747229723
 30
0.0
 11
179.0147799276229
 21
58.535332445251022
 31
0.0
  0
ARC
  5
537E
  8
0
 10
179.8512825797003
 20
62.760495964894972
 30
0.0
 40
4.0893163974808306
 50
244.3842474678855
 51
304.38424746800621
  0
ARC
  5
537F
  8
0
 10
186.77948580997531
 20
73.956648387617861
 30
0.0
 40
15.28546882020385
 50
252.4120462260301
 51
287.58795377396979
  0
LINE
  5
5380
  8
0
 10
177.541881502942
 20
63.684954143272762
 30
0.0
 11
177.541881502942
 21
59.385710747229723
 31
0.0
  0
LINE
  5
5381
  8
0
 10
182.16068365645791
 20
63.684954143272762
 30
0.0
 11
182.1606836564585
 21
59.385710747229268
 31
0.0
  0
LINE
  5
5382
  8
0
 10
191.39828796349391
 20
63.684954143272762
 30
0.0
 11
191.3982879634932
 21
59.385710747229268
 31
0.0
  0
LINE
  5
5383
  8
0
 10
196.0170901170097
 20
63.684954143272762
 30
0.0
 11
196.0170901170097
 21
59.385710747229723
 31
0.0
  0
ARC
  5
5384
  8
0
 10
193.70768904025141
 20
62.760495964894972
 30
0.0
 40
4.0893163974808306
 50
235.61575253199379
 51
295.61575253211453
  0
LINE
  5
5385
  8
0
 10
196.0170901170097
 20
59.385710747229723
 30
0.0
 11
194.54419169232881
 21
58.535332445251022
 31
0.0
  0
LINE
  5
5386
  8
0
 10
196.0170901170097
 20
63.684954143272762
 30
0.0
 11
194.54419169232881
 21
64.535332445251456
 31
0.0
  0
ARC
  5
5387
  8
0
 10
193.70768904025141
 20
60.310168925607499
 30
0.0
 40
4.0893163974808306
 50
64.384247467885544
 51
124.38424746800619
  0
LINE
  5
5388
  8
0
 10
179.0147799276229
 20
64.535332445251456
 30
0.0
 11
194.54419169232909
 21
64.535332445251029
 31
0.0
  0
LINE
  5
5389
  8
0
 10
194.54419169232921
 20
58.535332445251242
 30
0.0
 11
179.01477992762261
 21
58.535332445251242
 31
0.0
  0
LINE
  5
538A
  8
0
 10
180.77948580997599
 20
172.53533244525121
 30
0.0
 11
192.77948580997599
 21
172.53533244525099
 31
0.0
  0
LINE
  5
538B
  8
0
 10
194.77948580997599
 20
64.399485323088129
 30
0.0
 11
194.77948580997599
 21
91.324007579815984
 31
0.0
  0
LINE
  5
538C
  8
3
 10
193.69698580997601
 20
66.535332445251242
 30
0.0
 11
193.69698580997601
 21
91.324007579818044
 31
0.0
  0
LINE
  5
538D
  8
0
 10
192.77948580997599
 20
172.53533244525099
 30
0.0
 11
194.77948580997599
 21
170.53533244525099
 31
0.0
  0
LINE
  5
538E
  8
0
 10
194.77948580997599
 20
170.53533244525099
 30
0.0
 11
178.77948580997599
 21
170.53533244525121
 31
0.0
  0
LINE
  5
538F
  8
0
 10
178.77948580997599
 20
66.535332445251242
 30
0.0
 11
194.77948580997599
 21
66.535332445251242
 31
0.0
  0
LINE
  5
5390
  8
3
 10
193.69698580997601
 20
66.535332445251242
 30
0.0
 11
194.77948580997599
 21
64.660387446057939
 31
0.0
  0
LINE
  5
5391
  8
3
 10
179.86198580997601
 20
66.535332445251242
 30
0.0
 11
179.86198580997601
 21
91.324007579840995
 31
0.0
  0
LINE
  5
5392
  8
0
 10
178.77948580997599
 20
64.399485323088584
 30
0.0
 11
178.77948580997599
 21
91.324007579842814
 31
0.0
  0
LINE
  5
5393
  8
0
 10
178.77948580997599
 20
170.5353324452515
 30
0.0
 11
180.77948580997599
 21
172.53533244525121
 31
0.0
  0
LINE
  5
5394
  8
3
 10
179.86198580997601
 20
66.535332445251242
 30
0.0
 11
178.77948580997599
 21
64.660387446057939
 31
0.0
  0
LINE
  5
5395
  8
3
 10
179.86198580997601
 20
104.3240075798564
 30
0.0
 11
179.86198580997601
 21
171.61783244525111
 31
0.0
  0
LINE
  5
5396
  8
0
 10
178.77948580997599
 20
104.32400757985459
 30
0.0
 11
178.77948580997599
 21
170.5353324452515
 31
0.0
  0
LINE
  5
5397
  8
0
 10
194.77948580997599
 20
104.3240075798814
 30
0.0
 11
194.77948580997599
 21
170.53533244525099
 31
0.0
  0
LINE
  5
5398
  8
3
 10
193.69698580997601
 20
104.32400757987961
 30
0.0
 11
193.69698580997601
 21
171.617832445251
 31
0.0
  0
LINE
  5
5399
  8
0
 10
71.42990213706581
 20
279.71054888583012
 30
0.0
 11
57.573495676514881
 21
279.71054888583012
 31
0.0
  0
LINE
  5
539A
  8
0
 10
57.573495676514881
 20
279.71054888583012
 30
0.0
 11
50.645292446239303
 21
267.71054888583012
 31
0.0
  0
LINE
  5
539B
  8
0
 10
50.645292446239303
 20
267.71054888583012
 30
0.0
 11
57.573495676514881
 21
255.71054888583009
 31
0.0
  0
LINE
  5
539C
  8
0
 10
57.573495676514881
 20
255.71054888583009
 30
0.0
 11
71.42990213706581
 21
255.71054888583009
 31
0.0
  0
LINE
  5
539D
  8
0
 10
71.42990213706581
 20
255.71054888583009
 30
0.0
 11
78.358105367341423
 21
267.71054888583012
 31
0.0
  0
LINE
  5
539E
  8
0
 10
78.358105367341423
 20
267.71054888583012
 30
0.0
 11
71.42990213706581
 21
279.71054888583012
 31
0.0
  0
CIRCLE
  5
539F
  8
0
 10
64.501698906790352
 20
267.71054888583012
 30
0.0
 40
11.5
  0
CIRCLE
  5
53A0
  8
0
 10
64.501698906790352
 20
267.71054888583012
 30
0.0
 40
8.0
  0
CIRCLE
  5
53A1
  8
3
 10
64.501698906790352
 20
267.71054888583012
 30
0.0
 40
6.9175000000000004
  0
TEXT
  5
56D2
  8
0
 62
     3
 10
0.0
 20
0.0
 30
0.0
 40
10.0
  1
LVA80S16B
  7
STANDARD1
  0
ENDSEC
  0
EOF
