  0
SECTION
  2
HEADER
  9
$ACADVER
  1
AC1009
  9
$INSBASE
 10
0.0
 20
0.0
 30
0.0
  9
$EXTMIN
 10
0.0
 20
-2.960436562073669
 30
0.0
  9
$EXTMAX
 10
219.82278880761129
 20
283.14116024357162
 30
0.0
  9
$LIMMIN
 10
0.0
 20
0.0
  9
$LIMMAX
 10
375.0
 20
270.0
  9
$ORTHOMODE
 70
     1
  9
$REGENMODE
 70
     1
  9
$FILLMODE
 70
     1
  9
$QTEXTMODE
 70
     0
  9
$MIRRTEXT
 70
     0
  9
$DRAGMODE
 70
     2
  9
$LTSCALE
 40
6.0
  9
$OSMODE
 70
    37
  9
$ATTMODE
 70
     1
  9
$TEXTSIZE
 40
0.2
  9
$TRACEWID
 40
0.05
  9
$TEXTSTYLE
  7
STANDARD
  9
$CLAYER
  8
0
  9
$CELTYPE
  6
BYLAYER
  9
$CECOLOR
 62
   256
  9
$DIMSCALE
 40
1.0
  9
$DIMASZ
 40
3.0
  9
$DIMEXO
 40
1.0
  9
$DIMDLI
 40
6.0
  9
$DIMRND
 40
0.0
  9
$DIMDLE
 40
0.0
  9
$DIMEXE
 40
1.0
  9
$DIMTP
 40
495.0
  9
$DIMTM
 40
0.0
  9
$DIMTXT
 40
3.0
  9
$DIMCEN
 40
0.0
  9
$DIMTSZ
 40
0.0
  9
$DIMTOL
 70
     0
  9
$DIMLIM
 70
     0
  9
$DIMTIH
 70
     0
  9
$DIMTOH
 70
     0
  9
$DIMSE1
 70
     0
  9
$DIMSE2
 70
     0
  9
$DIMTAD
 70
     1
  9
$DIMZIN
 70
     0
  9
$DIMBLK
  1

  9
$DIMASO
 70
     0
  9
$DIMSHO
 70
     0
  9
$DIMPOST
  1

  9
$DIMAPOST
  1

  9
$DIMALT
 70
     0
  9
$DIMALTD
 70
     2
  9
$DIMALTF
 40
25.399999999999999
  9
$DIMLFAC
 40
1.0
  9
$DIMTOFL
 70
     1
  9
$DIMTVP
 40
0.0
  9
$DIMTIX
 70
     1
  9
$DIMSOXD
 70
     0
  9
$DIMSAH
 70
     0
  9
$DIMBLK1
  1

  9
$DIMBLK2
  1

  9
$DIMSTYLE
  2
STANDARD
  9
$DIMCLRD
 70
     0
  9
$DIMCLRE
 70
     0
  9
$DIMCLRT
 70
     4
  9
$DIMTFAC
 40
1.0
  9
$DIMGAP
 40
1.0
  9
$LUNITS
 70
     2
  9
$LUPREC
 70
     4
  9
$SKETCHINC
 40
0.1
  9
$FILLETRAD
 40
2.0
  9
$AUNITS
 70
     0
  9
$AUPREC
 70
     0
  9
$MENU
  1
C:\R13\WIN\SUPPORT\ACAD-I
  9
$ELEVATION
 40
0.0
  9
$PELEVATION
 40
0.0
  9
$THICKNESS
 40
0.0
  9
$LIMCHECK
 70
     0
  9
$BLIPMODE
 70
     0
  9
$CHAMFERA
 40
0.0
  9
$CHAMFERB
 40
0.0
  9
$SKPOLY
 70
     0
  9
$TDCREATE
 40
2451962.4536084612
  9
$TDUPDATE
 40
2456598.7197111002
  9
$TDINDWG
 40
0.0395024769
  9
$TDUSRTIMER
 40
2456598.0439599999
  9
$USRTIMER
 70
     1
  9
$ANGBASE
 50
0.0
  9
$ANGDIR
 70
     0
  9
$PDMODE
 70
     0
  9
$PDSIZE
 40
0.0
  9
$PLINEWID
 40
0.0
  9
$COORDS
 70
     1
  9
$SPLFRAME
 70
     0
  9
$SPLINETYPE
 70
     6
  9
$SPLINESEGS
 70
     8
  9
$ATTDIA
 70
     0
  9
$ATTREQ
 70
     1
  9
$HANDLING
 70
     1
  9
$HANDSEED
  5
4F7C
  9
$SURFTAB1
 70
     6
  9
$SURFTAB2
 70
     6
  9
$SURFTYPE
 70
     6
  9
$SURFU
 70
     6
  9
$SURFV
 70
     6
  9
$UCSNAME
  2

  9
$UCSORG
 10
0.0
 20
0.0
 30
0.0
  9
$UCSXDIR
 10
1.0
 20
0.0
 30
0.0
  9
$UCSYDIR
 10
0.0
 20
1.0
 30
0.0
  9
$PUCSNAME
  2

  9
$PUCSORG
 10
0.0
 20
0.0
 30
0.0
  9
$PUCSXDIR
 10
1.0
 20
0.0
 30
0.0
  9
$PUCSYDIR
 10
0.0
 20
1.0
 30
0.0
  9
$USERI1
 70
     4
  9
$USERI2
 70
     1
  9
$USERI3
 70
     0
  9
$USERI4
 70
     0
  9
$USERI5
 70
     0
  9
$USERR1
 40
1.0
  9
$USERR2
 40
3.0
  9
$USERR3
 40
3.0
  9
$USERR4
 40
3.0
  9
$USERR5
 40
10.0
  9
$WORLDVIEW
 70
     1
  9
$SHADEDGE
 70
     3
  9
$SHADEDIF
 70
    70
  9
$TILEMODE
 70
     1
  9
$MAXACTVP
 70
    16
  9
$PLIMCHECK
 70
     0
  9
$PEXTMIN
 10
1.0000000000000000E+020
 20
1.0000000000000000E+020
 30
1.0000000000000000E+020
  9
$PEXTMAX
 10
-1.0000000000000000E+020
 20
-1.0000000000000000E+020
 30
-1.0000000000000000E+020
  9
$PLIMMIN
 10
0.0
 20
0.0
  9
$PLIMMAX
 10
12.0
 20
9.0
  9
$UNITMODE
 70
     0
  9
$VISRETAIN
 70
     0
  9
$PLINEGEN
 70
     0
  9
$PSLTSCALE
 70
     0
  0
ENDSEC
  0
SECTION
  2
TABLES
  0
TABLE
  2
VPORT
 70
     1
  0
VPORT
  2
*ACTIVE
 70
     0
 10
0.0
 20
0.0
 11
1.0
 21
1.0
 12
187.49427839065231
 22
179.606968490447
 13
0.0
 23
0.0
 14
10.0
 24
10.0
 15
10.0
 25
10.0
 16
0.0
 26
0.0
 36
1.0
 17
0.0
 27
0.0
 37
0.0
 40
368.32264598106008
 41
1.755244755244755
 42
50.0
 43
0.0
 44
0.0
 50
0.0
 51
0.0
 71
    16
 72
   100
 73
     1
 74
     0
 75
     0
 76
     0
 77
     0
 78
     0
  0
ENDTAB
  0
TABLE
  2
LTYPE
 70
     3
  0
LTYPE
  2
CONTINUOUS
 70
     0
  3
Solid Line
 72
    65
 73
     0
 40
0.0
  0
LTYPE
  2
PHANTOM2
 70
     0
  3
___ _ _ ___ _ _ ___ _ _ ___ _ _
 72
    65
 73
     6
 40
1.25
 49
0.625
 49
-0.125
 49
0.125
 49
-0.125
 49
0.125
 49
-0.125
  0
LTYPE
  2
CENTER
 70
     0
  3
____ _ ____ _ ____ _ ____ _ ____ _ ____ _ ____
 72
    65
 73
     4
 40
2.0
 49
1.25
 49
-0.25
 49
0.25
 49
-0.25
  0
ENDTAB
  0
TABLE
  2
LAYER
 70
     3
  0
LAYER
  2
0
 70
     0
 62
     7
  6
CONTINUOUS
  0
LAYER
  2
1
 70
     0
 62
     1
  6
CENTER
  0
LAYER
  2
3
 70
     0
 62
     3
  6
CONTINUOUS
  0
ENDTAB
  0
TABLE
  2
STYLE
 70
     3
  0
STYLE
  2
STANDARD
 70
     0
 40
0.0
 41
1.0
 50
0.0
 71
     0
 42
0.2
  3
SIMPLEX
  4
BIGFONT
  0
STYLE
  2
ANNOTATIVE
 70
     0
 40
0.0
 41
1.0
 50
0.0
 71
     0
 42
0.2
  3
txt
  4

  0
STYLE
  2
STANDARD1
 70
     0
 40
0.0
 41
1.0
 50
0.0
 71
     0
 42
3.0
  3
txt
  4

  0
ENDTAB
  0
TABLE
  2
VIEW
 70
     0
  0
ENDTAB
  0
TABLE
  2
UCS
 70
     0
  0
ENDTAB
  0
TABLE
  2
APPID
 70
    29
  0
APPID
  2
ACAD
 70
     0
  0
APPID
  2
ACADANNOTATIVE
 70
     0
  0
APPID
  2
GENIUS_GENOREF_13
 70
     0
  0
APPID
  2
GENIUS_GENOENT_13
 70
     0
  0
APPID
  2
GENIUS_GENBH_13
 70
     0
  0
APPID
  2
GENIUS_GENOBJ_13
 70
     0
  0
APPID
  2
GENIUS_GENODEF_13
 70
     0
  0
APPID
  2
GENIUS_GENOLIS_13
 70
     0
  0
APPID
  2
GENIUS_GENOBJ-NBEHI-BHF_13
 70
     0
  0
APPID
  2
GENIUS_GENOBJ-NBEHI-BHB_13
 70
     0
  0
APPID
  2
GENIUS_GENOBJ-F-PART_13
 70
     0
  0
APPID
  2
GENIUS_GEFSTDP_13
 70
     0
  0
APPID
  2
GENIUS_GENOBJ-N-RSSYM_13
 70
     0
  0
APPID
  2
GENIUS_GENSYMENT_13
 70
     0
  0
APPID
  2
GENIUS_GENOBJ-N-TIT_13
 70
     0
  0
APPID
  2
GENIUS_GENTITLE_13
 70
     0
  0
APPID
  2
GENIUS_GENZVEED_13
 70
     0
  0
APPID
  2
GENIUS_GENOBJ-N-LEADER_13
 70
     0
  0
APPID
  2
GENIUS_GENOBJ-N-FIL_13
 70
     0
  0
APPID
  2
GENIUS_GENOBJ-N-SEC_13
 70
     0
  0
APPID
  2
GENIUS_GENOBJ-N-CRS_13
 70
     0
  0
APPID
  2
GENIUS_GENOBJ-N-ZOO_13
 70
     0
  0
APPID
  2
GENIUS_GENZOO_13
 70
     0
  0
APPID
  2
GENIUS_GENOBJ-F-TOL_13
 70
     0
  0
APPID
  2
GENIUS_GENFIL_13
 70
     0
  0
APPID
  2
GENIUS_GENOBJ-N-CHA_13
 70
     0
  0
APPID
  2
ACAD_EXEMPT_FROM_CAD_STANDARDS
 70
     0
  0
APPID
  2
ACAD_MLEADERVER
 70
     0
  0
APPID
  2
ACAD_NAV_VCDISPLAY
 70
     0
  0
ENDTAB
  0
TABLE
  2
DIMSTYLE
 70
     2
  0
DIMSTYLE
  2
STANDARD
 70
     0
  3

  4

  5

  6

  7

 40
1.0
 41
0.18
 42
0.0625
 43
0.38
 44
0.18
 45
0.0
 46
0.0
 47
0.0
 48
0.0
140
0.18
141
0.09
142
0.0
143
25.399999999999999
144
1.0
145
0.0
146
1.0
147
0.09
 71
     0
 72
     0
 73
     1
 74
     1
 75
     0
 76
     0
 77
     0
 78
     0
170
     0
171
     2
172
     0
173
     0
174
     0
175
     0
176
     0
177
     0
178
     0
  0
DIMSTYLE
  2
ANNOTATIVE
 70
     0
  3

  4

  5

  6

  7

 40
1.0
 41
0.18
 42
0.0625
 43
0.38
 44
0.18
 45
0.0
 46
0.0
 47
0.0
 48
0.0
140
0.18
141
0.09
142
0.0
143
25.399999999999999
144
1.0
145
0.0
146
1.0
147
0.09
 71
     0
 72
     0
 73
     1
 74
     1
 75
     0
 76
     0
 77
     0
 78
     0
170
     0
171
     2
172
     0
173
     0
174
     0
175
     0
176
     0
177
     0
178
     0
  0
ENDTAB
  0
ENDSEC
  0
SECTION
  2
BLOCKS
  0
BLOCK
  8
0
  2
$MODEL_SPACE
 70
     0
 10
0.0
 20
0.0
 30
0.0
  3
$MODEL_SPACE
  1

  0
ENDBLK
  5
4E43
  8
0
  0
BLOCK
 67
     1
  8
0
  2
$PAPER_SPACE
 70
     0
 10
0.0
 20
0.0
 30
0.0
  3
$PAPER_SPACE
  1

  0
ENDBLK
  5
4E3F
 67
     1
  8
0
  0
ENDSEC
  0
SECTION
  2
ENTITIES
  0
LINE
  5
4AD3
  8
0
 10
185.3227888076114
 20
51.865004703776719
 30
0.0
 11
185.3227888076114
 21
55.865004703776208
 31
0.0
  0
LINE
  5
4AD4
  8
0
 10
174.3227888076114
 20
51.865004703776719
 30
0.0
 11
174.3227888076114
 21
55.865004703776208
 31
0.0
  0
ARC
  5
4AD5
  8
0
 10
173.76061098112041
 20
57.131412398893531
 30
0.0
 40
3.5781518477924039
 50
55.615752531961242
 51
115.6157525321741
  0
ARC
  5
4AD6
  8
0
 10
179.82278880761231
 20
47.33477902903207
 30
0.0
 40
13.374785217653811
 50
72.412046225995169
 51
107.5879537740048
  0
LINE
  5
4AD7
  8
0
 10
171.7398850389566
 20
60.08434946434658
 30
0.0
 11
173.09201957684331
 21
60.865004703776208
 31
0.0
  0
LINE
  5
4AD8
  8
0
 10
171.7398850389566
 20
56.6456599432057
 30
0.0
 11
173.09201957684331
 21
55.865004703776208
 31
0.0
  0
ARC
  5
4AD9
  8
0
 10
173.76061098112041
 20
59.598597008658878
 30
0.0
 40
3.5781518477924039
 50
244.38424746782579
 51
304.38424746803872
  0
ARC
  5
4ADA
  8
0
 10
179.82278880761231
 20
69.395230378520296
 30
0.0
 40
13.374785217653811
 50
252.4120462259952
 51
287.5879537740048
  0
LINE
  5
4ADB
  8
0
 10
171.7398850389566
 20
60.08434946434658
 30
0.0
 11
171.7398850389566
 21
56.6456599432057
 31
0.0
  0
LINE
  5
4ADC
  8
0
 10
175.78133692328561
 20
60.08434946434533
 30
0.0
 11
175.78133692328379
 21
56.645659943207527
 31
0.0
  0
LINE
  5
4ADD
  8
0
 10
183.8642406919368
 20
60.084349464347142
 30
0.0
 11
183.8642406919387
 21
56.645659943207527
 31
0.0
  0
LINE
  5
4ADE
  8
0
 10
187.90569257626609
 20
60.084349464346701
 30
0.0
 11
187.90569257626609
 21
56.6456599432057
 31
0.0
  0
ARC
  5
4ADF
  8
0
 10
185.88496663410211
 20
59.598597008658878
 30
0.0
 40
3.5781518477924039
 50
235.61575253196131
 51
295.61575253217421
  0
LINE
  5
4AE0
  8
0
 10
187.90569257626609
 20
56.6456599432057
 30
0.0
 11
186.55355803837941
 21
55.865004703776208
 31
0.0
  0
LINE
  5
4AE1
  8
0
 10
187.90569257626609
 20
60.08434946434658
 30
0.0
 11
186.55355803837941
 21
60.865004703776208
 31
0.0
  0
ARC
  5
4AE2
  8
0
 10
185.88496663410211
 20
57.131412398893531
 30
0.0
 40
3.5781518477924039
 50
64.384247467825787
 51
124.38424746803869
  0
LINE
  5
4AE3
  8
0
 10
173.09201957684209
 20
60.865004703776208
 30
0.0
 11
186.55355803837909
 21
60.865004703776208
 31
0.0
  0
LINE
  5
4AE4
  8
0
 10
186.55355803837941
 20
55.865004703776208
 30
0.0
 11
173.09201957684351
 21
55.865004703776208
 31
0.0
  0
ARC
  5
4AE5
  8
0
 10
184.0727888076112
 20
68.445160498061909
 30
0.0
 40
12.275506638416489
 50
69.743841999604243
 51
110.2561580003956
  0
LINE
  5
4AE6
  8
0
 10
188.3227888076114
 20
80.720667136478468
 30
0.0
 11
188.07278880761029
 21
80.865004703776435
 31
0.0
  0
LINE
  5
4AE7
  8
0
 10
188.3227888076114
 20
73.009342271074047
 30
0.0
 11
188.07278880761029
 21
72.86500470377598
 31
0.0
  0
ARC
  5
4AE8
  8
0
 10
184.0727888076112
 20
85.284848909490506
 30
0.0
 40
12.275506638416489
 50
249.7438419996042
 51
290.25615800039589
  0
LINE
  5
4AE9
  8
0
 10
188.3227888076114
 20
80.720667136478468
 30
0.0
 11
188.3227888076112
 21
73.009342271074047
 31
0.0
  0
LINE
  5
4AEA
  8
0
 10
179.8227888076112
 20
79.961477757924044
 30
0.0
 11
179.8227888076112
 21
73.76853164962813
 31
0.0
  0
LINE
  5
4AEB
  8
0
 10
171.3227888076112
 20
80.720667136478468
 30
0.0
 11
171.3227888076112
 21
73.009342271074047
 31
0.0
  0
LINE
  5
4AEC
  8
0
 10
171.3227888076112
 20
73.009342271074047
 30
0.0
 11
171.57278880761231
 21
72.86500470377598
 31
0.0
  0
ARC
  5
4AED
  8
0
 10
175.5727888076112
 20
85.284848909490506
 30
0.0
 40
12.275506638416489
 50
249.7438419996042
 51
290.25615800039589
  0
LINE
  5
4AEE
  8
0
 10
171.3227888076112
 20
80.720667136478468
 30
0.0
 11
171.57278880761231
 21
80.865004703776435
 31
0.0
  0
ARC
  5
4AEF
  8
0
 10
175.5727888076112
 20
68.445160498061909
 30
0.0
 40
12.275506638416489
 50
69.743841999604243
 51
110.2561580003956
  0
LINE
  5
4AF0
  8
0
 10
188.07278880761029
 20
80.865004703776435
 30
0.0
 11
171.57278880761231
 21
80.865004703776435
 31
0.0
  0
LINE
  5
4AF1
  8
0
 10
171.57278880761109
 20
72.865004703776663
 30
0.0
 11
188.0727888076112
 21
72.865004703776663
 31
0.0
  0
LINE
  5
4AF2
  8
0
 10
174.8227888076112
 20
157.3650047037768
 30
0.0
 11
184.8227888076112
 21
157.36500470377661
 31
0.0
  0
LINE
  5
4AF3
  8
3
 10
184.01078880761119
 20
62.865004703776322
 30
0.0
 11
184.8227888076112
 21
61.458579448030491
 31
0.0
  0
LINE
  5
4AF4
  8
3
 10
175.6347888076111
 20
62.865004703776322
 30
0.0
 11
174.8227888076112
 21
61.458579448030491
 31
0.0
  0
LINE
  5
4AF5
  8
0
 10
174.8227888076112
 20
62.865004703776322
 30
0.0
 11
184.8227888076112
 21
62.865004703776208
 31
0.0
  0
LINE
  5
4AF6
  8
0
 10
183.3227888076112
 20
158.86500470377661
 30
0.0
 11
184.8227888076112
 21
157.36500470377661
 31
0.0
  0
LINE
  5
4AF7
  8
0
 10
174.8227888076112
 20
157.3650047037768
 30
0.0
 11
176.3227888076112
 21
158.86500470377669
 31
0.0
  0
LINE
  5
4AF8
  8
3
 10
175.6347888076111
 20
62.865004703776208
 30
0.0
 11
175.6347888076113
 21
72.865004703776663
 31
0.0
  0
LINE
  5
4AF9
  8
3
 10
184.0107888076115
 20
62.865004703776208
 30
0.0
 11
184.0107888076115
 21
72.865004703776663
 31
0.0
  0
LINE
  5
4AFA
  8
0
 10
176.3227888076112
 20
158.86500470377669
 30
0.0
 11
183.3227888076112
 21
158.86500470377661
 31
0.0
  0
LINE
  5
4AFB
  8
0
 10
174.8227888076112
 20
60.865004703776208
 30
0.0
 11
174.8227888076112
 21
72.865004703776663
 31
0.0
  0
LINE
  5
4AFC
  8
0
 10
184.8227888076112
 20
60.865004703776208
 30
0.0
 11
184.8227888076112
 21
72.865004703776663
 31
0.0
  0
LINE
  5
4AFD
  8
3
 10
184.0107888076115
 20
80.865004703776435
 30
0.0
 11
184.01078880761119
 21
158.1770047037765
 31
0.0
  0
LINE
  5
4AFE
  8
0
 10
184.8227888076112
 20
80.865004703776435
 30
0.0
 11
184.8227888076112
 21
157.36500470377661
 31
0.0
  0
LINE
  5
4AFF
  8
0
 10
174.8227888076112
 20
80.865004703776435
 30
0.0
 11
174.8227888076112
 21
157.3650047037768
 31
0.0
  0
LINE
  5
4B00
  8
3
 10
175.6347888076111
 20
80.865004703776435
 30
0.0
 11
175.6347888076111
 21
158.17700470377659
 31
0.0
  0
LINE
  5
4B01
  8
0
 10
52.54500190442559
 20
80.865004703776634
 30
0.0
 11
52.54500190442559
 21
157.3650047037768
 31
0.0
  0
LINE
  5
4B02
  8
3
 10
53.357001904425481
 20
80.865004703776634
 30
0.0
 11
53.357001904425481
 21
158.17700470377659
 31
0.0
  0
LINE
  5
4B03
  8
0
 10
62.54500190442559
 20
80.865004703776435
 30
0.0
 11
62.54500190442559
 21
157.36500470377661
 31
0.0
  0
LINE
  5
4B04
  8
3
 10
61.733001904425677
 20
80.865004703776435
 30
0.0
 11
61.733001904425677
 21
158.1770047037765
 31
0.0
  0
LINE
  5
4B05
  8
0
 10
52.54500190442559
 20
157.3650047037768
 30
0.0
 11
62.54500190442559
 21
157.36500470377661
 31
0.0
  0
LINE
  5
4B06
  8
3
 10
61.733001904425677
 20
62.865004703776883
 30
0.0
 11
62.54500190442559
 21
61.458579448031159
 31
0.0
  0
LINE
  5
4B07
  8
3
 10
53.357001904425481
 20
62.865004703776883
 30
0.0
 11
52.54500190442559
 21
61.458579448031159
 31
0.0
  0
LINE
  5
4B08
  8
0
 10
52.54500190442559
 20
62.865004703776883
 30
0.0
 11
62.54500190442559
 21
62.865004703776783
 31
0.0
  0
LINE
  5
4B09
  8
0
 10
61.04500190442559
 20
158.86500470377661
 30
0.0
 11
62.54500190442559
 21
157.36500470377661
 31
0.0
  0
LINE
  5
4B0A
  8
0
 10
52.54500190442559
 20
157.3650047037768
 30
0.0
 11
54.04500190442559
 21
158.86500470377669
 31
0.0
  0
LINE
  5
4B0B
  8
0
 10
52.54500190442559
 20
60.865004703776549
 30
0.0
 11
52.54500190442559
 21
72.865004703776663
 31
0.0
  0
LINE
  5
4B0C
  8
3
 10
53.357001904425481
 20
62.865004703776883
 30
0.0
 11
53.357001904425481
 21
72.865004703776663
 31
0.0
  0
LINE
  5
4B0D
  8
3
 10
61.733001904425677
 20
62.865004703776783
 30
0.0
 11
61.733001904425677
 21
72.865004703776663
 31
0.0
  0
LINE
  5
4B0E
  8
0
 10
62.54500190442559
 20
60.865004703776549
 30
0.0
 11
62.54500190442559
 21
72.865004703776663
 31
0.0
  0
LINE
  5
4B0F
  8
0
 10
54.04500190442559
 20
158.86500470377669
 30
0.0
 11
61.04500190442559
 21
158.86500470377661
 31
0.0
  0
LINE
  5
4B10
  8
0
 10
65.795001904426499
 20
72.865004703776663
 30
0.0
 11
49.29500190442581
 21
72.865004703776663
 31
0.0
  0
LINE
  5
4B11
  8
0
 10
49.295001904426158
 20
80.865004703776634
 30
0.0
 11
65.795001904426499
 21
80.865004703776435
 31
0.0
  0
ARC
  5
4B12
  8
0
 10
64.906217836593896
 20
76.37576846415503
 30
0.0
 40
4.3448986723233833
 50
64.3842474678912
 51
124.3842474680048
  0
LINE
  5
4B13
  8
0
 10
67.359956480649771
 20
79.961477757924399
 30
0.0
 11
65.79500190442613
 21
80.865004703776634
 31
0.0
  0
LINE
  5
4B14
  8
0
 10
67.359956480649771
 20
73.768531649628699
 30
0.0
 11
65.79500190442613
 21
72.865004703776435
 31
0.0
  0
ARC
  5
4B15
  8
0
 10
64.906217836593896
 20
77.35424094339804
 30
0.0
 40
4.3448986723233833
 50
235.61575253199521
 51
295.61575253210862
  0
LINE
  5
4B16
  8
0
 10
67.359956480649771
 20
79.961477757924399
 30
0.0
 11
67.359956480649771
 21
73.768531649628699
 31
0.0
  0
LINE
  5
4B17
  8
0
 10
62.452479192538931
 20
79.961477757924399
 30
0.0
 11
62.452479192538348
 21
73.768531649628471
 31
0.0
  0
LINE
  5
4B18
  8
0
 10
52.637524616313371
 20
79.961477757924399
 30
0.0
 11
52.637524616313932
 21
73.768531649628471
 31
0.0
  0
LINE
  5
4B19
  8
0
 10
47.730047328202538
 20
79.961477757924399
 30
0.0
 11
47.730047328202538
 21
73.768531649628699
 31
0.0
  0
ARC
  5
4B1A
  8
0
 10
57.54500190442559
 20
89.250152892541223
 30
0.0
 40
16.24081062146659
 50
252.4120462260268
 51
287.5879537739724
  0
ARC
  5
4B1B
  8
0
 10
50.183785972258427
 20
77.35424094339804
 30
0.0
 40
4.3448986723233833
 50
244.3842474678913
 51
304.38424746800479
  0
LINE
  5
4B1C
  8
0
 10
47.730047328202538
 20
73.768531649628699
 30
0.0
 11
49.295001904426158
 21
72.865004703776435
 31
0.0
  0
LINE
  5
4B1D
  8
0
 10
47.730047328202538
 20
79.961477757924399
 30
0.0
 11
49.295001904426158
 21
80.865004703776634
 31
0.0
  0
ARC
  5
4B1E
  8
0
 10
57.54500190442559
 20
64.479856515011875
 30
0.0
 40
16.24081062146659
 50
72.412046226026817
 51
107.5879537739724
  0
ARC
  5
4B1F
  8
0
 10
50.183785972258427
 20
76.37576846415503
 30
0.0
 40
4.3448986723233833
 50
55.615752531995213
 51
115.6157525321087
  0
LINE
  5
4B20
  8
0
 10
63.045001904425462
 20
51.865004703776719
 30
0.0
 11
63.045001904425462
 21
55.865004703776549
 31
0.0
  0
LINE
  5
4B21
  8
0
 10
52.045001904425483
 20
51.865004703776719
 30
0.0
 11
52.045001904425483
 21
55.865004703776549
 31
0.0
  0
LINE
  5
4B22
  8
0
 10
57.545001904425362
 20
60.084349464347142
 30
0.0
 11
57.545001904425362
 21
56.645659943205928
 31
0.0
  0
LINE
  5
4B23
  8
0
 10
50.545001904425362
 20
60.70956424668622
 30
0.0
 11
50.545001904425362
 21
56.020445160866743
 31
0.0
  0
LINE
  5
4B24
  8
0
 10
64.545001904425362
 20
60.70956424668622
 30
0.0
 11
64.545001904425362
 21
56.020445160866743
 31
0.0
  0
LINE
  5
4B25
  8
0
 10
64.275771135193395
 20
60.865004703776549
 30
0.0
 11
50.81423267365733
 21
60.865004703776549
 31
0.0
  0
ARC
  5
4B26
  8
0
 10
54.045001904425462
 20
50.600323485648907
 30
0.0
 40
10.10924076103746
 50
69.743841999583083
 51
110.2561580004169
  0
LINE
  5
4B27
  8
0
 10
50.545001904425362
 20
60.70956424668622
 30
0.0
 11
50.81423267365733
 21
60.865004703776549
 31
0.0
  0
LINE
  5
4B28
  8
0
 10
64.545001904425362
 20
60.70956424668622
 30
0.0
 11
64.275771135193395
 21
60.865004703776549
 31
0.0
  0
ARC
  5
4B29
  8
0
 10
61.045001904425249
 20
50.600323485648907
 30
0.0
 40
10.10924076103746
 50
69.743841999583083
 51
110.2561580004169
  0
LINE
  5
4B2A
  8
0
 10
64.275771135193395
 20
55.865004703776549
 30
0.0
 11
50.81423267365733
 21
55.865004703776549
 31
0.0
  0
ARC
  5
4B2B
  8
0
 10
54.045001904425462
 20
66.129685921904183
 30
0.0
 40
10.10924076103746
 50
249.74384199958311
 51
290.25615800041692
  0
LINE
  5
4B2C
  8
0
 10
50.545001904425362
 20
56.020445160866743
 30
0.0
 11
50.81423267365733
 21
55.865004703776549
 31
0.0
  0
LINE
  5
4B2D
  8
0
 10
64.545001904425362
 20
56.020445160866743
 30
0.0
 11
64.275771135193395
 21
55.865004703776549
 31
0.0
  0
ARC
  5
4B2E
  8
0
 10
61.045001904425249
 20
66.129685921904183
 30
0.0
 40
10.10924076103746
 50
249.74384199958311
 51
290.25615800041692
  0
CIRCLE
  5
4B2F
  8
0
 10
57.54500190442559
 20
237.4268745292857
 30
0.0
 40
8.25
  0
LINE
  5
4B30
  8
0
 10
47.730047328202097
 20
237.4268745292857
 30
0.0
 11
52.637524616313733
 21
228.92687452928581
 31
0.0
  0
LINE
  5
4B31
  8
0
 10
52.637524616313833
 20
245.9268745292857
 30
0.0
 11
47.730047328202097
 21
237.4268745292857
 31
0.0
  0
LINE
  5
4B32
  8
0
 10
62.45247919253746
 20
245.9268745292857
 30
0.0
 11
52.637524616313833
 21
245.9268745292857
 31
0.0
  0
LINE
  5
4B33
  8
0
 10
67.359956480649316
 20
237.42687452928581
 30
0.0
 11
62.45247919253746
 21
245.9268745292857
 31
0.0
  0
LINE
  5
4B34
  8
0
 10
62.45247919253746
 20
228.92687452928561
 30
0.0
 11
67.359956480649316
 21
237.42687452928581
 31
0.0
  0
LINE
  5
4B35
  8
0
 10
52.637524616313733
 20
228.92687452928581
 30
0.0
 11
62.45247919253746
 21
228.92687452928561
 31
0.0
  0
CIRCLE
  5
4B36
  8
3
 10
57.54500190442559
 20
237.4268745292857
 30
0.0
 40
4.1879999999999979
  0
CIRCLE
  5
4B37
  8
0
 10
57.54500190442559
 20
237.4268745292857
 30
0.0
 40
5.0
  0
LINE
  5
4B47
  8
0
 10
97.545001904425604
 20
27.865004703776719
 30
0.0
 11
17.54500190442559
 21
27.865004703776719
 31
0.0
  0
LINE
  5
4B48
  8
0
 10
97.545001904425604
 20
27.865004703776719
 30
0.0
 11
97.545001904425604
 21
36.709709372066357
 31
0.0
  0
CIRCLE
  5
4B4A
  8
0
 10
57.54500190442559
 20
237.4268745292857
 30
0.0
 40
40.00000000000005
  0
LINE
  5
4B4B
  8
1
 10
57.54500190442559
 20
283.14116024357162
 30
0.0
 11
57.54500190442559
 21
191.71258881499989
 31
0.0
  0
LINE
  5
4B4C
  8
1
 10
103.2592876187113
 20
237.4268745292857
 30
0.0
 11
11.83071619013981
 21
237.4268745292857
 31
0.0
  0
LINE
  5
4B4D
  8
0
 10
91.045001904425604
 20
39.896508470311289
 30
0.0
 11
24.04500190442559
 21
39.896508470311289
 31
0.0
  0
LINE
  5
4B4E
  8
0
 10
85.04500190442559
 20
44.267533432376638
 30
0.0
 11
30.04500190442559
 21
44.267533432376638
 31
0.0
  0
LINE
  5
4B4F
  8
0
 10
78.395444955501276
 20
47.163743302036842
 30
0.0
 11
36.694558853349932
 21
47.163743302036842
 31
0.0
  0
LINE
  5
4B50
  8
0
 10
71.54500190442559
 20
51.865004703776719
 30
0.0
 11
43.54500190442559
 21
51.865004703776719
 31
0.0
  0
LINE
  5
4B51
  8
0
 10
91.045001904425604
 20
39.896508470311289
 30
0.0
 11
91.045001904425604
 21
40.73789555105872
 31
0.0
  0
LINE
  5
4B52
  8
0
 10
91.045001904425604
 20
39.896508470311289
 30
0.0
 11
96.903980983734513
 21
37.643054978269447
 31
0.0
  0
LINE
  5
4B53
  8
0
 10
85.04500190442559
 20
44.267533432376638
 30
0.0
 11
90.480478086813719
 21
41.63809580354296
 31
0.0
  0
LINE
  5
4B54
  8
0
 10
78.395444955501276
 20
47.163743302036842
 30
0.0
 11
84.273101017893623
 21
45.786754882650591
 31
0.0
  0
LINE
  5
4B55
  8
0
 10
72.54500190442559
 20
50.267533432376652
 30
0.0
 11
42.545001904425582
 21
50.267533432376581
 31
0.0
  0
LINE
  5
4B56
  8
0
 10
72.54500190442559
 20
50.267533432376652
 30
0.0
 11
77.705165454215589
 21
48.586673147585479
 31
0.0
  0
LINE
  5
4B57
  8
0
 10
72.54500190442559
 20
50.865004703776648
 30
0.0
 11
72.54500190442559
 21
50.26753343237668
 31
0.0
  0
LINE
  5
4B58
  8
0
 10
85.04500190442559
 20
44.267533432376638
 30
0.0
 11
85.04500190442559
 21
44.813116965129311
 31
0.0
  0
LINE
  5
4B59
  8
0
 10
78.395444955501276
 20
47.163743302036842
 30
0.0
 11
78.395444955501276
 21
47.635845501439242
 31
0.0
  0
ARC
  5
4B5A
  8
0
 10
71.54500190442559
 20
50.865004703776712
 30
0.0
 40
1.0
 50
359.99999999999881
 51
90.0
  0
ARC
  5
4B5B
  8
0
 10
77.395444955501276
 20
47.635845501439242
 30
0.0
 40
1.0
 50
0.0
 51
71.957612741641725
  0
ARC
  5
4B5C
  8
0
 10
84.045001904425604
 20
44.813116965129311
 30
0.0
 40
1.0
 50
0.0
 51
76.814815600247385
  0
ARC
  5
4B5D
  8
0
 10
96.545001904425604
 20
36.709709372066357
 30
0.0
 40
1.0
 50
0.0
 51
68.962488974578363
  0
ARC
  5
4B5E
  8
0
 10
90.045001904425604
 20
40.73789555105872
 30
0.0
 40
1.0
 50
0.0
 51
64.184402028349112
  0
ARC
  5
4B60
  8
0
 10
25.04500190442559
 20
40.73789555105872
 30
0.0
 40
1.0
 50
115.8155979716511
 51
180.0
  0
ARC
  5
4B61
  8
0
 10
18.545001904425469
 20
36.709709372066357
 30
0.0
 40
1.0
 50
111.03751102542159
 51
180.0
  0
ARC
  5
4B62
  8
0
 10
31.04500190442559
 20
44.813116965129311
 30
0.0
 40
1.0
 50
103.1851843997528
 51
180.0
  0
ARC
  5
4B63
  8
0
 10
37.694558853349932
 20
47.635845501439242
 30
0.0
 40
1.0
 50
108.0423872583583
 51
180.0
  0
ARC
  5
4B64
  8
0
 10
43.54500190442559
 20
50.865004703776712
 30
0.0
 40
1.0
 50
90.0
 51
180.0000000000008
  0
LINE
  5
4B65
  8
0
 10
36.694558853349932
 20
47.163743302036842
 30
0.0
 11
36.694558853349932
 21
47.635845501439242
 31
0.0
  0
LINE
  5
4B66
  8
0
 10
30.04500190442559
 20
44.267533432376638
 30
0.0
 11
30.04500190442559
 21
44.813116965129311
 31
0.0
  0
LINE
  5
4B67
  8
0
 10
42.545001904425582
 20
50.865004703776648
 30
0.0
 11
42.545001904425582
 21
50.26753343237668
 31
0.0
  0
LINE
  5
4B68
  8
0
 10
42.545001904425582
 20
50.267533432376652
 30
0.0
 11
37.384838354635583
 21
48.586673147585479
 31
0.0
  0
LINE
  5
4B69
  8
0
 10
36.694558853349932
 20
47.163743302036842
 30
0.0
 11
30.816902790957439
 21
45.786754882650591
 31
0.0
  0
LINE
  5
4B6A
  8
0
 10
30.04500190442559
 20
44.267533432376638
 30
0.0
 11
24.609525722037461
 21
41.63809580354296
 31
0.0
  0
LINE
  5
4B6B
  8
0
 10
24.04500190442559
 20
39.896508470311289
 30
0.0
 11
18.186022825116648
 21
37.643054978269447
 31
0.0
  0
LINE
  5
4B6C
  8
0
 10
24.04500190442559
 20
39.896508470311289
 30
0.0
 11
24.04500190442559
 21
40.73789555105872
 31
0.0
  0
LINE
  5
4B6D
  8
0
 10
17.54500190442559
 20
27.865004703776719
 30
0.0
 11
17.545001904425462
 21
36.709709372066357
 31
0.0
  0
CIRCLE
  5
4B6F
  8
0
 10
57.54500190442559
 20
237.4268745292857
 30
0.0
 40
33.5
  0
CIRCLE
  5
4B70
  8
0
 10
57.54500190442559
 20
237.4268745292857
 30
0.0
 40
27.5
  0
CIRCLE
  5
4B71
  8
0
 10
57.54500190442559
 20
237.4268745292857
 30
0.0
 40
20.850443051075668
  0
CIRCLE
  5
4B72
  8
0
 10
57.54500190442559
 20
237.4268745292857
 30
0.0
 40
14.99999999999997
  0
LINE
  5
4B73
  8
1
 10
57.54500190442559
 20
22.865004703776719
 30
0.0
 11
57.54500190442559
 21
163.86500470377661
 31
0.0
  0
LINE
  5
4B74
  8
1
 10
179.8227888076112
 20
22.865004703776719
 30
0.0
 11
179.8227888076112
 21
163.86500470377661
 31
0.0
  0
LINE
  5
4B76
  8
0
 10
139.8227888076112
 20
27.865004703776719
 30
0.0
 11
139.8227888076112
 21
36.709709372066357
 31
0.0
  0
LINE
  5
4B77
  8
0
 10
146.3227888076112
 20
39.896508470311289
 30
0.0
 11
146.3227888076112
 21
40.73789555105872
 31
0.0
  0
LINE
  5
4B78
  8
0
 10
146.3227888076112
 20
39.896508470311289
 30
0.0
 11
140.46380972830229
 21
37.643054978269447
 31
0.0
  0
LINE
  5
4B79
  8
0
 10
152.3227888076112
 20
44.267533432376638
 30
0.0
 11
146.8873126252231
 21
41.63809580354296
 31
0.0
  0
LINE
  5
4B7A
  8
0
 10
158.9723457565355
 20
47.163743302036842
 30
0.0
 11
153.09468969414311
 21
45.786754882650591
 31
0.0
  0
LINE
  5
4B7B
  8
0
 10
164.8227888076112
 20
50.267533432376652
 30
0.0
 11
159.66262525782119
 21
48.586673147585479
 31
0.0
  0
LINE
  5
4B7C
  8
0
 10
164.8227888076112
 20
50.865004703776648
 30
0.0
 11
164.8227888076112
 21
50.26753343237668
 31
0.0
  0
LINE
  5
4B7D
  8
0
 10
152.3227888076112
 20
44.267533432376638
 30
0.0
 11
152.3227888076112
 21
44.813116965129311
 31
0.0
  0
LINE
  5
4B7E
  8
0
 10
158.9723457565355
 20
47.163743302036842
 30
0.0
 11
158.9723457565355
 21
47.635845501439242
 31
0.0
  0
ARC
  5
4B7F
  8
0
 10
165.8227888076112
 20
50.865004703776712
 30
0.0
 40
1.0
 50
90.0
 51
180.0000000000008
  0
ARC
  5
4B80
  8
0
 10
159.9723457565355
 20
47.635845501439242
 30
0.0
 40
1.0
 50
108.04238725835749
 51
180.0
  0
ARC
  5
4B81
  8
0
 10
153.3227888076112
 20
44.813116965129311
 30
0.0
 40
1.0
 50
103.1851843997526
 51
180.0
  0
ARC
  5
4B82
  8
0
 10
140.8227888076112
 20
36.709709372066357
 30
0.0
 40
1.0
 50
111.0375110254224
 51
180.0
  0
ARC
  5
4B83
  8
0
 10
147.3227888076112
 20
40.73789555105872
 30
0.0
 40
1.0
 50
115.8155979716509
 51
180.0
  0
ARC
  5
4B85
  8
0
 10
212.3227888076112
 20
40.73789555105872
 30
0.0
 40
1.0
 50
0.0
 51
64.184402028349112
  0
ARC
  5
4B86
  8
0
 10
218.82278880761129
 20
36.709709372066357
 30
0.0
 40
1.0
 50
0.0
 51
68.962488974577596
  0
ARC
  5
4B87
  8
0
 10
206.32278880761129
 20
44.813116965129311
 30
0.0
 40
1.0
 50
0.0
 51
76.814815600247385
  0
ARC
  5
4B88
  8
0
 10
199.6732318586869
 20
47.635845501439242
 30
0.0
 40
1.0
 50
0.0
 51
71.957612741642507
  0
ARC
  5
4B89
  8
0
 10
193.8227888076112
 20
50.865004703776712
 30
0.0
 40
1.0
 50
359.99999999999881
 51
90.0
  0
LINE
  5
4B8A
  8
0
 10
200.6732318586869
 20
47.163743302036842
 30
0.0
 11
200.6732318586869
 21
47.635845501439242
 31
0.0
  0
LINE
  5
4B8B
  8
0
 10
207.3227888076112
 20
44.267533432376638
 30
0.0
 11
207.3227888076112
 21
44.813116965129311
 31
0.0
  0
LINE
  5
4B8C
  8
0
 10
194.8227888076112
 20
50.865004703776648
 30
0.0
 11
194.8227888076112
 21
50.26753343237668
 31
0.0
  0
LINE
  5
4B8D
  8
0
 10
194.8227888076112
 20
50.267533432376652
 30
0.0
 11
199.98295235740119
 21
48.586673147585479
 31
0.0
  0
LINE
  5
4B8E
  8
0
 10
194.8227888076112
 20
50.267533432376652
 30
0.0
 11
164.8227888076112
 21
50.267533432376581
 31
0.0
  0
LINE
  5
4B8F
  8
0
 10
200.6732318586869
 20
47.163743302036842
 30
0.0
 11
206.55088792107921
 21
45.786754882650591
 31
0.0
  0
LINE
  5
4B90
  8
0
 10
207.3227888076112
 20
44.267533432376638
 30
0.0
 11
212.75826498999939
 21
41.63809580354296
 31
0.0
  0
LINE
  5
4B91
  8
0
 10
213.3227888076112
 20
39.896508470311289
 30
0.0
 11
219.1817678869202
 21
37.643054978269447
 31
0.0
  0
LINE
  5
4B92
  8
0
 10
213.3227888076112
 20
39.896508470311289
 30
0.0
 11
213.3227888076112
 21
40.73789555105872
 31
0.0
  0
LINE
  5
4B93
  8
0
 10
193.8227888076112
 20
51.865004703776719
 30
0.0
 11
165.8227888076112
 21
51.865004703776719
 31
0.0
  0
LINE
  5
4B94
  8
0
 10
200.6732318586869
 20
47.163743302036842
 30
0.0
 11
158.9723457565355
 21
47.163743302036842
 31
0.0
  0
LINE
  5
4B95
  8
0
 10
207.3227888076112
 20
44.267533432376638
 30
0.0
 11
152.3227888076112
 21
44.267533432376638
 31
0.0
  0
LINE
  5
4B96
  8
0
 10
213.3227888076112
 20
39.896508470311289
 30
0.0
 11
146.3227888076112
 21
39.896508470311289
 31
0.0
  0
LINE
  5
4B98
  8
0
 10
219.8227888076112
 20
27.865004703776719
 30
0.0
 11
219.8227888076112
 21
36.709709372066357
 31
0.0
  0
LINE
  5
4B99
  8
0
 10
219.8227888076112
 20
27.865004703776719
 30
0.0
 11
139.8227888076112
 21
27.865004703776719
 31
0.0
  0
TEXT
  5
4EC3
  8
0
 62
     3
 10
0.0
 20
0.0
 30
0.0
 40
10.0
  1
LVA80S10C
  7
STANDARD1
  0
ENDSEC
  0
EOF
