  0
SECTION
  2
HEADER
  9
$ACADVER
  1
AC1009
  9
$INSBASE
 10
0.0
 20
0.0
 30
0.0
  9
$EXTMIN
 10
0.0
 20
-2.960436562073669
 30
0.0
  9
$EXTMAX
 10
408.456582355742
 20
467.15885995951311
 30
0.0
  9
$LIMMIN
 10
0.0
 20
0.0
  9
$LIMMAX
 10
375.0
 20
270.0
  9
$ORTHOMODE
 70
     0
  9
$REGENMODE
 70
     1
  9
$FILLMODE
 70
     1
  9
$QTEXTMODE
 70
     0
  9
$MIRRTEXT
 70
     0
  9
$DRAGMODE
 70
     2
  9
$LTSCALE
 40
6.0
  9
$OSMODE
 70
  3071
  9
$ATTMODE
 70
     1
  9
$TEXTSIZE
 40
0.2
  9
$TRACEWID
 40
0.05
  9
$TEXTSTYLE
  7
STANDARD
  9
$CLAYER
  8
0
  9
$CELTYPE
  6
BYLAYER
  9
$CECOLOR
 62
   256
  9
$DIMSCALE
 40
1.0
  9
$DIMASZ
 40
3.0
  9
$DIMEXO
 40
1.0
  9
$DIMDLI
 40
6.0
  9
$DIMRND
 40
0.0
  9
$DIMDLE
 40
0.0
  9
$DIMEXE
 40
1.0
  9
$DIMTP
 40
495.0
  9
$DIMTM
 40
0.0
  9
$DIMTXT
 40
3.0
  9
$DIMCEN
 40
0.0
  9
$DIMTSZ
 40
0.0
  9
$DIMTOL
 70
     0
  9
$DIMLIM
 70
     0
  9
$DIMTIH
 70
     0
  9
$DIMTOH
 70
     0
  9
$DIMSE1
 70
     0
  9
$DIMSE2
 70
     0
  9
$DIMTAD
 70
     1
  9
$DIMZIN
 70
     0
  9
$DIMBLK
  1

  9
$DIMASO
 70
     0
  9
$DIMSHO
 70
     0
  9
$DIMPOST
  1

  9
$DIMAPOST
  1

  9
$DIMALT
 70
     0
  9
$DIMALTD
 70
     2
  9
$DIMALTF
 40
25.399999999999999
  9
$DIMLFAC
 40
1.0
  9
$DIMTOFL
 70
     1
  9
$DIMTVP
 40
0.0
  9
$DIMTIX
 70
     1
  9
$DIMSOXD
 70
     0
  9
$DIMSAH
 70
     0
  9
$DIMBLK1
  1

  9
$DIMBLK2
  1

  9
$DIMSTYLE
  2
STANDARD
  9
$DIMCLRD
 70
     0
  9
$DIMCLRE
 70
     0
  9
$DIMCLRT
 70
     4
  9
$DIMTFAC
 40
1.0
  9
$DIMGAP
 40
1.0
  9
$LUNITS
 70
     2
  9
$LUPREC
 70
     4
  9
$SKETCHINC
 40
0.1
  9
$FILLETRAD
 40
2.0
  9
$AUNITS
 70
     0
  9
$AUPREC
 70
     0
  9
$MENU
  1
C:\R13\WIN\SUPPORT\ACAD-I
  9
$ELEVATION
 40
0.0
  9
$PELEVATION
 40
0.0
  9
$THICKNESS
 40
0.0
  9
$LIMCHECK
 70
     0
  9
$BLIPMODE
 70
     0
  9
$CHAMFERA
 40
0.0
  9
$CHAMFERB
 40
0.0
  9
$SKPOLY
 70
     0
  9
$TDCREATE
 40
2451963.4637674768
  9
$TDUPDATE
 40
2456597.61256728
  9
$TDINDWG
 40
0.0341654977
  9
$TDUSRTIMER
 40
2456555.266325938
  9
$USRTIMER
 70
     1
  9
$ANGBASE
 50
0.0
  9
$ANGDIR
 70
     0
  9
$PDMODE
 70
     0
  9
$PDSIZE
 40
0.0
  9
$PLINEWID
 40
0.0
  9
$COORDS
 70
     1
  9
$SPLFRAME
 70
     0
  9
$SPLINETYPE
 70
     6
  9
$SPLINESEGS
 70
     8
  9
$ATTDIA
 70
     0
  9
$ATTREQ
 70
     1
  9
$HANDLING
 70
     1
  9
$HANDSEED
  5
AD75
  9
$SURFTAB1
 70
     6
  9
$SURFTAB2
 70
     6
  9
$SURFTYPE
 70
     6
  9
$SURFU
 70
     6
  9
$SURFV
 70
     6
  9
$UCSNAME
  2

  9
$UCSORG
 10
0.0
 20
0.0
 30
0.0
  9
$UCSXDIR
 10
1.0
 20
0.0
 30
0.0
  9
$UCSYDIR
 10
0.0
 20
1.0
 30
0.0
  9
$PUCSNAME
  2

  9
$PUCSORG
 10
0.0
 20
0.0
 30
0.0
  9
$PUCSXDIR
 10
1.0
 20
0.0
 30
0.0
  9
$PUCSYDIR
 10
0.0
 20
1.0
 30
0.0
  9
$USERI1
 70
     4
  9
$USERI2
 70
     1
  9
$USERI3
 70
     0
  9
$USERI4
 70
     0
  9
$USERI5
 70
     0
  9
$USERR1
 40
1.0
  9
$USERR2
 40
3.0
  9
$USERR3
 40
3.0
  9
$USERR4
 40
3.0
  9
$USERR5
 40
10.0
  9
$WORLDVIEW
 70
     1
  9
$SHADEDGE
 70
     3
  9
$SHADEDIF
 70
    70
  9
$TILEMODE
 70
     1
  9
$MAXACTVP
 70
    16
  9
$PLIMCHECK
 70
     0
  9
$PEXTMIN
 10
1.0000000000000000E+020
 20
1.0000000000000000E+020
 30
1.0000000000000000E+020
  9
$PEXTMAX
 10
-1.0000000000000000E+020
 20
-1.0000000000000000E+020
 30
-1.0000000000000000E+020
  9
$PLIMMIN
 10
0.0
 20
0.0
  9
$PLIMMAX
 10
12.0
 20
9.0
  9
$UNITMODE
 70
     0
  9
$VISRETAIN
 70
     0
  9
$PLINEGEN
 70
     0
  9
$PSLTSCALE
 70
     0
  0
ENDSEC
  0
SECTION
  2
TABLES
  0
TABLE
  2
VPORT
 70
     1
  0
VPORT
  2
*ACTIVE
 70
     0
 10
0.0
 20
0.0
 11
1.0
 21
1.0
 12
204.2282921288832
 22
233.11808706577651
 13
0.0
 23
0.0
 14
10.0
 24
10.0
 15
10.0
 25
10.0
 16
0.0
 26
0.0
 36
1.0
 17
0.0
 27
0.0
 37
0.0
 40
477.58512874771441
 41
2.304913294797688
 42
50.0
 43
0.0
 44
0.0
 50
0.0
 51
0.0
 71
    16
 72
   100
 73
     1
 74
     0
 75
     0
 76
     0
 77
     0
 78
     0
  0
ENDTAB
  0
TABLE
  2
LTYPE
 70
     3
  0
LTYPE
  2
CONTINUOUS
 70
     0
  3
Solid Line
 72
    65
 73
     0
 40
0.0
  0
LTYPE
  2
PHANTOM2
 70
     0
  3
___ _ _ ___ _ _ ___ _ _ ___ _ _
 72
    65
 73
     6
 40
1.25
 49
0.625
 49
-0.125
 49
0.125
 49
-0.125
 49
0.125
 49
-0.125
  0
LTYPE
  2
CENTER
 70
     0
  3
____ _ ____ _ ____ _ ____ _ ____ _ ____ _ ____
 72
    65
 73
     4
 40
2.0
 49
1.25
 49
-0.25
 49
0.25
 49
-0.25
  0
ENDTAB
  0
TABLE
  2
LAYER
 70
     4
  0
LAYER
  2
0
 70
     0
 62
     7
  6
CONTINUOUS
  0
LAYER
  2
1
 70
     0
 62
     1
  6
CENTER
  0
LAYER
  2
3
 70
     0
 62
     3
  6
CONTINUOUS
  0
LAYER
  2
DEFPOINTS
 70
     0
 62
     7
  6
CONTINUOUS
  0
ENDTAB
  0
TABLE
  2
STYLE
 70
     3
  0
STYLE
  2
STANDARD
 70
     0
 40
0.0
 41
1.0
 50
0.0
 71
     0
 42
0.2
  3
SIMPLEX
  4
BIGFONT
  0
STYLE
  2
ANNOTATIVE
 70
     0
 40
0.0
 41
1.0
 50
0.0
 71
     0
 42
0.2
  3
txt
  4

  0
STYLE
  2
STANDARD1
 70
     0
 40
0.0
 41
1.0
 50
0.0
 71
     0
 42
3.0
  3
txt
  4

  0
ENDTAB
  0
TABLE
  2
VIEW
 70
     0
  0
ENDTAB
  0
TABLE
  2
UCS
 70
     0
  0
ENDTAB
  0
TABLE
  2
APPID
 70
    29
  0
APPID
  2
ACAD
 70
     0
  0
APPID
  2
ACADANNOTATIVE
 70
     0
  0
APPID
  2
GENIUS_GENOREF_13
 70
     0
  0
APPID
  2
GENIUS_GENOENT_13
 70
     0
  0
APPID
  2
GENIUS_GENBH_13
 70
     0
  0
APPID
  2
GENIUS_GENOBJ_13
 70
     0
  0
APPID
  2
GENIUS_GENODEF_13
 70
     0
  0
APPID
  2
GENIUS_GENOLIS_13
 70
     0
  0
APPID
  2
GENIUS_GENOBJ-NBEHI-BHF_13
 70
     0
  0
APPID
  2
GENIUS_GENOBJ-NBEHI-BHB_13
 70
     0
  0
APPID
  2
GENIUS_GENOBJ-F-PART_13
 70
     0
  0
APPID
  2
GENIUS_GEFSTDP_13
 70
     0
  0
APPID
  2
GENIUS_GENOBJ-N-RSSYM_13
 70
     0
  0
APPID
  2
GENIUS_GENSYMENT_13
 70
     0
  0
APPID
  2
GENIUS_GENOBJ-N-TIT_13
 70
     0
  0
APPID
  2
GENIUS_GENTITLE_13
 70
     0
  0
APPID
  2
GENIUS_GENZVEED_13
 70
     0
  0
APPID
  2
GENIUS_GENOBJ-N-LEADER_13
 70
     0
  0
APPID
  2
GENIUS_GENOBJ-N-FIL_13
 70
     0
  0
APPID
  2
GENIUS_GENOBJ-N-SEC_13
 70
     0
  0
APPID
  2
GENIUS_GENOBJ-N-CRS_13
 70
     0
  0
APPID
  2
GENIUS_GENOBJ-N-ZOO_13
 70
     0
  0
APPID
  2
GENIUS_GENZOO_13
 70
     0
  0
APPID
  2
GENIUS_GENOBJ-F-TOL_13
 70
     0
  0
APPID
  2
GENIUS_GENFIL_13
 70
     0
  0
APPID
  2
GENIUS_GENOBJ-N-CHA_13
 70
     0
  0
APPID
  2
ACAD_EXEMPT_FROM_CAD_STANDARDS
 70
     0
  0
APPID
  2
ACAD_MLEADERVER
 70
     0
  0
APPID
  2
ACAD_NAV_VCDISPLAY
 70
     0
  0
ENDTAB
  0
TABLE
  2
DIMSTYLE
 70
     2
  0
DIMSTYLE
  2
STANDARD
 70
     0
  3

  4

  5

  6

  7

 40
1.0
 41
0.18
 42
0.0625
 43
0.38
 44
0.18
 45
0.0
 46
0.0
 47
0.0
 48
0.0
140
0.18
141
0.09
142
0.0
143
25.399999999999999
144
1.0
145
0.0
146
1.0
147
0.09
 71
     0
 72
     0
 73
     1
 74
     1
 75
     0
 76
     0
 77
     0
 78
     0
170
     0
171
     2
172
     0
173
     0
174
     0
175
     0
176
     0
177
     0
178
     0
  0
DIMSTYLE
  2
ANNOTATIVE
 70
     0
  3

  4

  5

  6

  7

 40
1.0
 41
0.18
 42
0.0625
 43
0.38
 44
0.18
 45
0.0
 46
0.0
 47
0.0
 48
0.0
140
0.18
141
0.09
142
0.0
143
25.399999999999999
144
1.0
145
0.0
146
1.0
147
0.09
 71
     0
 72
     0
 73
     1
 74
     1
 75
     0
 76
     0
 77
     0
 78
     0
170
     0
171
     2
172
     0
173
     0
174
     0
175
     0
176
     0
177
     0
178
     0
  0
ENDTAB
  0
ENDSEC
  0
SECTION
  2
BLOCKS
  0
BLOCK
  8
0
  2
$MODEL_SPACE
 70
     0
 10
0.0
 20
0.0
 30
0.0
  3
$MODEL_SPACE
  1

  0
ENDBLK
  5
AC97
  8
0
  0
BLOCK
 67
     1
  8
0
  2
$PAPER_SPACE
 70
     0
 10
0.0
 20
0.0
 30
0.0
  3
$PAPER_SPACE
  1

  0
ENDBLK
  5
AC93
 67
     1
  8
0
  0
ENDSEC
  0
SECTION
  2
ENTITIES
  0
CIRCLE
  5
A873
  8
0
 10
175.98661553898361
 20
394.65885995951339
 30
0.0
 40
10.0
  0
CIRCLE
  5
A874
  8
3
 10
175.98661553898361
 20
394.65885995951339
 30
0.0
 40
8.6470000000000002
  0
LINE
  5
A875
  8
0
 10
167.32636150113939
 20
379.65885995951339
 30
0.0
 11
184.64686957682801
 21
379.65885995951339
 31
0.0
  0
LINE
  5
A876
  8
0
 10
184.64686957682801
 20
379.65885995951339
 30
0.0
 11
193.30712361467221
 21
394.65885995951339
 31
0.0
  0
LINE
  5
A877
  8
0
 10
193.30712361467221
 20
394.65885995951339
 30
0.0
 11
184.64686957682781
 21
409.65885995951339
 31
0.0
  0
LINE
  5
A878
  8
0
 10
184.64686957682781
 20
409.65885995951339
 30
0.0
 11
167.32636150113939
 21
409.65885995951339
 31
0.0
  0
LINE
  5
A879
  8
0
 10
167.32636150113939
 20
409.65885995951339
 30
0.0
 11
158.66610746329499
 21
394.65885995951362
 31
0.0
  0
LINE
  5
A87A
  8
0
 10
158.66610746329499
 20
394.65885995951362
 30
0.0
 11
167.32636150113939
 21
379.65885995951339
 31
0.0
  0
CIRCLE
  5
A87B
  8
0
 10
175.98661553898361
 20
394.65885995951339
 30
0.0
 40
14.5
  0
LINE
  5
A87C
  8
1
 10
248.48661553898339
 20
394.65885995951339
 30
0.0
 11
103.4866155389836
 21
394.65885995951339
 31
0.0
  0
LINE
  5
A87D
  8
1
 10
175.98661553898361
 20
467.15885995951311
 30
0.0
 11
175.98661553898361
 21
322.15885995951328
 31
0.0
  0
CIRCLE
  5
A87E
  8
0
 10
175.98661553898361
 20
394.65885995951339
 30
0.0
 40
20.999999999999879
  0
CIRCLE
  5
A87F
  8
0
 10
175.98661553898361
 20
394.65885995951339
 30
0.0
 40
34.999999999999829
  0
CIRCLE
  5
A880
  8
0
 10
175.98661553898361
 20
394.65885995951339
 30
0.0
 40
41.499999999999901
  0
CIRCLE
  5
A881
  8
0
 10
175.98661553898361
 20
394.65885995951339
 30
0.0
 40
48.499999999999901
  0
CIRCLE
  5
A882
  8
0
 10
175.98661553898361
 20
394.65885995951339
 30
0.0
 40
55.499999999999503
  0
CIRCLE
  5
A883
  8
0
 10
175.98661553898361
 20
394.65885995951339
 30
0.0
 40
62.499999999999929
  0
ARC
  5
A884
  8
0
 10
345.95658235573922
 20
97.309119386385305
 30
0.0
 40
12.25
 50
20.69833492653888
 51
46.120122896762247
  0
LINE
  5
A885
  8
0
 10
345.95658235574302
 20
163.01043210846069
 30
0.0
 11
345.95658235574302
 21
150.26727430195601
 31
0.0
  0
LINE
  5
A886
  8
0
 10
360.45658235574302
 20
148.63885320521081
 30
0.0
 11
331.45658235574439
 21
148.63885320521081
 31
0.0
  0
LINE
  5
A887
  8
0
 10
331.45658235574439
 20
164.63885320521081
 30
0.0
 11
360.4565823557412
 21
164.63885320521081
 31
0.0
  0
ARC
  5
A888
  8
0
 10
338.45658235574308
 20
142.6875192969469
 30
0.0
 40
21.662658773668529
 50
69.743841999600477
 51
110.2561580003994
  0
LINE
  5
A889
  8
0
 10
331.45658235574439
 20
164.63885320521081
 30
0.0
 11
330.95658235574308
 21
164.35017807061541
 31
0.0
  0
LINE
  5
A88A
  8
0
 10
331.45658235574439
 20
148.63885320521081
 30
0.0
 11
330.95658235574308
 21
148.9275283398064
 31
0.0
  0
ARC
  5
A88B
  8
0
 10
338.45658235574308
 20
170.5901871134746
 30
0.0
 40
21.662658773668529
 50
249.74384199960051
 51
290.25615800039952
  0
LINE
  5
A88C
  8
0
 10
330.95658235574308
 20
164.35017807061541
 30
0.0
 11
330.95658235574308
 21
148.9275283398064
 31
0.0
  0
LINE
  5
A88D
  8
0
 10
360.95658235574302
 20
164.35017807061541
 30
0.0
 11
360.95658235574251
 21
148.9275283398064
 31
0.0
  0
ARC
  5
A88E
  8
0
 10
353.45658235574291
 20
170.5901871134746
 30
0.0
 40
21.662658773668529
 50
249.74384199960051
 51
290.25615800039952
  0
LINE
  5
A88F
  8
0
 10
360.4565823557412
 20
148.63885320521081
 30
0.0
 11
360.95658235574251
 21
148.9275283398064
 31
0.0
  0
LINE
  5
A890
  8
0
 10
360.4565823557412
 20
164.63885320521081
 30
0.0
 11
360.95658235574251
 21
164.35017807061541
 31
0.0
  0
ARC
  5
A891
  8
0
 10
353.45658235574291
 20
142.6875192969469
 30
0.0
 40
21.662658773668529
 50
69.743841999600477
 51
110.2561580003994
  0
LINE
  5
A892
  8
3
 10
337.30958235574241
 20
164.63885320521081
 30
0.0
 11
337.30958235574241
 21
279.49185320518791
 31
0.0
  0
LINE
  5
A893
  8
0
 10
335.95658235574228
 20
164.63885320521081
 30
0.0
 11
335.95658235574228
 21
278.13885320518779
 31
0.0
  0
LINE
  5
A894
  8
0
 10
355.95658235574228
 20
164.63885320521061
 30
0.0
 11
355.95658235574228
 21
278.13885320518762
 31
0.0
  0
LINE
  5
A895
  8
3
 10
354.60358235574228
 20
164.63885320521081
 30
0.0
 11
354.60358235574228
 21
279.49185320518768
 31
0.0
  0
ARC
  5
A896
  8
0
 10
345.95658235573922
 20
97.309119386385305
 30
0.0
 40
12.25
 50
133.8798771030491
 51
159.30166507346109
  0
LINE
  5
A897
  8
0
 10
354.45658235574228
 20
106.1388532051354
 30
0.0
 11
337.45658235574228
 21
106.1388532051636
 31
0.0
  0
LINE
  5
A898
  8
0
 10
354.45658235574228
 20
112.6388532051495
 30
0.0
 11
354.45658235574228
 21
106.1388532051354
 31
0.0
  0
LINE
  5
A899
  8
0
 10
337.45658235574228
 20
112.6388532051495
 30
0.0
 11
337.45658235574228
 21
106.1388532051638
 31
0.0
  0
LINE
  5
A89A
  8
0
 10
338.45658235574228
 20
280.6388532051879
 30
0.0
 11
353.45658235574228
 21
280.63885320518762
 31
0.0
  0
LINE
  5
A89B
  8
0
 10
355.95658235574228
 20
122.6388532051877
 30
0.0
 11
355.95658235574228
 21
148.6388532052101
 31
0.0
  0
LINE
  5
A89C
  8
3
 10
354.60358235574228
 20
126.6388532052063
 30
0.0
 11
354.60358235574228
 21
148.6388532052101
 31
0.0
  0
LINE
  5
A89D
  8
3
 10
337.30958235574241
 20
126.6388532052063
 30
0.0
 11
337.30958235574241
 21
148.63885320521001
 31
0.0
  0
LINE
  5
A89E
  8
0
 10
335.95658235574228
 20
122.6388532051877
 30
0.0
 11
335.95658235574228
 21
148.6388532052101
 31
0.0
  0
LINE
  5
A89F
  8
0
 10
335.95658235574228
 20
278.13885320518779
 30
0.0
 11
338.45658235574228
 21
280.6388532051879
 31
0.0
  0
LINE
  5
A8A0
  8
0
 10
353.45658235574228
 20
280.63885320518762
 30
0.0
 11
355.95658235574228
 21
278.13885320518762
 31
0.0
  0
LINE
  5
A8A1
  8
0
 10
335.95658235574228
 20
278.13885320518779
 30
0.0
 11
355.95658235574228
 21
278.13885320518762
 31
0.0
  0
LINE
  5
A8A2
  8
0
 10
355.95658235574228
 20
126.6388532052063
 30
0.0
 11
335.95658235574228
 21
126.6388532052063
 31
0.0
  0
LINE
  5
A8A3
  8
3
 10
337.30958235574241
 20
126.6388532052063
 30
0.0
 11
335.95658235574228
 21
124.2953884625654
 31
0.0
  0
LINE
  5
A8A4
  8
3
 10
354.60358235574228
 20
126.6388532052063
 30
0.0
 11
355.95658235574228
 21
124.2953884625654
 31
0.0
  0
ARC
  5
A8A5
  8
0
 10
345.95658235579617
 20
99.421974842564524
 30
0.0
 40
22.928203228139491
 50
72.412046224314381
 51
107.58795377568561
  0
ARC
  5
A8A6
  8
0
 10
335.56427751038268
 20
116.2162034749832
 30
0.0
 40
6.1339745957208196
 50
55.615752528793642
 51
115.61575253015479
  0
LINE
  5
A8A7
  8
0
 10
332.10017589522317
 20
121.2783813008747
 30
0.0
 11
334.45658235590389
 21
122.6388532052689
 31
0.0
  0
LINE
  5
A8A8
  8
0
 10
332.10017589522317
 20
113.9993251096631
 30
0.0
 11
334.45658235590389
 21
112.6388532052689
 31
0.0
  0
ARC
  5
A8A9
  8
0
 10
335.56427751038268
 20
119.0615029355546
 30
0.0
 40
6.1339745957208196
 50
244.38424746984521
 51
304.38424747120632
  0
ARC
  5
A8AA
  8
0
 10
345.95658235579617
 20
135.85573156797329
 30
0.0
 40
22.928203228139491
 50
252.41204622431439
 51
287.58795377568561
  0
LINE
  5
A8AB
  8
0
 10
332.100175895245
 20
121.2783813008747
 30
0.0
 11
332.100175895245
 21
113.9993251096504
 31
0.0
  0
LINE
  5
A8AC
  8
0
 10
339.02837912552081
 20
121.2783813008747
 30
0.0
 11
339.02837912552081
 21
113.9993251096631
 31
0.0
  0
LINE
  5
A8AD
  8
0
 10
352.88478558607147
 20
121.2783813008747
 30
0.0
 11
352.88478558607147
 21
113.9993251096631
 31
0.0
  0
LINE
  5
A8AE
  8
0
 10
359.8129888163474
 20
121.2783813008747
 30
0.0
 11
359.8129888163474
 21
113.9993251096504
 31
0.0
  0
ARC
  5
A8AF
  8
0
 10
356.34888720120972
 20
119.0615029355546
 30
0.0
 40
6.1339745957208196
 50
235.61575252879359
 51
295.61575253015491
  0
LINE
  5
A8B0
  8
0
 10
359.81298881636923
 20
113.9993251096631
 30
0.0
 11
357.4565823556884
 21
112.6388532052689
 31
0.0
  0
LINE
  5
A8B1
  8
0
 10
359.81298881636923
 20
121.2783813008747
 30
0.0
 11
357.4565823556884
 21
122.6388532052689
 31
0.0
  0
ARC
  5
A8B2
  8
0
 10
356.34888720120972
 20
116.2162034749832
 30
0.0
 40
6.1339745957208196
 50
64.384247469845135
 51
124.38424747120629
  0
LINE
  5
A8B3
  8
0
 10
334.45658235579617
 20
122.6388532052689
 30
0.0
 11
357.4565823556884
 21
122.6388532052689
 31
0.0
  0
LINE
  5
A8B4
  8
0
 10
357.4565823556884
 20
112.6388532052689
 30
0.0
 11
334.45658235590389
 21
112.6388532052689
 31
0.0
  0
LINE
  5
A8B5
  8
0
 10
408.456582355742
 20
55.638853205187701
 30
0.0
 11
283.45658235574228
 21
55.63885320518775
 31
0.0
  0
LINE
  5
A8B6
  8
0
 10
408.456582355742
 20
55.638853205187701
 30
0.0
 11
408.456582355742
 21
71.758059294232822
 31
0.0
  0
LINE
  5
A8B8
  8
0
 10
366.956582355742
 20
101.6388532051877
 30
0.0
 11
324.95658235574228
 21
101.6388532051877
 31
0.0
  0
LINE
  5
A8B9
  8
DEFPOINTS
 10
366.956582355742
 20
101.6388532051877
 30
0.0
 11
380.956582355742
 21
79.638853205187701
 31
0.0
  0
LINE
  5
A8BA
  8
DEFPOINTS
 10
380.956582355742
 20
79.638853205187701
 30
0.0
 11
386.70326163637702
 21
78.176062115571497
 31
0.0
  0
LINE
  5
A8BB
  8
DEFPOINTS
 10
401.456582355742
 20
73.529762296096763
 30
0.0
 11
401.456582355742
 21
73.539877476051018
 31
0.0
  0
LINE
  5
A8BC
  8
DEFPOINTS
 10
394.45658235574211
 20
75.311580477914987
 30
0.0
 11
394.45658235574211
 21
75.321695657869185
 31
0.0
  0
LINE
  5
A8BD
  8
DEFPOINTS
 10
387.456582355742
 20
77.09339865973314
 30
0.0
 11
387.456582355742
 21
77.206964941648593
 31
0.0
  0
LINE
  5
A8BE
  8
DEFPOINTS
 10
407.5828366354159
 20
72.750057205956423
 30
0.0
 11
401.456582355742
 21
73.529762296096763
 31
0.0
  0
LINE
  5
A8BF
  8
DEFPOINTS
 10
400.58283663541602
 20
74.531875387774633
 30
0.0
 11
394.45658235574211
 21
75.311580477914987
 31
0.0
  0
LINE
  5
A8C0
  8
DEFPOINTS
 10
393.58283663541602
 20
76.313693569592843
 30
0.0
 11
387.456582355742
 21
77.09339865973314
 31
0.0
  0
ARC
  5
A8C1
  8
DEFPOINTS
 10
386.45658235574211
 20
77.206964941648593
 30
0.0
 40
1.0
 50
0.0
 51
75.718904264028851
  0
ARC
  5
A8C2
  8
DEFPOINTS
 10
393.456582355742
 20
75.321695657869185
 30
0.0
 40
1.0
 50
0.0
 51
82.746805387274634
  0
ARC
  5
A8C3
  8
DEFPOINTS
 10
400.456582355742
 20
73.539877476051018
 30
0.0
 40
1.0
 50
0.0000000000016284
 51
82.746805387274634
  0
ARC
  5
A8C4
  8
DEFPOINTS
 10
407.456582355742
 20
71.758059294232822
 30
0.0
 40
1.0
 50
359.9999999999996
 51
82.746805387274634
  0
LINE
  5
A8C5
  8
DEFPOINTS
 10
401.456582355742
 20
73.529762296096763
 30
0.0
 11
290.45658235574319
 21
73.529762296096905
 31
0.0
  0
LINE
  5
A8C6
  8
DEFPOINTS
 10
394.45658235574211
 20
75.311580477914987
 30
0.0
 11
297.45658235574308
 21
75.311580477915044
 31
0.0
  0
LINE
  5
A8C7
  8
DEFPOINTS
 10
387.456582355742
 20
77.09339865973314
 30
0.0
 11
304.45658235574308
 21
77.093398659733253
 31
0.0
  0
LINE
  5
A8C8
  8
DEFPOINTS
 10
380.956582355742
 20
79.638853205187701
 30
0.0
 11
310.95658235574251
 21
79.638853205187729
 31
0.0
  0
ARC
  5
A8C9
  8
DEFPOINTS
 10
284.45658235574211
 20
71.758059294232822
 30
0.0
 40
1.0
 50
97.253194612725352
 51
180.0000000000004
  0
ARC
  5
A8CA
  8
DEFPOINTS
 10
291.45658235574228
 20
73.539877476051018
 30
0.0
 40
1.0
 50
97.253194612725352
 51
179.9999999999979
  0
ARC
  5
A8CB
  8
DEFPOINTS
 10
298.45658235574228
 20
75.321695657869185
 30
0.0
 40
1.0
 50
97.253194612725352
 51
180.0
  0
ARC
  5
A8CC
  8
DEFPOINTS
 10
305.45658235574228
 20
77.206964941648593
 30
0.0
 40
1.0
 50
104.28109573597111
 51
180.0
  0
LINE
  5
A8CD
  8
DEFPOINTS
 10
298.33032807606838
 20
76.313693569592843
 30
0.0
 11
304.45658235574228
 21
77.09339865973314
 31
0.0
  0
LINE
  5
A8CE
  8
DEFPOINTS
 10
291.33032807606838
 20
74.531875387774633
 30
0.0
 11
297.45658235574228
 21
75.311580477914987
 31
0.0
  0
LINE
  5
A8CF
  8
DEFPOINTS
 10
284.3303280760681
 20
72.750057205956423
 30
0.0
 11
290.45658235574228
 21
73.529762296096763
 31
0.0
  0
LINE
  5
A8D0
  8
DEFPOINTS
 10
304.45658235574228
 20
77.09339865973314
 30
0.0
 11
304.45658235574228
 21
77.206964941648593
 31
0.0
  0
LINE
  5
A8D1
  8
DEFPOINTS
 10
297.45658235574228
 20
75.311580477914987
 30
0.0
 11
297.45658235574228
 21
75.321695657869185
 31
0.0
  0
LINE
  5
A8D2
  8
DEFPOINTS
 10
290.45658235574228
 20
73.529762296096763
 30
0.0
 11
290.45658235574228
 21
73.539877476051018
 31
0.0
  0
LINE
  5
A8D3
  8
DEFPOINTS
 10
310.95658235574228
 20
79.638853205187701
 30
0.0
 11
305.20990307510738
 21
78.176062115571497
 31
0.0
  0
LINE
  5
A8D4
  8
DEFPOINTS
 10
324.95658235574228
 20
101.6388532051877
 30
0.0
 11
310.95658235574228
 21
79.638853205187701
 31
0.0
  0
LINE
  5
A8D6
  8
0
 10
283.45658235574228
 20
55.638853205187701
 30
0.0
 11
283.456582355742
 21
71.758059294232822
 31
0.0
  0
LINE
  5
A8D8
  8
1
 10
345.95658235574228
 20
45.638853205187729
 30
0.0
 11
345.95658235574228
 21
290.63885320518779
 31
0.0
  0
LINE
  5
A8D9
  8
1
 10
175.98661553898361
 20
45.638853205187729
 30
0.0
 11
175.98661553898361
 21
290.63885320518779
 31
0.0
  0
ARC
  5
A8DB
  8
0
 10
175.98661553898069
 20
97.309119386385447
 30
0.0
 40
12.25
 50
20.69833492653812
 51
46.1201228967631
  0
LINE
  5
A8DC
  8
3
 10
184.63361553898361
 20
126.6388532052064
 30
0.0
 11
185.98661553898361
 21
124.2953884625655
 31
0.0
  0
LINE
  5
A8DD
  8
3
 10
167.33961553898371
 20
126.6388532052064
 30
0.0
 11
165.98661553898361
 21
124.2953884625655
 31
0.0
  0
LINE
  5
A8DE
  8
0
 10
185.98661553898361
 20
126.6388532052064
 30
0.0
 11
165.98661553898361
 21
126.6388532052064
 31
0.0
  0
LINE
  5
A8DF
  8
0
 10
165.98661553898361
 20
278.13885320518779
 30
0.0
 11
185.98661553898361
 21
278.13885320518762
 31
0.0
  0
LINE
  5
A8E0
  8
0
 10
183.48661553898361
 20
280.63885320518762
 30
0.0
 11
185.98661553898361
 21
278.13885320518762
 31
0.0
  0
LINE
  5
A8E1
  8
0
 10
165.98661553898361
 20
278.13885320518779
 30
0.0
 11
168.48661553898361
 21
280.6388532051879
 31
0.0
  0
LINE
  5
A8E2
  8
0
 10
165.98661553898361
 20
122.6388532051879
 30
0.0
 11
165.98661553898361
 21
148.6388532052103
 31
0.0
  0
LINE
  5
A8E3
  8
3
 10
167.33961553898371
 20
126.6388532052064
 30
0.0
 11
167.33961553898371
 21
148.6388532052101
 31
0.0
  0
LINE
  5
A8E4
  8
3
 10
184.63361553898361
 20
126.6388532052064
 30
0.0
 11
184.63361553898361
 21
148.6388532052103
 31
0.0
  0
LINE
  5
A8E5
  8
0
 10
185.98661553898361
 20
122.6388532051879
 30
0.0
 11
185.98661553898361
 21
148.6388532052103
 31
0.0
  0
LINE
  5
A8E6
  8
0
 10
168.48661553898361
 20
280.6388532051879
 30
0.0
 11
183.48661553898361
 21
280.63885320518762
 31
0.0
  0
ARC
  5
A8E7
  8
0
 10
181.98661553901681
 20
105.02005105327039
 30
0.0
 40
17.330127017333279
 50
69.74384199763557
 51
110.2561580023644
  0
LINE
  5
A8E8
  8
0
 10
187.9866155390317
 20
122.3501780706038
 30
0.0
 11
187.48661553901681
 21
122.6388532052072
 31
0.0
  0
LINE
  5
A8E9
  8
0
 10
187.9866155390317
 20
112.9275283397337
 30
0.0
 11
187.48661553901681
 21
112.6388532051303
 31
0.0
  0
ARC
  5
A8EA
  8
0
 10
181.98661553901681
 20
130.25765535706711
 30
0.0
 40
17.330127017333279
 50
249.7438419976356
 51
290.25615800236437
  0
LINE
  5
A8EB
  8
0
 10
187.9866155390317
 20
122.3501780706038
 30
0.0
 11
187.98661553901681
 21
112.9275283397251
 31
0.0
  0
LINE
  5
A8EC
  8
0
 10
175.98661553901681
 20
113.999325109563
 30
0.0
 11
175.98661553901681
 21
121.2783813007745
 31
0.0
  0
LINE
  5
A8ED
  8
0
 10
163.9866155390018
 20
122.3501780706038
 30
0.0
 11
163.98661553901681
 21
112.9275283397251
 31
0.0
  0
ARC
  5
A8EE
  8
0
 10
169.98661553901681
 20
130.25765535706711
 30
0.0
 40
17.330127017333279
 50
249.7438419976356
 51
290.25615800236437
  0
LINE
  5
A8EF
  8
0
 10
163.9866155390018
 20
112.9275283397337
 30
0.0
 11
164.48661553901681
 21
112.6388532051303
 31
0.0
  0
LINE
  5
A8F0
  8
0
 10
163.9866155390018
 20
122.3501780706038
 30
0.0
 11
164.48661553901681
 21
122.6388532052072
 31
0.0
  0
ARC
  5
A8F1
  8
0
 10
169.98661553901681
 20
105.02005105327039
 30
0.0
 40
17.330127017333279
 50
69.74384199763557
 51
110.2561580023644
  0
LINE
  5
A8F2
  8
0
 10
164.48661553895039
 20
122.6388532051688
 30
0.0
 11
187.48661553901681
 21
122.6388532052072
 31
0.0
  0
LINE
  5
A8F3
  8
0
 10
187.48661553901681
 20
112.6388532051303
 30
0.0
 11
164.48661553895039
 21
112.6388532051687
 31
0.0
  0
LINE
  5
A8F4
  8
0
 10
167.48661553898361
 20
112.6388532051497
 30
0.0
 11
167.48661553898361
 21
106.138853205164
 31
0.0
  0
LINE
  5
A8F5
  8
0
 10
184.48661553898361
 20
112.6388532051497
 30
0.0
 11
184.48661553898361
 21
106.1388532051356
 31
0.0
  0
LINE
  5
A8F6
  8
0
 10
184.48661553898361
 20
106.1388532051356
 30
0.0
 11
167.48661553898361
 21
106.1388532051637
 31
0.0
  0
ARC
  5
A8F7
  8
0
 10
175.98661553898069
 20
97.309119386385447
 30
0.0
 40
12.25
 50
133.87987710304799
 51
159.30166507346181
  0
LINE
  5
A8F8
  8
0
 10
190.4866155389843
 20
148.63885320521061
 30
0.0
 11
161.48661553898381
 21
148.6388532052103
 31
0.0
  0
LINE
  5
A8F9
  8
0
 10
161.48661553898381
 20
164.63885320521121
 30
0.0
 11
190.48661553898441
 21
164.63885320521069
 31
0.0
  0
LINE
  5
A8FA
  8
0
 10
190.48661553898381
 20
164.63885320521121
 30
0.0
 11
193.30712361467241
 21
163.0104321084608
 31
0.0
  0
ARC
  5
A8FB
  8
0
 10
188.97699659574999
 20
156.68270982533991
 30
0.0
 40
7.6674682452751766
 50
64.384247470459144
 51
124.3842474680057
  0
ARC
  5
A8FC
  8
0
 10
188.97699659574999
 20
156.68270982533991
 30
0.0
 40
7.6674682452751766
 50
55.615752531994282
 51
55.615752531994282
  0
ARC
  5
A8FD
  8
0
 10
188.97699659574999
 20
156.59499658508159
 30
0.0
 40
7.6674682452751766
 50
304.3842474680057
 51
304.3842474680057
  0
ARC
  5
A8FE
  8
0
 10
188.97699659574999
 20
156.59499658508159
 30
0.0
 40
7.6674682452751766
 50
235.6157525319943
 51
295.61575252954088
  0
LINE
  5
A8FF
  8
0
 10
190.48661553898381
 20
148.6388532052103
 30
0.0
 11
193.30712361467241
 21
150.2672743019607
 31
0.0
  0
LINE
  5
A900
  8
0
 10
193.30712361467221
 20
163.0104321084608
 30
0.0
 11
193.307123614956
 21
150.26727430212441
 31
0.0
  0
LINE
  5
A901
  8
0
 10
184.64686957682801
 20
150.26727430198409
 30
0.0
 11
184.64686957667411
 21
163.0104321084608
 31
0.0
  0
ARC
  5
A902
  8
0
 10
175.98661553905731
 20
177.58778237719881
 30
0.0
 40
28.660254037392811
 50
252.41204622557001
 51
287.5879537741294
  0
LINE
  5
A903
  8
0
 10
167.3263615011397
 20
150.26727430198409
 30
0.0
 11
167.3263615012936
 21
163.0104321084608
 31
0.0
  0
LINE
  5
A904
  8
0
 10
158.6661074632955
 20
163.0104321084608
 30
0.0
 11
158.66610746301171
 21
150.26727430212441
 31
0.0
  0
LINE
  5
A905
  8
0
 10
161.48661553898381
 20
148.6388532052103
 30
0.0
 11
158.66610746329519
 21
150.2672743019607
 31
0.0
  0
ARC
  5
A906
  8
0
 10
162.99623448221769
 20
156.59499658508159
 30
0.0
 40
7.6674682452751766
 50
244.3842474704592
 51
304.3842474680057
  0
ARC
  5
A907
  8
0
 10
162.99623448221769
 20
156.59499658508159
 30
0.0
 40
7.6674682452751766
 50
235.6157525319943
 51
235.6157525319943
  0
ARC
  5
A908
  8
0
 10
175.98661553905731
 20
135.68992403322241
 30
0.0
 40
28.660254037392811
 50
72.41204622587064
 51
107.58795377443001
  0
ARC
  5
A909
  8
0
 10
162.99623448221769
 20
156.68270982533991
 30
0.0
 40
7.6674682452751766
 50
124.3842474680057
 51
124.3842474680057
  0
ARC
  5
A90A
  8
0
 10
162.99623448221769
 20
156.68270982533991
 30
0.0
 40
7.6674682452751766
 50
55.615752531994282
 51
115.6157525295408
  0
LINE
  5
A90B
  8
0
 10
161.48661553898381
 20
164.63885320521121
 30
0.0
 11
158.66610746329519
 21
163.0104321084608
 31
0.0
  0
LINE
  5
A90C
  8
3
 10
184.63361553898361
 20
164.63885320521081
 30
0.0
 11
184.63361553898361
 21
279.49185320518768
 31
0.0
  0
LINE
  5
A90D
  8
0
 10
185.98661553898361
 20
164.63885320521069
 30
0.0
 11
185.98661553898361
 21
278.13885320518762
 31
0.0
  0
LINE
  5
A90E
  8
0
 10
165.98661553898361
 20
164.63885320521081
 30
0.0
 11
165.98661553898361
 21
278.13885320518779
 31
0.0
  0
LINE
  5
A90F
  8
3
 10
167.33961553898371
 20
164.63885320521081
 30
0.0
 11
167.33961553898371
 21
279.49185320518791
 31
0.0
  0
LINE
  5
A910
  8
0
 10
113.4866155389836
 20
55.638853205187701
 30
0.0
 11
113.4866155389834
 21
71.758059294232822
 31
0.0
  0
LINE
  5
A912
  8
DEFPOINTS
 10
154.98661553898361
 20
101.6388532051877
 30
0.0
 11
140.98661553898361
 21
79.638853205187701
 31
0.0
  0
LINE
  5
A913
  8
DEFPOINTS
 10
140.98661553898361
 20
79.638853205187701
 30
0.0
 11
135.23993625834871
 21
78.176062115571497
 31
0.0
  0
LINE
  5
A914
  8
DEFPOINTS
 10
120.4866155389836
 20
73.529762296096763
 30
0.0
 11
120.4866155389836
 21
73.539877476051089
 31
0.0
  0
LINE
  5
A915
  8
DEFPOINTS
 10
127.4866155389836
 20
75.311580477914987
 30
0.0
 11
127.4866155389836
 21
75.321695657869185
 31
0.0
  0
LINE
  5
A916
  8
DEFPOINTS
 10
134.48661553898361
 20
77.09339865973314
 30
0.0
 11
134.48661553898361
 21
77.206964941648593
 31
0.0
  0
LINE
  5
A917
  8
DEFPOINTS
 10
114.3603612593094
 20
72.750057205956423
 30
0.0
 11
120.4866155389836
 21
73.529762296096763
 31
0.0
  0
LINE
  5
A918
  8
DEFPOINTS
 10
121.3603612593097
 20
74.531875387774633
 30
0.0
 11
127.4866155389836
 21
75.311580477914987
 31
0.0
  0
LINE
  5
A919
  8
DEFPOINTS
 10
128.36036125930971
 20
76.313693569592843
 30
0.0
 11
134.48661553898361
 21
77.09339865973314
 31
0.0
  0
ARC
  5
A91A
  8
DEFPOINTS
 10
135.48661553898361
 20
77.206964941648593
 30
0.0
 40
1.0
 50
104.28109573597111
 51
180.0
  0
ARC
  5
A91B
  8
DEFPOINTS
 10
128.48661553898361
 20
75.321695657869185
 30
0.0
 40
1.0
 50
97.253194612725352
 51
180.0
  0
ARC
  5
A91C
  8
DEFPOINTS
 10
121.4866155389836
 20
73.539877476051018
 30
0.0
 40
1.0
 50
97.253194612725352
 51
179.9999999999979
  0
ARC
  5
A91D
  8
DEFPOINTS
 10
114.4866155389834
 20
71.758059294232822
 30
0.0
 40
1.0
 50
97.253194612725352
 51
180.0000000000004
  0
LINE
  5
A91E
  8
DEFPOINTS
 10
210.98661553898339
 20
79.638853205187701
 30
0.0
 11
140.98661553898381
 21
79.638853205187729
 31
0.0
  0
LINE
  5
A91F
  8
DEFPOINTS
 10
217.48661553898339
 20
77.09339865973314
 30
0.0
 11
134.4866155389843
 21
77.093398659733253
 31
0.0
  0
LINE
  5
A920
  8
DEFPOINTS
 10
224.48661553898339
 20
75.311580477914987
 30
0.0
 11
127.4866155389843
 21
75.311580477915044
 31
0.0
  0
LINE
  5
A921
  8
DEFPOINTS
 10
231.48661553898339
 20
73.529762296096763
 30
0.0
 11
120.48661553898449
 21
73.529762296096905
 31
0.0
  0
ARC
  5
A922
  8
DEFPOINTS
 10
237.48661553898361
 20
71.758059294232822
 30
0.0
 40
1.0
 50
359.9999999999996
 51
82.746805387274634
  0
ARC
  5
A923
  8
DEFPOINTS
 10
230.48661553898339
 20
73.539877476051018
 30
0.0
 40
1.0
 50
0.0000000000016284
 51
82.746805387274634
  0
ARC
  5
A924
  8
DEFPOINTS
 10
223.48661553898339
 20
75.321695657869185
 30
0.0
 40
1.0
 50
0.0
 51
82.746805387274634
  0
ARC
  5
A925
  8
DEFPOINTS
 10
216.48661553898339
 20
77.206964941648593
 30
0.0
 40
1.0
 50
0.0
 51
75.718904264028851
  0
LINE
  5
A926
  8
DEFPOINTS
 10
223.6128698186574
 20
76.313693569592843
 30
0.0
 11
217.48661553898339
 21
77.09339865973314
 31
0.0
  0
LINE
  5
A927
  8
DEFPOINTS
 10
230.6128698186574
 20
74.531875387774633
 30
0.0
 11
224.48661553898339
 21
75.311580477914987
 31
0.0
  0
LINE
  5
A928
  8
DEFPOINTS
 10
237.6128698186576
 20
72.750057205956423
 30
0.0
 11
231.48661553898339
 21
73.529762296096763
 31
0.0
  0
LINE
  5
A929
  8
DEFPOINTS
 10
217.48661553898339
 20
77.09339865973314
 30
0.0
 11
217.48661553898339
 21
77.206964941648593
 31
0.0
  0
LINE
  5
A92A
  8
DEFPOINTS
 10
224.48661553898339
 20
75.311580477914987
 30
0.0
 11
224.48661553898339
 21
75.321695657869185
 31
0.0
  0
LINE
  5
A92B
  8
DEFPOINTS
 10
231.48661553898339
 20
73.529762296096763
 30
0.0
 11
231.48661553898339
 21
73.539877476051089
 31
0.0
  0
LINE
  5
A92C
  8
DEFPOINTS
 10
210.98661553898339
 20
79.638853205187701
 30
0.0
 11
216.73329481961821
 21
78.176062115571497
 31
0.0
  0
LINE
  5
A92D
  8
DEFPOINTS
 10
196.98661553898361
 20
101.6388532051877
 30
0.0
 11
210.98661553898339
 21
79.638853205187701
 31
0.0
  0
LINE
  5
A92E
  8
0
 10
196.98661553898361
 20
101.6388532051877
 30
0.0
 11
154.98661553898361
 21
101.6388532051877
 31
0.0
  0
LINE
  5
A931
  8
0
 10
238.48661553898339
 20
55.638853205187701
 30
0.0
 11
238.48661553898361
 21
71.758059294232822
 31
0.0
  0
LINE
  5
A932
  8
0
 10
238.48661553898339
 20
55.638853205187701
 30
0.0
 11
113.4866155389836
 21
55.63885320518775
 31
0.0
  0
TEXT
  5
AD18
  8
0
 62
     3
 10
0.0
 20
0.0
 30
0.0
 40
10.0
  1
LVA125L20C-SUS
  7
STANDARD1
  0
ENDSEC
  0
EOF
