  0
SECTION
  2
HEADER
  9
$ACADVER
  1
AC1009
  9
$INSBASE
 10
0.0
 20
0.0
 30
0.0
  9
$EXTMIN
 10
0.0
 20
-2.960436562073669
 30
0.0
  9
$EXTMAX
 10
281.74646263807551
 20
361.696379482287
 30
0.0
  9
$LIMMIN
 10
0.0
 20
0.0
  9
$LIMMAX
 10
750.0
 20
540.0
  9
$ORTHOMODE
 70
     1
  9
$REGENMODE
 70
     1
  9
$FILLMODE
 70
     1
  9
$QTEXTMODE
 70
     0
  9
$MIRRTEXT
 70
     0
  9
$DRAGMODE
 70
     2
  9
$LTSCALE
 40
20.0
  9
$OSMODE
 70
    37
  9
$ATTMODE
 70
     1
  9
$TEXTSIZE
 40
0.2
  9
$TRACEWID
 40
0.05
  9
$TEXTSTYLE
  7
STANDARD
  9
$CLAYER
  8
0
  9
$CELTYPE
  6
BYLAYER
  9
$CECOLOR
 62
   256
  9
$DIMSCALE
 40
2.0
  9
$DIMASZ
 40
3.0
  9
$DIMEXO
 40
2.0
  9
$DIMDLI
 40
0.38
  9
$DIMRND
 40
0.0
  9
$DIMDLE
 40
0.0
  9
$DIMEXE
 40
2.0
  9
$DIMTP
 40
0.0
  9
$DIMTM
 40
0.0
  9
$DIMTXT
 40
3.2000000000000002
  9
$DIMCEN
 40
0.0
  9
$DIMTSZ
 40
0.0
  9
$DIMTOL
 70
     0
  9
$DIMLIM
 70
     0
  9
$DIMTIH
 70
     0
  9
$DIMTOH
 70
     0
  9
$DIMSE1
 70
     0
  9
$DIMSE2
 70
     0
  9
$DIMTAD
 70
     1
  9
$DIMZIN
 70
     8
  9
$DIMBLK
  1

  9
$DIMASO
 70
     1
  9
$DIMSHO
 70
     0
  9
$DIMPOST
  1

  9
$DIMAPOST
  1

  9
$DIMALT
 70
     0
  9
$DIMALTD
 70
     2
  9
$DIMALTF
 40
25.399999999999999
  9
$DIMLFAC
 40
1.0
  9
$DIMTOFL
 70
     1
  9
$DIMTVP
 40
1.6000000000000001
  9
$DIMTIX
 70
     1
  9
$DIMSOXD
 70
     0
  9
$DIMSAH
 70
     0
  9
$DIMBLK1
  1

  9
$DIMBLK2
  1

  9
$DIMSTYLE
  2
STANDARD
  9
$DIMCLRD
 70
     0
  9
$DIMCLRE
 70
     0
  9
$DIMCLRT
 70
     0
  9
$DIMTFAC
 40
1.0
  9
$DIMGAP
 40
0.09
  9
$LUNITS
 70
     2
  9
$LUPREC
 70
     1
  9
$SKETCHINC
 40
0.1
  9
$FILLETRAD
 40
0.0
  9
$AUNITS
 70
     0
  9
$AUPREC
 70
     0
  9
$MENU
  1
E:\r13\win\SUPPORT\ACAD
  9
$ELEVATION
 40
0.0
  9
$PELEVATION
 40
0.0
  9
$THICKNESS
 40
0.0
  9
$LIMCHECK
 70
     0
  9
$BLIPMODE
 70
     0
  9
$CHAMFERA
 40
0.0
  9
$CHAMFERB
 40
0.0
  9
$SKPOLY
 70
     0
  9
$TDCREATE
 40
2451614.4625386568
  9
$TDUPDATE
 40
2459548.4494952308
  9
$TDINDWG
 40
0.0081632523
  9
$TDUSRTIMER
 40
0.0081632523
  9
$USRTIMER
 70
     1
  9
$ANGBASE
 50
0.0
  9
$ANGDIR
 70
     0
  9
$PDMODE
 70
     0
  9
$PDSIZE
 40
0.0
  9
$PLINEWID
 40
0.0
  9
$COORDS
 70
     1
  9
$SPLFRAME
 70
     0
  9
$SPLINETYPE
 70
     6
  9
$SPLINESEGS
 70
     8
  9
$ATTDIA
 70
     0
  9
$ATTREQ
 70
     1
  9
$HANDLING
 70
     1
  9
$HANDSEED
  5
1172
  9
$SURFTAB1
 70
     6
  9
$SURFTAB2
 70
     6
  9
$SURFTYPE
 70
     6
  9
$SURFU
 70
     6
  9
$SURFV
 70
     6
  9
$UCSNAME
  2

  9
$UCSORG
 10
0.0
 20
0.0
 30
0.0
  9
$UCSXDIR
 10
1.0
 20
0.0
 30
0.0
  9
$UCSYDIR
 10
0.0
 20
1.0
 30
0.0
  9
$PUCSNAME
  2

  9
$PUCSORG
 10
0.0
 20
0.0
 30
0.0
  9
$PUCSXDIR
 10
1.0
 20
0.0
 30
0.0
  9
$PUCSYDIR
 10
0.0
 20
1.0
 30
0.0
  9
$USERI1
 70
     0
  9
$USERI2
 70
     1
  9
$USERI3
 70
     1
  9
$USERI4
 70
     0
  9
$USERI5
 70
     0
  9
$USERR1
 40
0.0
  9
$USERR2
 40
0.0
  9
$USERR3
 40
0.0
  9
$USERR4
 40
0.0
  9
$USERR5
 40
0.0
  9
$WORLDVIEW
 70
     1
  9
$SHADEDGE
 70
     3
  9
$SHADEDIF
 70
    70
  9
$TILEMODE
 70
     1
  9
$MAXACTVP
 70
    16
  9
$PLIMCHECK
 70
     0
  9
$PEXTMIN
 10
1.0000000000000000E+020
 20
1.0000000000000000E+020
 30
1.0000000000000000E+020
  9
$PEXTMAX
 10
-1.0000000000000000E+020
 20
-1.0000000000000000E+020
 30
-1.0000000000000000E+020
  9
$PLIMMIN
 10
0.0
 20
0.0
  9
$PLIMMAX
 10
12.0
 20
9.0
  9
$UNITMODE
 70
     0
  9
$VISRETAIN
 70
     0
  9
$PLINEGEN
 70
     0
  9
$PSLTSCALE
 70
     0
  0
ENDSEC
  0
SECTION
  2
TABLES
  0
TABLE
  2
VPORT
 70
     1
  0
VPORT
  2
*ACTIVE
 70
     0
 10
0.0
 20
0.0
 11
1.0
 21
1.0
 12
520.3915171288744
 22
200.0
 13
0.0
 23
0.0
 14
20.0
 24
20.0
 15
20.0
 25
20.0
 16
0.0
 26
0.0
 36
1.0
 17
0.0
 27
0.0
 37
0.0
 40
400.0
 41
2.6019575856443722
 42
50.0
 43
0.0
 44
0.0
 50
0.0
 51
0.0
 71
     0
 72
   500
 73
     1
 74
     0
 75
     0
 76
     0
 77
     0
 78
     2
  0
ENDTAB
  0
TABLE
  2
LTYPE
 70
     4
  0
LTYPE
  2
CONTINUOUS
 70
     0
  3
Solid Line
 72
    65
 73
     0
 40
0.0
  0
LTYPE
  2
CENTER
 70
     0
  3
____ _ ____ _ ____ _ ____ _ ____ _ ____ _ ____
 72
    65
 73
     4
 40
2.0
 49
1.25
 49
-0.25
 49
0.25
 49
-0.25
  0
LTYPE
  2
HIDDEN
 70
     0
  3
_ _ _ _ _ _ _ _ _ _ _ _ _ _ _ _ _ _ _ _ _ _ _
 72
    65
 73
     2
 40
0.375
 49
0.25
 49
-0.125
  0
LTYPE
  2
PHANTOM2
 70
     0
  3
___ _ _ ___ _ _ ___ _ _ ___ _ _
 72
    65
 73
     6
 40
1.25
 49
0.625
 49
-0.125
 49
0.125
 49
-0.125
 49
0.125
 49
-0.125
  0
ENDTAB
  0
TABLE
  2
LAYER
 70
     5
  0
LAYER
  2
0
 70
     0
 62
     7
  6
CONTINUOUS
  0
LAYER
  2
1
 70
     0
 62
     1
  6
CENTER
  0
LAYER
  2
2
 70
     0
 62
     2
  6
HIDDEN
  0
LAYER
  2
3
 70
     0
 62
     3
  6
CONTINUOUS
  0
LAYER
  2
CONTORNO
 70
     0
 62
     7
  6
CONTINUOUS
  0
ENDTAB
  0
TABLE
  2
STYLE
 70
     4
  0
STYLE
  2
STANDARD
 70
     0
 40
0.0
 41
1.0
 50
0.0
 71
     0
 42
0.2
  3
TXT
  4
BIGFONT
  0
STYLE
  2
SIM300
 70
     0
 40
0.0
 41
3.0
 50
0.0
 71
     0
 42
1.0
  3
SIMPLEX
  4

  0
STYLE
  2
SIMPLEX
 70
     0
 40
0.0
 41
0.8
 50
0.0
 71
     0
 42
2.8165380840108591
  3
SIMPLEX
  4

  0
STYLE
  2
STANDARD1
 70
     0
 40
0.0
 41
1.0
 50
0.0
 71
     0
 42
3.0
  3
txt
  4

  0
ENDTAB
  0
TABLE
  2
VIEW
 70
     1
  0
VIEW
  2
ALL
 70
     0
 40
540.0
 10
441.98319327731087
 20
270.0
 41
0.0
 11
0.0
 21
0.0
 31
1.0
 12
0.0
 22
0.0
 32
0.0
 42
0.0
 43
0.0
 44
0.0
 50
0.0
 71
     0
  0
ENDTAB
  0
TABLE
  2
UCS
 70
     0
  0
ENDTAB
  0
TABLE
  2
APPID
 70
     8
  0
APPID
  2
ACAD
 70
     0
  0
APPID
  2
ACAD_MLEADERVER
 70
     0
  0
APPID
  2
ACAD_EXEMPT_FROM_CAD_STANDARDS
 70
     0
  0
APPID
  2
ACAD_DSTYLE_DIMJAG
 70
     0
  0
APPID
  2
ACAD_DSTYLE_DIMTALN
 70
     0
  0
APPID
  2
GRADIENTCOLOR1ACI
 70
     0
  0
APPID
  2
GRADIENTCOLOR2ACI
 70
     0
  0
APPID
  2
ACAD_NAV_VCDISPLAY
 70
     0
  0
ENDTAB
  0
TABLE
  2
DIMSTYLE
 70
     1
  0
DIMSTYLE
  2
STANDARD
 70
     0
  3

  4

  5

  6

  7

 40
1.0
 41
0.18
 42
0.0625
 43
0.38
 44
0.18
 45
0.0
 46
0.0
 47
0.0
 48
0.0
140
0.18
141
0.09
142
0.0
143
25.399999999999999
144
1.0
145
0.0
146
1.0
147
0.09
 71
     0
 72
     0
 73
     1
 74
     1
 75
     0
 76
     0
 77
     0
 78
     0
170
     0
171
     2
172
     0
173
     0
174
     0
175
     0
176
     0
177
     0
178
     0
  0
ENDTAB
  0
ENDSEC
  0
SECTION
  2
BLOCKS
  0
BLOCK
  8
0
  2
$MODEL_SPACE
 70
     0
 10
0.0
 20
0.0
 30
0.0
  3
$MODEL_SPACE
  1

  0
ENDBLK
  5
F98
  8
0
  0
BLOCK
 67
     1
  8
0
  2
$PAPER_SPACE
 70
     0
 10
0.0
 20
0.0
 30
0.0
  3
$PAPER_SPACE
  1

  0
ENDBLK
  5
F96
 67
     1
  8
0
  0
ENDSEC
  0
SECTION
  2
ENTITIES
  0
LINE
  5
868
  8
0
 10
119.07126229542069
 20
189.76640498543961
 30
0.0
 11
119.07126229542069
 21
220.69637948389689
 31
0.0
  0
LINE
  5
869
  8
0
 10
79.92873770457993
 20
189.76640498543961
 30
0.0
 11
79.92873770457993
 21
220.69637948389689
 31
0.0
  0
CIRCLE
  5
86A
  8
0
 10
99.500000000000242
 20
208.69638482575581
 30
0.0
 40
9.1999999999999993
  0
CIRCLE
  5
86B
  8
0
 10
99.500000000000242
 20
208.69638482575581
 30
0.0
 40
8.5
  0
LINE
  5
86C
  8
1
 10
99.500000000000242
 20
361.696379482287
 30
0.0
 11
99.500000000000242
 21
182.69637948550471
 31
0.0
  0
ARC
  5
86E
  8
0
 10
86.763083688176607
 20
185.58978953213659
 30
0.0
 40
9.0317815443089202
 50
115.6928681884622
 51
123.0944037422144
  0
LINE
  5
86F
  8
0
 10
81.935866527182611
 20
187.69637948550471
 30
0.0
 11
79.92873770457993
 21
189.76640498543961
 31
0.0
  0
LINE
  5
870
  8
1
 10
74.92873770457993
 20
208.69638482575581
 30
0.0
 11
124.07126229542069
 21
208.69638482575581
 31
0.0
  0
LINE
  5
871
  8
0
 10
79.928737704579817
 20
102.9963794855048
 30
0.0
 11
119.0712622954205
 21
102.9963794855048
 31
0.0
1001
ACAD
1000
ASC_BOUNDS
1002
{
1070
    19
1002
}
  0
ARC
  5
872
  8
0
 10
99.500000000000242
 20
108.69637948550471
 30
0.0
 40
19.000000000000021
 50
4.9999999999924416
 51
175.0000000000075
1001
ACAD
1000
ASC_BOUNDS
1002
{
1070
    19
1002
}
  0
LINE
  5
873
  8
0
 10
79.928737704579817
 20
102.9963794855048
 30
0.0
 11
80.572300736256693
 21
110.3523385977079
 31
0.0
210
0.0
220
1.0
230
0.0
1001
ACAD
1000
ASC_BOUNDS
1002
{
1070
    19
1005
0
1002
}
  0
LINE
  5
874
  8
0
 10
79.92873770457993
 20
189.76640498543961
 30
0.0
 11
80.527345841764713
 21
191.59974613476561
 31
0.0
  0
ARC
  5
875
  8
0
 10
82.185729268061777
 20
191.20916218967369
 30
0.0
 40
1.6976545756381269
 50
145.8064857678236
 51
161.876240648509
  0
ARC
  5
876
  8
0
 10
83.328104690452733
 20
190.4329936790125
 30
0.0
 40
3.078762523129829
 50
132.8721229398474
 51
145.80648576782289
  0
LINE
  5
877
  8
0
 10
80.527345841764713
 20
191.5997461347655
 30
0.0
 11
80.572300736243847
 21
191.73725255211309
 31
0.0
  0
ARC
  5
878
  8
0
 10
84.262529116811365
 20
189.42645158411989
 30
0.0
 40
4.452180157124153
 50
123.09440374221479
 51
132.8721229398474
  0
LINE
  5
879
  8
2
 10
108.2500000000002
 20
122.69637948550471
 30
0.0
 11
108.2500000000002
 21
125.5616544610277
 31
0.0
1001
ACAD
1000
ASC_BOUNDS
1002
{
1070
    19
1002
}
  0
LINE
  5
87A
  8
2
 10
107.8704704675456
 20
125.75320287533761
 30
0.0
 11
107.8704704675456
 21
122.69637948550471
 31
0.0
  0
LINE
  5
87B
  8
2
 10
90.750000000000213
 20
122.69637948550471
 30
0.0
 11
90.750000000000213
 21
125.5616544610277
 31
0.0
1001
ACAD
1000
ASC_BOUNDS
1002
{
1070
    19
1002
}
  0
LINE
  5
87C
  8
2
 10
91.129529532454725
 20
125.75320287533761
 30
0.0
 11
91.129529532454725
 21
122.69637948550471
 31
0.0
  0
ARC
  5
87D
  8
0
 10
99.500000000000242
 20
108.69637948550471
 30
0.0
 40
16.000000000000021
 50
4.9999999999924416
 51
175.0000000000075
1001
ACAD
1000
ASC_BOUNDS
1002
{
1070
    19
1002
}
  0
LINE
  5
87E
  8
1
 10
99.500000000000242
 20
132.69637948550471
 30
0.0
 11
99.500000000000014
 21
75.000000000000014
 31
0.0
  0
LINE
  5
87F
  8
3
 10
104.5544180316251
 20
80.519370175560212
 30
0.0
 11
104.5544180316251
 21
84.237538744279405
 31
0.0
  0
LINE
  5
880
  8
0
 10
104.35644126456231
 20
80.000000000000014
 30
0.0
 11
105.5000000000002
 21
83.000000000000014
 31
0.0
  0
LINE
  5
881
  8
3
 10
94.445581968375095
 20
80.519370175560212
 30
0.0
 11
94.445581968375095
 21
84.237538650318825
 31
0.0
  0
LINE
  5
882
  8
0
 10
94.643558735437864
 20
80.000000000000014
 30
0.0
 11
93.500000000000213
 21
83.000000000000014
 31
0.0
  0
LINE
  5
883
  8
0
 10
104.35644126456231
 20
80.000000000000014
 30
0.0
 11
94.643558735437864
 21
80.000000000000014
 31
0.0
  0
LINE
  5
884
  8
2
 10
84.000000000000227
 20
103.8140263740277
 30
0.0
 11
115.0000000000002
 21
103.81402637402751
 31
0.0
1001
ACAD
1000
ASC_BOUNDS
1002
{
1070
    19
1002
}
  0
ARC
  5
885
  8
2
 10
99.500000000000682
 20
105.488566985505
 30
0.0
 40
15.507812499999501
 50
358.18123910165798
 51
181.81876089839901
  0
LINE
  5
886
  8
0
 10
108.40000000000011
 20
102.4963794855048
 30
0.0
 11
108.40000000000011
 21
102.9963794855048
 31
0.0
1001
ACAD
1000
ASC_BOUNDS
1002
{
1070
    19
1002
}
  0
LINE
  5
887
  8
0
 10
90.600000000000136
 20
102.4963794855048
 30
0.0
 11
90.600000000000136
 21
102.9963794855048
 31
0.0
1001
ACAD
1000
ASC_BOUNDS
1002
{
1070
    19
1002
}
  0
LINE
  5
888
  8
0
 10
95.068632196643534
 20
94.441233074400898
 30
0.0
 11
97.865288554003897
 21
96.720852024417027
 31
0.0
  0
LINE
  5
889
  8
0
 10
95.482986179468185
 20
96.249996594442806
 30
0.0
 11
96.498455367126553
 21
96.249996641636145
 31
0.0
  0
LINE
  5
88A
  8
0
 10
96.337049717635637
 20
95.475149382987198
 30
0.0
 11
98.758523485116825
 21
95.475149518031344
 31
0.0
  0
LINE
  5
88B
  8
0
 10
97.521470778478943
 20
97.083880043445234
 30
0.0
 11
94.724814427867145
 21
94.804261099820579
 31
0.0
  0
LINE
  5
88C
  8
0
 10
88.000000000000227
 20
100.9963794855048
 30
0.0
 11
99.500000000000114
 21
100.9963794855048
 31
0.0
1001
ACAD
1000
ASC_BOUNDS
1002
{
1070
    19
1002
}
  0
ARC
  5
88D
  8
0
 10
99.499999439210114
 20
77.783055392076463
 30
0.0
 40
16.45448269053572
 50
70.528777294449355
 51
109.4712188001224
  0
LINE
  5
88E
  8
0
 10
107.72724106633081
 20
94.237537805132902
 30
0.0
 11
91.272758423860296
 21
94.237537958075578
 31
0.0
  0
LINE
  5
88F
  8
0
 10
88.000000000000227
 20
101.9841032634863
 30
0.0
 11
111.0000000000002
 21
101.9841032634863
 31
0.0
  0
LINE
  5
890
  8
0
 10
88.000000000000227
 20
101.9216032634864
 30
0.0
 11
111.0000000000002
 21
101.9216032634864
 31
0.0
  0
LINE
  5
891
  8
0
 10
88.000000000000227
 20
101.8591032634863
 30
0.0
 11
111.0000000000002
 21
101.8591032634863
 31
0.0
  0
LINE
  5
892
  8
0
 10
88.000000000000227
 20
101.7966032634864
 30
0.0
 11
111.0000000000002
 21
101.7966032634864
 31
0.0
  0
LINE
  5
893
  8
0
 10
88.000000000000227
 20
101.7341032634863
 30
0.0
 11
111.0000000000002
 21
101.7341032634863
 31
0.0
  0
LINE
  5
894
  8
0
 10
88.000000000000227
 20
101.6716032634864
 30
0.0
 11
111.0000000000002
 21
101.6716032634864
 31
0.0
  0
LINE
  5
895
  8
0
 10
88.000000000000227
 20
101.6091032634863
 30
0.0
 11
111.0000000000002
 21
101.6091032634863
 31
0.0
  0
LINE
  5
896
  8
0
 10
88.000000000000227
 20
101.5466032634863
 30
0.0
 11
111.0000000000002
 21
101.5466032634863
 31
0.0
  0
LINE
  5
897
  8
0
 10
88.000000000000227
 20
101.4841032634864
 30
0.0
 11
111.0000000000002
 21
101.4841032634864
 31
0.0
  0
LINE
  5
898
  8
0
 10
88.000000000000227
 20
101.4216032634863
 30
0.0
 11
111.0000000000002
 21
101.4216032634863
 31
0.0
  0
LINE
  5
899
  8
0
 10
88.000000000000227
 20
101.3591032634864
 30
0.0
 11
111.0000000000002
 21
101.3591032634864
 31
0.0
  0
LINE
  5
89A
  8
0
 10
88.000000000000227
 20
101.2966032634863
 30
0.0
 11
111.0000000000002
 21
101.2966032634863
 31
0.0
  0
LINE
  5
89B
  8
0
 10
88.000000000000227
 20
101.2341032634864
 30
0.0
 11
111.0000000000002
 21
101.2341032634864
 31
0.0
  0
LINE
  5
89C
  8
0
 10
88.000000000000227
 20
101.1716032634863
 30
0.0
 11
111.0000000000002
 21
101.1716032634863
 31
0.0
  0
LINE
  5
89D
  8
0
 10
88.000000000000227
 20
101.1091032634863
 30
0.0
 11
111.0000000000002
 21
101.1091032634863
 31
0.0
  0
LINE
  5
89E
  8
0
 10
88.000000000000227
 20
101.0466032634864
 30
0.0
 11
111.0000000000002
 21
101.0466032634864
 31
0.0
  0
LINE
  5
89F
  8
0
 10
88.000000000000227
 20
102.0466032634864
 30
0.0
 11
111.0000000000002
 21
102.0466032634864
 31
0.0
  0
LINE
  5
8A0
  8
0
 10
88.000000000000227
 20
102.1091032634863
 30
0.0
 11
111.0000000000002
 21
102.1091032634863
 31
0.0
  0
LINE
  5
8A1
  8
0
 10
88.000000000000227
 20
102.1716032634863
 30
0.0
 11
111.0000000000002
 21
102.1716032634863
 31
0.0
  0
LINE
  5
8A2
  8
0
 10
88.000000000000227
 20
102.2341032634864
 30
0.0
 11
111.0000000000002
 21
102.2341032634864
 31
0.0
  0
LINE
  5
8A3
  8
0
 10
88.000000000000227
 20
102.2966032634863
 30
0.0
 11
111.0000000000002
 21
102.2966032634863
 31
0.0
  0
LINE
  5
8A4
  8
0
 10
88.000000000000227
 20
102.3591032634864
 30
0.0
 11
111.0000000000002
 21
102.3591032634864
 31
0.0
  0
LINE
  5
8A5
  8
0
 10
88.000000000000227
 20
102.4216032634863
 30
0.0
 11
111.0000000000002
 21
102.4216032634863
 31
0.0
  0
LINE
  5
8A6
  8
0
 10
88.000000000000227
 20
102.4841032634864
 30
0.0
 11
111.0000000000002
 21
102.4841032634864
 31
0.0
  0
LINE
  5
8A7
  8
0
 10
90.600000000000136
 20
102.5466032634864
 30
0.0
 11
108.40000000000011
 21
102.5466032634864
 31
0.0
  0
LINE
  5
8A8
  8
0
 10
90.600000000000136
 20
102.6091032634864
 30
0.0
 11
108.40000000000011
 21
102.6091032634864
 31
0.0
  0
LINE
  5
8A9
  8
0
 10
90.600000000000136
 20
102.6716032634864
 30
0.0
 11
108.40000000000011
 21
102.6716032634864
 31
0.0
  0
LINE
  5
8AA
  8
0
 10
93.500000000000213
 20
83.000000000000014
 30
0.0
 11
105.5000000000002
 21
83.000000000000014
 31
0.0
  0
ARC
  5
8AB
  8
0
 10
99.500000078019411
 20
100.6920206770175
 30
0.0
 40
16.45448269053572
 50
250.5287780045274
 51
289.47121951020199
  0
LINE
  5
8AC
  8
0
 10
107.72724106633081
 20
84.237538773770453
 30
0.0
 11
91.272758423860296
 21
84.237538620827777
 31
0.0
  0
LINE
  5
8AD
  8
0
 10
94.015171856732195
 20
93.296490656857259
 30
0.0
 11
94.015171554911817
 21
85.178585922045954
 31
0.0
  0
LINE
  5
8AE
  8
0
 10
88.530344309242096
 20
93.296490911761808
 30
0.0
 11
88.530344007421718
 21
85.178586176950503
 31
0.0
  0
ARC
  5
8AF
  8
0
 10
91.272758055454005
 20
88.704051939743877
 30
0.0
 40
4.4665135228401711
 50
232.12111784548711
 51
307.87887682892961
  0
LINE
  5
8B0
  8
0
 10
93.500000000000213
 20
83.000000000000014
 30
0.0
 11
93.500000000000213
 21
84.237538641529696
 31
0.0
  0
LINE
  5
8B1
  8
0
 10
89.158324956320357
 20
95.475148982634224
 30
0.0
 11
91.247852998593544
 21
95.475149099165833
 31
0.0
  0
ARC
  5
8B2
  8
0
 10
91.272758085206206
 20
89.771024588178079
 30
0.0
 40
4.4665135228401711
 50
52.121119975720831
 51
127.8788789591639
  0
LINE
  5
8B3
  8
0
 10
89.158324933553999
 20
96.249996300507419
 30
0.0
 11
93.360587804889519
 21
96.249996495805377
 31
0.0
  0
LINE
  5
8B4
  8
0
 10
90.600000000000136
 20
102.4963794855048
 30
0.0
 11
88.000000000000227
 21
102.4963794855048
 31
0.0
1001
ACAD
1000
ASC_BOUNDS
1002
{
1070
    19
1002
}
  0
LINE
  5
8B5
  8
0
 10
88.000000000000227
 20
102.4963794855048
 30
0.0
 11
88.000000000000227
 21
100.9963794855048
 31
0.0
1001
ACAD
1000
ASC_BOUNDS
1002
{
1070
    19
1002
}
  0
LINE
  5
8B6
  8
0
 10
89.158324985128957
 20
95.475148982634224
 30
0.0
 11
89.158324956320357
 21
96.249996300507419
 31
0.0
  0
LINE
  5
8B7
  8
0
 10
92.481797152275931
 20
95.010252093589898
 30
0.0
 11
91.016033192384157
 21
96.249996386843478
 31
0.0
  0
LINE
  5
8B8
  8
0
 10
90.368094069286386
 20
96.24999635673079
 30
0.0
 11
92.210402089593558
 21
94.627384446160036
 31
0.0
  0
LINE
  5
8B9
  8
3
 10
94.445581968375095
 20
94.237537928584544
 30
0.0
 11
94.445581968375095
 21
95.470535621604895
 31
0.0
  0
LINE
  5
8BA
  8
0
 10
94.445581968375095
 20
94.237537928584544
 30
0.0
 11
94.445581968375095
 21
94.273105319313814
 31
0.0
  0
LINE
  5
8BB
  8
0
 10
94.570061063579715
 20
97.094027767515087
 30
0.0
 11
94.141800865490936
 21
97.352084366150635
 31
0.0
  0
LINE
  5
8BC
  8
0
 10
93.971770992252004
 20
96.249996524209806
 30
0.0
 11
94.804017778115394
 21
96.249996562888114
 31
0.0
  0
LINE
  5
8BD
  8
0
 10
93.500000000000213
 20
94.237537937373659
 30
0.0
 11
93.500000000000213
 21
95.458679876037664
 31
0.0
  0
LINE
  5
8BE
  8
0
 10
92.055282286053497
 20
94.408550862143684
 30
0.0
 11
92.483542479345033
 21
94.15049425554686
 31
0.0
  0
LINE
  5
8BF
  8
0
 10
94.141800865490936
 20
97.352084366150635
 30
0.0
 11
92.055282286053497
 21
94.408550862143684
 31
0.0
  0
LINE
  5
8C0
  8
0
 10
92.483542479345033
 20
94.15049425554686
 30
0.0
 11
94.570061063579715
 21
97.094027767515087
 31
0.0
  0
LINE
  5
8C1
  8
0
 10
94.037759750649016
 20
97.205309489401557
 30
0.0
 11
91.388398668869058
 21
96.249905761517226
 31
0.0
  0
LINE
  5
8C2
  8
0
 10
94.724814427867145
 20
94.804261099820579
 30
0.0
 11
95.068632196643534
 21
94.441233074400898
 31
0.0
  0
LINE
  5
8C3
  8
0
 10
94.295415520787401
 20
96.697947758555216
 30
0.0
 11
95.618451034360973
 21
95.532684860728423
 31
0.0
  0
LINE
  5
8C4
  8
0
 10
93.422521835524549
 20
95.475149220445815
 30
0.0
 11
95.547865955767975
 21
95.475149338974944
 31
0.0
  0
LINE
  5
8C5
  8
0
 10
95.981342733394726
 20
95.828486234901916
 30
0.0
 11
94.538207693360604
 21
97.049090970202343
 31
0.0
  0
LINE
  5
8C6
  8
0
 10
93.500000000000213
 20
97.011782545345923
 30
0.0
 11
93.500000000000213
 21
100.9963794855048
 31
0.0
  0
LINE
  5
8C7
  8
3
 10
94.445581968375095
 20
97.201474474421744
 30
0.0
 11
94.445581968375095
 21
100.9963794855048
 31
0.0
  0
LINE
  5
8C8
  8
0
 10
110.4696551109737
 20
93.296490096067274
 30
0.0
 11
110.4696548091533
 21
85.178585361255855
 31
0.0
  0
LINE
  5
8C9
  8
0
 10
104.98482756348329
 20
93.296490249009935
 30
0.0
 11
104.9848272616631
 21
85.178585514198645
 31
0.0
  0
LINE
  5
8CA
  8
0
 10
105.5000000000002
 20
83.000000000000128
 30
0.0
 11
105.5000000000002
 21
84.237538753068534
 31
0.0
  0
ARC
  5
8CB
  8
0
 10
107.7272412091697
 20
88.704051327973175
 30
0.0
 40
4.4665135228401711
 50
232.12111891060511
 51
307.87887789404772
  0
LINE
  5
8CC
  8
0
 10
103.3488447360631
 20
96.249996960004424
 30
0.0
 11
103.83799990227629
 21
96.249996982737699
 31
0.0
  0
LINE
  5
8CD
  8
0
 10
103.94375651198099
 20
96.820513974278484
 30
0.0
 11
103.5718349778539
 21
97.154691139595016
 31
0.0
  0
LINE
  5
8CE
  8
0
 10
101.33965453347921
 20
94.323194967022928
 30
0.0
 11
103.94375651198099
 21
96.820513974278484
 31
0.0
  0
LINE
  5
8CF
  8
0
 10
103.58056015675859
 20
96.476736915868756
 30
0.0
 11
104.98647935391899
 21
95.238474253237555
 31
0.0
  0
LINE
  5
8D0
  8
0
 10
102.54086577882519
 20
95.475149728970237
 30
0.0
 11
104.7177586894302
 21
95.475149850374137
 31
0.0
  0
LINE
  5
8D1
  8
0
 10
111.0000000000002
 20
100.9963794855048
 30
0.0
 11
99.500000000000114
 21
100.9963794855048
 31
0.0
1001
ACAD
1000
ASC_BOUNDS
1002
{
1070
    19
1002
}
  0
LINE
  5
8D2
  8
0
 10
100.587406854675
 20
96.489368069217235
 30
0.0
 11
101.78144620770971
 21
95.437718478286698
 31
0.0
  0
LINE
  5
8D3
  8
0
 10
100.5706084912652
 20
97.115611042085334
 30
0.0
 11
100.9327737011388
 21
96.770884532916526
 31
0.0
  0
LINE
  5
8D4
  8
0
 10
100.9677330055644
 20
94.657372139253326
 30
0.0
 11
101.32989821543801
 21
94.312645630084504
 31
0.0
  0
LINE
  5
8D5
  8
0
 10
103.5718349778539
 20
97.154691139595016
 30
0.0
 11
100.9677330055644
 21
94.657372139253326
 31
0.0
  0
LINE
  5
8D6
  8
0
 10
101.5288075843297
 20
96.249996875419157
 30
0.0
 11
102.6284569055081
 21
96.249996926524801
 31
0.0
  0
LINE
  5
8D7
  8
0
 10
102.0769665660828
 20
95.787883299351179
 30
0.0
 11
100.9389535060741
 21
96.750415627474382
 31
0.0
  0
LINE
  5
8D8
  8
0
 10
97.287639119623805
 20
96.24999667831311
 30
0.0
 11
97.734896404227356
 21
96.249996699099157
 31
0.0
  0
LINE
  5
8D9
  8
0
 10
97.865288554003897
 20
96.720852024417027
 30
0.0
 11
97.521470778478943
 21
97.083880043445234
 31
0.0
  0
LINE
  5
8DA
  8
0
 10
97.519921707540107
 20
96.439335560717865
 30
0.0
 11
98.667694801280959
 21
95.428434955602967
 31
0.0
  0
LINE
  5
8DB
  8
0
 10
99.009481418947871
 20
95.737850790851795
 30
0.0
 11
97.871468358939197
 21
96.700383118974869
 31
0.0
  0
LINE
  5
8DC
  8
0
 10
97.895820277384928
 20
94.694153364892614
 30
0.0
 11
98.257985487258352
 21
94.349426855723777
 31
0.0
  0
LINE
  5
8DD
  8
0
 10
99.501480200557125
 20
95.475149559465549
 30
0.0
 11
101.7389469443294
 21
95.475149684247555
 31
0.0
  0
LINE
  5
8DE
  8
0
 10
100.9327737011388
 20
96.770884532916526
 30
0.0
 11
98.257985487258352
 21
94.349426855723777
 31
0.0
  0
LINE
  5
8DF
  8
0
 10
100.5706084912652
 20
97.115611042085334
 30
0.0
 11
97.895820277384928
 21
94.694153364892614
 31
0.0
  0
LINE
  5
8E0
  8
0
 10
111.0000000000002
 20
102.4963794855048
 30
0.0
 11
111.0000000000002
 21
100.9963794855048
 31
0.0
1001
ACAD
1000
ASC_BOUNDS
1002
{
1070
    19
1002
}
  0
LINE
  5
8E1
  8
0
 10
109.6583250032274
 20
95.475150125906467
 30
0.0
 11
109.658324933554
 21
96.249997253234255
 31
0.0
  0
LINE
  5
8E2
  8
0
 10
104.9505885084013
 20
94.025216929269163
 30
0.0
 11
106.52937823294521
 21
97.269499953931373
 31
0.0
  0
LINE
  5
8E3
  8
0
 10
104.9505885084013
 20
94.025216929269163
 30
0.0
 11
107.3611647113041
 21
95.475149997795285
 31
0.0
  0
LINE
  5
8E4
  8
0
 10
105.5000000000002
 20
94.237537825834821
 30
0.0
 11
105.5000000000002
 21
94.261249573746596
 31
0.0
  0
LINE
  5
8E5
  8
0
 10
107.8081363580515
 20
95.475150022722588
 30
0.0
 11
106.4011975887604
 21
96.980454319147853
 31
0.0
  0
LINE
  5
8E6
  8
0
 10
106.18906161677241
 20
96.570177299561479
 30
0.0
 11
107.1721972776201
 21
95.475149987256614
 31
0.0
  0
LINE
  5
8E7
  8
0
 10
106.52937823294521
 20
97.269499953931373
 30
0.0
 11
106.0647807400437
 21
97.454294907747695
 31
0.0
  0
LINE
  5
8E8
  8
3
 10
104.5544180316251
 20
94.23753783462395
 30
0.0
 11
104.5544180316251
 21
95.4349683849032
 31
0.0
  0
LINE
  5
8E9
  8
0
 10
104.5544180316251
 20
94.23753783462395
 30
0.0
 11
104.5544180316251
 21
94.308672556015622
 31
0.0
  0
LINE
  5
8EA
  8
0
 10
106.0647807400437
 20
97.454294907747695
 30
0.0
 11
104.485991018935
 21
94.210011891722274
 31
0.0
  0
LINE
  5
8EB
  8
0
 10
104.485991018935
 20
94.210011891722274
 30
0.0
 11
104.9505885084013
 21
94.025216929269163
 31
0.0
  0
LINE
  5
8EC
  8
0
 10
104.5049891486464
 20
96.249997013735666
 30
0.0
 11
105.478724266123
 21
96.249997058989507
 31
0.0
  0
LINE
  5
8ED
  8
0
 10
105.194799453654
 20
95.666554923152603
 30
0.0
 11
103.890661309244
 21
96.769595976410542
 31
0.0
  0
LINE
  5
8EE
  8
0
 10
105.5000000000002
 20
96.347860793580608
 30
0.0
 11
105.5000000000002
 21
100.9963794855048
 31
0.0
  0
LINE
  5
8EF
  8
3
 10
104.5544180316251
 20
96.253014829042641
 30
0.0
 11
104.5544180316251
 21
100.9963794855047
 31
0.0
  0
ARC
  5
8F0
  8
0
 10
107.72724123892201
 20
89.771024282292743
 30
0.0
 40
4.4665135228401711
 50
52.121118910602803
 51
127.8788778940459
  0
LINE
  5
8F1
  8
0
 10
105.6561802407943
 20
95.475149902709305
 30
0.0
 11
109.6583250234728
 21
95.475150125906467
 31
0.0
  0
LINE
  5
8F2
  8
0
 10
107.0839223614916
 20
96.249997133590242
 30
0.0
 11
109.658324933554
 21
96.249997253234255
 31
0.0
  0
LINE
  5
8F3
  8
0
 10
108.40000000000011
 20
102.4963794855048
 30
0.0
 11
111.0000000000002
 21
102.4963794855048
 31
0.0
1001
ACAD
1000
ASC_BOUNDS
1002
{
1070
    19
1002
}
  0
LINE
  5
8F4
  8
2
 10
90.750000000000213
 20
122.69637948550471
 30
0.0
 11
108.2500000000002
 21
122.69637948550471
 31
0.0
  0
LINE
  5
8F5
  8
2
 10
93.500000000000213
 20
103.29846243425931
 30
0.0
 11
105.5000000000002
 21
103.29846243425931
 31
0.0
  0
LINE
  5
8F6
  8
0
 10
90.600000000000136
 20
102.7341032634864
 30
0.0
 11
108.40000000000011
 21
102.7341032634864
 31
0.0
  0
LINE
  5
8F7
  8
0
 10
90.600000000000136
 20
102.7966032634864
 30
0.0
 11
108.40000000000011
 21
102.7966032634864
 31
0.0
  0
LINE
  5
8F8
  8
0
 10
90.600000000000136
 20
102.8591032634864
 30
0.0
 11
108.40000000000011
 21
102.8591032634864
 31
0.0
  0
LINE
  5
8F9
  8
0
 10
90.600000000000136
 20
102.9216032634864
 30
0.0
 11
108.40000000000011
 21
102.9216032634864
 31
0.0
  0
LINE
  5
8FA
  8
0
 10
90.600000000000136
 20
102.9841032634864
 30
0.0
 11
108.40000000000011
 21
102.9841032634864
 31
0.0
  0
LINE
  5
8FB
  8
2
 10
105.5000000000002
 20
105.1081104616996
 30
0.0
 11
93.499999999999986
 21
105.10811046169979
 31
0.0
  0
LINE
  5
8FC
  8
2
 10
94.758120271773123
 20
104.0527937883958
 30
0.0
 11
104.2418797282271
 21
104.0527937883958
 31
0.0
  0
LINE
  5
8FD
  8
1
 10
91.94999999999618
 20
110.7463794855048
 30
0.0
 11
107.0500000000043
 21
110.7463794855048
 31
0.0
  0
LINE
  5
8FE
  8
2
 10
93.499999999999986
 20
122.69637948550471
 30
0.0
 11
93.499999999999986
 21
105.1081104616996
 31
0.0
  0
LINE
  5
8FF
  8
0
 10
82.940197217209743
 20
102.9963794855048
 30
0.0
 11
83.560884830532018
 21
110.0908713694653
 31
0.0
210
0.0
220
1.0
230
0.0
1001
ACAD
1000
ASC_BOUNDS
1002
{
1070
    19
1005
0
1002
}
  0
LINE
  5
900
  8
2
 10
84.000000000000227
 20
103.8140263740277
 30
0.0
 11
84.000000000000227
 21
104.9963794855048
 31
0.0
  0
LINE
  5
901
  8
2
 10
93.499999999999986
 20
103.29846243425931
 30
0.0
 11
94.758120271772896
 21
104.0527937883958
 31
0.0
  0
LINE
  5
902
  8
2
 10
93.499999999999986
 20
103.29846243425931
 30
0.0
 11
94.758120271773123
 21
104.0527937883958
 31
0.0
  0
LINE
  5
903
  8
2
 10
94.445581968375095
 20
102.9963794855048
 30
0.0
 11
94.445581968375095
 21
103.8654051524195
 31
0.0
  0
LINE
  5
904
  8
2
 10
93.500000000000213
 20
102.9963794855049
 30
0.0
 11
93.500000000000213
 21
103.29846243425931
 31
0.0
  0
LINE
  5
905
  8
2
 10
94.758120271773123
 20
104.0527937883958
 30
0.0
 11
94.758120271773123
 21
105.10811046169979
 31
0.0
  0
LINE
  5
906
  8
2
 10
105.5000000000002
 20
122.69637948550471
 30
0.0
 11
105.5000000000002
 21
105.1081104616996
 31
0.0
  0
CIRCLE
  5
907
  8
2
 10
99.500000000000242
 20
110.7463794855048
 30
0.0
 40
2.5499999999999989
  0
LINE
  5
908
  8
2
 10
105.5000000000002
 20
102.9963794855048
 30
0.0
 11
105.5000000000002
 21
103.29846243425931
 31
0.0
  0
LINE
  5
909
  8
2
 10
104.5544180316251
 20
102.9963794855048
 30
0.0
 11
104.5544180316251
 21
103.8654051524195
 31
0.0
  0
LINE
  5
90A
  8
2
 10
105.5000000000002
 20
103.29846243425931
 30
0.0
 11
104.2418797282271
 21
104.0527937883958
 31
0.0
  0
LINE
  5
90B
  8
2
 10
104.2418797282271
 20
104.0527937883958
 30
0.0
 11
104.2418797282271
 21
105.10811046169979
 31
0.0
  0
LINE
  5
90C
  8
0
 10
118.42769926374351
 20
110.3523385977079
 30
0.0
 11
119.0712622954205
 21
102.9963794855048
 31
0.0
210
0.0
220
1.0
230
0.0
1001
ACAD
1000
ASC_BOUNDS
1002
{
1070
    19
1005
0
1002
}
  0
LINE
  5
90D
  8
0
 10
115.43911516946829
 20
110.0908713694653
 30
0.0
 11
116.0598027827905
 21
102.9963794855048
 31
0.0
210
0.0
220
1.0
230
0.0
1001
ACAD
1000
ASC_BOUNDS
1002
{
1070
    19
1005
0
1002
}
  0
LINE
  5
90E
  8
2
 10
115.0000000000002
 20
104.99637948550451
 30
0.0
 11
115.0000000000002
 21
103.81402637402751
 31
0.0
  0
LINE
  5
90F
  8
0
 10
91.367173438206905
 20
127.6717636655887
 30
0.0
 11
98.500000000000114
 21
127.6717636655888
 31
0.0
  0
LINE
  5
910
  8
0
 10
91.129529532454725
 20
127.43411975983631
 30
0.0
 11
91.129529532454725
 21
125.75320287533761
 31
0.0
  0
LINE
  5
911
  8
0
 10
91.129529532454725
 20
127.43411975983631
 30
0.0
 11
91.367173438206905
 21
127.6717636655887
 31
0.0
  0
LINE
  5
912
  8
0
 10
107.63282656179339
 20
127.6717636655887
 30
0.0
 11
100.5000000000002
 21
127.6717636655888
 31
0.0
  0
LINE
  5
913
  8
2
 10
100.5000000000001
 20
127.6717636655887
 30
0.0
 11
100.5000000000001
 21
125.88040707213671
 31
0.0
  0
LINE
  5
914
  8
2
 10
98.500000000000114
 20
127.6717636655887
 30
0.0
 11
98.500000000000114
 21
125.88040707213671
 31
0.0
  0
LINE
  5
915
  8
2
 10
98.500000000000114
 20
125.88040707213671
 30
0.0
 11
100.5000000000001
 21
125.88040707213671
 31
0.0
  0
LINE
  5
916
  8
0
 10
107.8704704675456
 20
127.43411975983631
 30
0.0
 11
107.8704704675456
 21
125.75320287533761
 31
0.0
  0
LINE
  5
917
  8
0
 10
107.8704704675456
 20
127.43411975983631
 30
0.0
 11
107.63282656179329
 21
127.6717636655887
 31
0.0
  0
ARC
  5
918
  8
0
 10
103.418146003309
 20
157.39345031848069
 30
0.0
 40
38.659421951304623
 50
77.7781598403987
 51
80.583373208692834
  0
ARC
  5
919
  8
0
 10
103.89758515747771
 20
163.8923821459407
 30
0.0
 40
29.56461085242125
 50
74.82957054756784
 51
77.943281013228315
  0
LINE
  5
91A
  8
0
 10
81.935866527182611
 20
187.69637948910719
 30
0.0
 11
117.0641334728178
 21
187.6963794819022
 31
0.0
  0
LINE
  5
91B
  8
0
 10
81.935866527182611
 20
187.69637948550471
 30
0.0
 11
82.565197233459784
 21
189.62381382640459
 31
0.0
  0
ARC
  5
91C
  8
0
 10
99.461861991852984
 20
125.1950268909537
 30
0.0
 40
71.119265794764488
 50
91.740090693017805
 51
92.795420019655694
  0
ARC
  5
91D
  8
0
 10
99.470278640201286
 20
132.01489087799661
 30
0.0
 40
61.781860956758599
 50
91.739354906404046
 51
92.792825730131028
  0
LINE
  5
91E
  8
0
 10
91.059028491933176
 20
209.69638482575581
 30
0.0
 11
107.94097150806719
 21
209.69638482575581
 31
0.0
  0
LINE
  5
91F
  8
0
 10
91.059028491933176
 20
207.69638482575581
 30
0.0
 11
107.94097150806719
 21
207.69638482575581
 31
0.0
  0
ARC
  5
920
  8
0
 10
96.273924252471488
 20
153.6892147873736
 30
0.0
 40
42.426929131483412
 50
99.417072543662215
 51
101.733569998525
  0
ARC
  5
921
  8
0
 10
96.886766738205893
 20
155.11466344015361
 30
0.0
 40
38.521995465056222
 50
99.333187704978045
 51
101.5842152713263
  0
ARC
  5
922
  8
0
 10
94.071764305844553
 20
164.2917555751097
 30
0.0
 40
31.59810742336883
 50
101.733569998525
 51
104.3253887153366
  0
ARC
  5
923
  8
0
 10
92.921636371499403
 20
168.79554811348169
 30
0.0
 40
26.94978068205037
 50
104.3253887153366
 51
106.6667589538593
  0
ARC
  5
924
  8
0
 10
94.058820680361677
 20
168.03599403946271
 30
0.0
 40
25.29216546729749
 50
104.0792222661122
 51
106.31192312910829
  0
ARC
  5
925
  8
0
 10
92.331475754249254
 20
173.9384931052773
 30
0.0
 40
19.14210727930379
 50
106.3119231291101
 51
108.79423172157681
  0
ARC
  5
926
  8
0
 10
89.747151703504528
 20
180.83322822329529
 30
0.0
 40
11.77690036045651
 50
111.5889514317432
 51
114.76547463863589
  0
ARC
  5
927
  8
0
 10
91.44699927834688
 20
176.5374833332782
 30
0.0
 40
16.396738662584099
 50
108.7942317215732
 51
111.5889514317432
  0
ARC
  5
928
  8
0
 10
95.040289933532776
 20
164.12259534890759
 30
0.0
 40
29.326762250887882
 50
101.5842152713263
 51
104.079222266114
  0
ARC
  5
929
  8
0
 10
89.917321600845867
 20
178.34399856706281
 30
0.0
 40
16.93761921866756
 50
109.2926999596567
 51
112.2751192107601
  0
ARC
  5
92A
  8
0
 10
86.288729536910054
 20
187.0759093366799
 30
0.0
 40
4.6284533218281911
 50
121.5542364148511
 51
130.39100999424701
  0
ARC
  5
92B
  8
0
 10
85.378207360380983
 20
188.14610944582151
 30
0.0
 40
3.2233273817225161
 50
130.3910099942475
 51
142.05489573444831
  0
ARC
  5
92C
  8
0
 10
84.184536704886796
 20
189.07686677542171
 30
0.0
 40
1.709669943464869
 50
142.05489573444669
 51
156.90503574888049
  0
LINE
  5
92D
  8
0
 10
82.565197233459784
 20
189.62381382640459
 30
0.0
 11
82.611886589659662
 21
189.74749553312839
 31
0.0
  0
ARC
  5
92E
  8
0
 10
88.016131532191253
 20
182.9853188416769
 30
0.0
 40
11.92200583955889
 50
112.27511921075831
 51
115.6928681884622
  0
ARC
  5
92F
  8
0
 10
88.614030255845023
 20
183.2894136424222
 30
0.0
 40
9.0719399118958837
 50
114.7654746386344
 51
121.5542364148511
  0
ARC
  5
930
  8
0
 10
90.923746433585507
 20
175.46892612565631
 30
0.0
 40
19.983753241866498
 50
106.6667589538595
 51
109.2926999596567
  0
ARC
  5
931
  8
0
 10
99.281789201243214
 20
128.8829246070637
 30
0.0
 40
67.426974395862246
 50
92.79542001965406
 51
93.873654416453959
  0
ARC
  5
932
  8
0
 10
98.422565203963586
 20
138.75605407598471
 30
0.0
 40
57.51589592806139
 50
95.354238752048389
 51
96.902897268674764
  0
ARC
  5
933
  8
0
 10
97.948069620083871
 20
142.6754125537156
 30
0.0
 40
53.567919619104771
 50
96.902897268674764
 51
98.128200212133564
  0
ARC
  5
934
  8
0
 10
97.002089207570066
 20
149.29884606952061
 30
0.0
 40
46.877273127236457
 50
98.128200212133564
 51
99.417072543660595
  0
ARC
  5
935
  8
0
 10
99.109702261865763
 20
131.42440793896171
 30
0.0
 40
64.879671618212981
 50
93.873654416453959
 51
95.354238752048389
  0
ARC
  5
936
  8
0
 10
99.327519188136307
 20
134.94133016825859
 30
0.0
 40
58.851941643749612
 50
92.792825730132677
 51
93.866858680108635
  0
ARC
  5
937
  8
0
 10
97.484672163475466
 20
151.47668711839569
 30
0.0
 40
42.208777614199022
 50
98.071877946274014
 51
99.333187704978045
  0
ARC
  5
938
  8
0
 10
98.257923424567721
 20
146.02435760159261
 30
0.0
 40
47.715665544108447
 50
96.867214548446924
 51
98.071877946274014
  0
ARC
  5
939
  8
0
 10
98.641983739420425
 20
142.83535513720761
 30
0.0
 40
50.927711472064388
 50
95.336844450740927
 51
96.867214548446924
  0
ARC
  5
93A
  8
0
 10
99.191696664549113
 20
136.95077481687471
 30
0.0
 40
56.837911963291731
 50
93.866858680108635
 51
95.336844450739321
  0
ARC
  5
93B
  8
0
 10
99.617345878596225
 20
127.0490239281737
 30
0.0
 40
69.263599959845166
 50
86.487887208966015
 51
87.559356364894711
  0
ARC
  5
93C
  8
0
 10
99.776777090862652
 20
136.49334168323071
 30
0.0
 40
57.296447841907778
 50
85.406445649688067
 51
86.493022667134326
  0
ARC
  5
93D
  8
0
 10
99.499999319731515
 20
131.15573703877669
 30
0.0
 40
65.157077769292727
 50
88.904238608442384
 51
90.0001266866702
  0
ARC
  5
93E
  8
0
 10
99.531662185191749
 20
125.03875736808369
 30
0.0
 40
71.275691741531972
 50
87.559356364896331
 51
88.958713884780423
  0
ARC
  5
93F
  8
0
 10
99.484398891390924
 20
124.4531849834037
 30
0.0
 40
71.861449954955333
 50
91.041966588148696
 51
91.740090693021074
  0
ARC
  5
940
  8
0
 10
99.499024051658125
 20
123.24307279373571
 30
0.0
 40
73.071672904660346
 50
88.958713884780423
 51
90.344993858729296
  0
ARC
  5
941
  8
0
 10
99.495369558764324
 20
123.8499951590517
 30
0.0
 40
72.46473953695093
 50
90.0
 51
91.041966588147048
  0
ARC
  5
942
  8
0
 10
99.499999319417611
 20
131.1558793321706
 30
0.0
 40
65.156935475898763
 50
90.0
 51
91.096015639952356
  0
ARC
  5
943
  8
0
 10
99.592506917425794
 20
133.48656005170869
 30
0.0
 40
60.308870666890357
 50
86.493022667134326
 51
87.560999275954686
  0
ARC
  5
944
  8
0
 10
99.524886676815527
 20
131.89901895108571
 30
0.0
 40
61.89785123414341
 50
87.560999275954686
 51
88.958875547551244
  0
ARC
  5
945
  8
0
 10
99.487819450335905
 20
131.43725969132259
 30
0.0
 40
62.359758411190242
 50
91.041773525434451
 51
91.739354906404046
  0
ARC
  5
946
  8
0
 10
99.499193502332801
 20
130.48521253326061
 30
0.0
 40
63.31189109436594
 50
88.958875547551244
 51
90.345092539976278
  0
ARC
  5
947
  8
0
 10
99.496252449984581
 20
130.97351010483871
 30
0.0
 40
62.823584665780423
 50
90.0
 51
91.041773525434451
  0
ARC
  5
948
  8
0
 10
100.68829448008211
 20
139.7097205825537
 30
0.0
 40
56.555879590355943
 50
83.0921349376395
 51
84.268140462640076
  0
ARC
  5
949
  8
0
 10
100.0594871437345
 20
133.44513280262359
 30
0.0
 40
62.851946514928237
 50
84.268140462640076
 51
85.395174461511587
  0
ARC
  5
94A
  8
0
 10
101.2384097926314
 20
144.25040234170569
 30
0.0
 40
51.981995278854697
 50
80.583373208692834
 51
83.0921349376395
  0
ARC
  5
94B
  8
0
 10
100.8916647532743
 20
147.29660275858669
 30
0.0
 40
46.43471330951359
 50
80.667337455479398
 51
83.128013129451375
  0
ARC
  5
94C
  8
0
 10
99.942910206324655
 20
138.5610919537977
 30
0.0
 40
55.222034336002281
 50
84.289249836191374
 51
85.406445649686418
  0
ARC
  5
94D
  8
0
 10
100.4500058930556
 20
143.6319084592206
 30
0.0
 40
50.125925421627421
 50
83.128013129453095
 51
84.28924983619298
  0
ARC
  5
94E
  8
0
 10
102.689575353777
 20
158.2366788399537
 30
0.0
 40
35.34788566615692
 50
77.943281013228315
 51
80.667337455479398
  0
ARC
  5
94F
  8
0
 10
99.851150019273973
 20
130.85847108742661
 30
0.0
 40
65.446984700831138
 50
85.395174461511587
 51
86.487887208966015
  0
LINE
  5
950
  8
0
 10
117.0641334728178
 20
187.69637948550471
 30
0.0
 11
119.07126229542069
 21
189.76640498543961
 31
0.0
  0
LINE
  5
951
  8
0
 10
117.0641334728178
 20
187.69637948550471
 30
0.0
 11
116.4348027665407
 21
189.62381382640459
 31
0.0
  0
LINE
  5
952
  8
0
 10
118.4726541582358
 20
191.5997461347655
 30
0.0
 11
118.42769926377861
 21
191.73725255204641
 31
0.0
  0
ARC
  5
953
  8
0
 10
104.8562413117093
 20
164.0326511985806
 30
0.0
 40
31.866255793881159
 50
74.532441021080587
 51
77.7781598403987
  0
ARC
  5
954
  8
0
 10
107.7989205166667
 20
174.66698747726599
 30
0.0
 40
20.83228692536203
 50
70.716092746848744
 51
74.532441021080587
  0
ARC
  5
955
  8
0
 10
112.10111313437559
 20
185.3008211537186
 30
0.0
 40
9.3520291525730208
 50
60.331209068203997
 51
66.073870535245845
  0
ARC
  5
956
  8
0
 10
113.8808737188175
 20
188.3893710587171
 30
0.0
 40
2.8691629644619701
 50
36.029759536012868
 51
46.585024186336987
  0
ARC
  5
957
  8
0
 10
113.1799842469559
 20
187.64858917087389
 30
0.0
 40
3.888968758288847
 50
46.585024186335247
 51
54.940951668628848
  0
ARC
  5
958
  8
0
 10
111.3863629855433
 20
185.09264295092709
 30
0.0
 40
7.0114578789507238
 50
54.940951668630653
 51
61.57536066695365
  0
ARC
  5
959
  8
0
 10
110.2620903596849
 20
183.0154797529888
 30
0.0
 40
9.3733630184776437
 50
61.575360666953259
 51
66.873589261276862
  0
ARC
  5
95A
  8
0
 10
114.8411681459805
 20
189.08782815331361
 30
0.0
 40
1.681725513548229
 50
23.094964251100539
 51
36.029759536015149
  0
LINE
  5
95B
  8
0
 10
116.4348027665407
 20
189.62381382640459
 30
0.0
 11
116.3881134104318
 21
189.74749553288879
 31
0.0
  0
ARC
  5
95C
  8
0
 10
115.2235131524269
 20
189.9715778179563
 30
0.0
 40
3.722524995935637
 50
43.769475807081129
 51
53.045815736084599
  0
ARC
  5
95D
  8
0
 10
115.9318131809768
 20
190.6500891369125
 30
0.0
 40
2.7416750887654699
 50
32.079218479511361
 51
43.769475807081129
  0
ARC
  5
95E
  8
0
 10
113.3220155278554
 20
187.4440025944595
 30
0.0
 40
6.8854871719164681
 50
53.045815736084123
 51
60.331209068203613
  0
ARC
  5
95F
  8
0
 10
116.83415290929911
 20
191.2156698136591
 30
0.0
 40
1.676734486094166
 50
18.123759352232259
 51
32.079218479511361
  0
ARC
  5
960
  8
0
 10
106.42615717875459
 20
173.21809319869919
 30
0.0
 40
19.902180355578022
 50
71.213388793978353
 51
74.829570547569617
  0
ARC
  5
961
  8
0
 10
107.7895218997014
 20
177.22602048939129
 30
0.0
 40
15.668713156012521
 50
66.873589261276862
 51
71.213388793978353
  0
ARC
  5
962
  8
0
 10
109.3500841774483
 20
179.10040704918211
 30
0.0
 40
16.135339214009608
 50
66.073870535245845
 51
70.716092746848744
  0
LINE
  5
963
  8
0
 10
119.07126229542069
 20
189.76640498543961
 30
0.0
 11
118.4726541582358
 21
191.59974613476561
 31
0.0
  0
LINE
  5
964
  8
1
 10
74.92873770457993
 20
272.19637948389578
 30
0.0
 11
124.07126229542069
 21
272.19637948389578
 31
0.0
  0
LINE
  5
965
  8
0
 10
81.935866527182611
 20
356.696379482287
 30
0.0
 11
79.92873770457993
 21
354.62635398235221
 31
0.0
  0
ARC
  5
966
  8
0
 10
86.763083688176607
 20
358.8029694356552
 30
0.0
 40
9.0317815443089202
 50
236.90559625778559
 51
244.30713181153229
  0
LINE
  5
967
  8
1
 10
74.92873770457993
 20
335.69637414203783
 30
0.0
 11
124.0712622954206
 21
335.69637414203788
 31
0.0
  0
LINE
  5
968
  8
0
 10
79.92873770457993
 20
302.69637948389692
 30
0.0
 11
79.92873770457993
 21
282.69637948389681
 31
0.0
  0
LINE
  5
969
  8
0
 10
79.92873770457993
 20
241.69637948389689
 30
0.0
 11
79.92873770457993
 21
261.69637948389692
 31
0.0
  0
LINE
  5
96A
  8
0
 10
80.992974307037116
 20
222.76627058299439
 30
0.0
 11
80.992974307037116
 21
239.62648838479939
 31
0.0
  0
ARC
  5
96B
  8
0
 10
72.753178931898773
 20
222.7527377621559
 30
0.0
 40
8.2395227042464079
 50
355.55274534281142
 51
357.05483434532999
  0
ARC
  5
96C
  8
0
 10
76.911153868793576
 20
222.13590926620969
 30
0.0
 40
4.0323591330632436
 50
346.76750157347982
 51
348.86605743995619
  0
ARC
  5
96D
  8
0
 10
80.745822686790348
 20
219.02098034503891
 30
0.0
 40
1.7482264828378791
 50
94.750356045286736
 51
95.696328702698835
  0
ARC
  5
96E
  8
0
 10
80.883234249295455
 20
217.36740860415469
 30
0.0
 40
3.4074978409227819
 50
94.062003289638966
 51
94.750356045280171
  0
ARC
  5
96F
  8
0
 10
80.639132297214346
 20
220.80476962714781
 30
0.0
 40
0.0385196525618305
 50
274.0620049798078
 51
311.97756741290891
  0
ARC
  5
970
  8
0
 10
80.529168005187444
 20
220.92699354615851
 30
0.0
 40
0.2029302115272669
 50
311.97756741294461
 51
328.22416352123139
  0
ARC
  5
971
  8
0
 10
80.325960916161876
 20
221.05286866573741
 30
0.0
 40
0.4419650766813012
 50
328.22416352125691
 51
336.17284642749382
  0
ARC
  5
972
  8
0
 10
79.580780638354781
 20
221.3819542707206
 30
0.0
 40
1.256576015620763
 50
336.17284642748649
 51
340.93416240698559
  0
ARC
  5
973
  8
0
 10
79.020698355525042
 20
221.57552623649431
 30
0.0
 40
1.84916547677683
 50
340.93416240699128
 51
344.23205341015762
  0
ARC
  5
974
  8
0
 10
77.658352307552377
 20
221.96020826552899
 30
0.0
 40
3.2647808969701608
 50
344.23205341015688
 51
346.76750157348141
  0
LINE
  5
975
  8
0
 10
79.92873770457993
 20
220.69637948389689
 30
0.0
 11
80.572300736256807
 21
220.76057396654329
 31
0.0
  0
ARC
  5
976
  8
0
 10
75.493566577575507
 20
222.41490105377969
 30
0.0
 40
5.477139443613801
 50
348.86605743995779
 51
350.71926785533128
  0
ARC
  5
977
  8
0
 10
74.852209184872095
 20
222.51970590260541
 30
0.0
 40
6.1270035536496703
 50
350.71926785533373
 51
352.41119583572271
  0
ARC
  5
978
  8
0
 10
73.811099376518087
 20
222.6584125559321
 30
0.0
 40
7.1773126361239479
 50
352.41119583572271
 51
354.01866825078952
  0
ARC
  5
979
  8
0
 10
73.364980081195753
 20
222.7051546269237
 30
0.0
 40
7.6258739439286058
 50
354.01866825079031
 51
355.55274534281222
  0
ARC
  5
97A
  8
0
 10
72.603573101637608
 20
222.76043470664899
 30
0.0
 40
8.3893264004715054
 50
357.05483434533079
 51
358.53123277768691
  0
ARC
  5
97B
  8
0
 10
72.375968731757325
 20
222.76627058300011
 30
0.0
 40
8.6170055752797978
 50
358.53123277768771
 51
359.9999999999618
  0
ARC
  5
97C
  8
0
 10
75.493566577762749
 20
239.97785791404669
 30
0.0
 40
5.4771394434236438
 50
9.2807321450011742
 51
11.133942560407529
  0
ARC
  5
97D
  8
0
 10
76.911153869005716
 20
240.25684970163101
 30
0.0
 40
4.0323591328459107
 50
11.133942560408331
 51
13.232498426944391
  0
ARC
  5
97E
  8
0
 10
77.658352307751557
 20
240.43255070231459
 30
0.0
 40
3.264780896764822
 50
13.23249842694006
 51
15.7679465903205
  0
ARC
  5
97F
  8
0
 10
79.020698355667605
 20
240.8172327313456
 30
0.0
 40
1.8491654766270891
 50
15.767946590318489
 51
19.06583759359556
  0
ARC
  5
980
  8
0
 10
79.580780638460396
 20
241.010804697113
 30
0.0
 40
1.25657601550789
 50
19.065837593600708
 51
23.827153573230159
  0
ARC
  5
981
  8
0
 10
80.325960916199392
 20
241.33989030207709
 30
0.0
 40
0.4419650766384639
 50
23.827153573227271
 51
31.775836479715579
  0
ARC
  5
982
  8
0
 10
80.529168005200646
 20
241.4657654216459
 30
0.0
 40
0.2029302115104144
 50
31.77583647972369
 51
48.022432588124921
  0
ARC
  5
983
  8
0
 10
80.639132297214474
 20
241.58798934064669
 30
0.0
 40
0.0385196525610965
 50
48.022432588089757
 51
85.937995020270421
  0
ARC
  5
984
  8
0
 10
80.745822686788756
 20
243.3717786227449
 30
0.0
 40
1.7482264828278029
 50
264.30367129731752
 51
265.24964395471977
  0
ARC
  5
985
  8
0
 10
80.883234249295583
 20
245.02535036364679
 30
0.0
 40
3.4074978409304841
 50
265.24964395472148
 51
265.93799671036919
  0
LINE
  5
986
  8
0
 10
80.572300736256807
 20
241.63218500125049
 30
0.0
 11
79.92873770457993
 21
241.69637948389689
 31
0.0
  0
ARC
  5
987
  8
0
 10
73.811099376649395
 20
239.7343464118766
 30
0.0
 40
7.1773126359916857
 50
5.9813317494610097
 51
7.5888041645673727
  0
ARC
  5
988
  8
0
 10
72.375968731748458
 20
239.62648838479279
 30
0.0
 40
8.6170055752885961
 50
0.000000000043968
 51
1.468767222389691
  0
ARC
  5
989
  8
0
 10
72.603573101641018
 20
239.6323242611447
 30
0.0
 40
8.3893264004680521
 50
1.468767222388877
 51
2.9451656548175018
  0
ARC
  5
98A
  8
0
 10
72.753178931941079
 20
239.64002120564061
 30
0.0
 40
8.2395227042040382
 50
2.9451656548150629
 51
4.4472546573846703
  0
ARC
  5
98B
  8
0
 10
73.364980081279896
 20
239.6876043408779
 30
0.0
 40
7.625873943844006
 50
4.4472546573854821
 51
5.9813317494610097
  0
ARC
  5
98C
  8
0
 10
74.852209185035463
 20
239.8730530652131
 30
0.0
 40
6.1270035534843821
 50
7.5888041645663513
 51
9.280732145000373
  0
LINE
  5
98D
  8
0
 10
80.992974307037116
 20
280.6264883847993
 30
0.0
 11
80.992974307037116
 21
272.19637948389681
 31
0.0
  0
LINE
  5
98E
  8
0
 10
80.992974307037116
 20
263.76627058299442
 30
0.0
 11
80.992974307037116
 21
272.19637948389681
 31
0.0
  0
ARC
  5
98F
  8
0
 10
80.639132297214474
 20
261.80476962714698
 30
0.0
 40
0.038519652561013
 50
274.0620049797393
 51
311.97756741200601
  0
ARC
  5
990
  8
0
 10
80.52916800519904
 20
261.92699354614899
 30
0.0
 40
0.2029302115123035
 50
311.97756741200368
 51
328.22416352037652
  0
ARC
  5
991
  8
0
 10
80.325960916195854
 20
262.05286866571851
 30
0.0
 40
0.4419650766424107
 50
328.22416352037141
 51
336.17284642682961
  0
ARC
  5
992
  8
0
 10
79.580780638452552
 20
262.38195427068382
 30
0.0
 40
1.256576015516284
 50
336.17284642682529
 51
340.93416240645439
  0
ARC
  5
993
  8
0
 10
79.020698355656236
 20
262.57552623645188
 30
0.0
 40
1.8491654766390171
 50
340.93416240645672
 51
344.23205340972612
  0
ARC
  5
994
  8
0
 10
77.658352307725295
 20
262.96020826548579
 30
0.0
 40
3.2647808967917809
 50
344.23205340972612
 51
346.76750157309749
  0
ARC
  5
995
  8
0
 10
76.911153868981842
 20
263.13590926616808
 30
0.0
 40
4.0323591328703383
 50
346.76750157309669
 51
348.86605743962758
  0
ARC
  5
996
  8
0
 10
75.493566577743309
 20
263.41490105375061
 30
0.0
 40
5.477139443443332
 50
348.86605743962849
 51
350.71926785503177
  0
ARC
  5
997
  8
0
 10
74.852209185043989
 20
263.5197059025794
 30
0.0
 40
6.1270035534756433
 50
350.71926785503098
 51
352.4111958354664
  0
ARC
  5
998
  8
0
 10
73.811099376619154
 20
263.65841255592039
 30
0.0
 40
7.1773126360222008
 50
352.4111958354664
 51
354.01866825056692
  0
ARC
  5
999
  8
0
 10
80.745822686789083
 20
260.0209803450478
 30
0.0
 40
1.7482264828289229
 50
94.750356045283496
 51
95.696328702688945
  0
ARC
  5
99A
  8
0
 10
80.883234249291945
 20
258.36740860419673
 30
0.0
 40
3.4074978408806551
 50
94.062003289629203
 51
94.750356045286736
  0
ARC
  5
99B
  8
0
 10
72.753178931930847
 20
263.75273776215408
 30
0.0
 40
8.2395227042142523
 50
355.55274534263498
 51
357.05483434519869
  0
ARC
  5
99C
  8
0
 10
72.603573101633515
 20
263.76043470664939
 30
0.0
 40
8.3893264004755288
 50
357.05483434520039
 51
358.53123277761603
  0
ARC
  5
99D
  8
0
 10
72.375968731639887
 20
263.7662705830038
 30
0.0
 40
8.6170055753971972
 50
358.53123277761603
 51
359.9999999999381
  0
ARC
  5
99E
  8
0
 10
73.364980081266253
 20
263.70515462691708
 30
0.0
 40
7.6258739438577292
 50
354.01866825056612
 51
355.55274534263577
  0
LINE
  5
99F
  8
0
 10
79.92873770457993
 20
261.69637948389692
 30
0.0
 11
80.572300736256807
 21
261.76057396654329
 31
0.0
  0
ARC
  5
9A0
  8
0
 10
77.658352307725295
 20
281.43255070230799
 30
0.0
 40
3.2647808967917809
 50
13.232498426902531
 51
15.76794659027386
  0
ARC
  5
9A1
  8
0
 10
74.852209185043989
 20
280.87305306521432
 30
0.0
 40
6.1270035534756433
 50
7.5888041645336379
 51
9.2807321449690487
  0
ARC
  5
9A2
  8
0
 10
75.493566577743309
 20
280.97785791404323
 30
0.0
 40
5.477139443443332
 50
9.2807321449682458
 51
11.133942560371599
  0
ARC
  5
9A3
  8
0
 10
76.911153868981842
 20
281.2568497016257
 30
0.0
 40
4.0323591328703383
 50
11.1339425603724
 51
13.232498426903319
  0
ARC
  5
9A4
  8
0
 10
80.883234249291945
 20
286.025350363597
 30
0.0
 40
3.4074978408806551
 50
265.24964395471318
 51
265.93799671037078
  0
ARC
  5
9A5
  8
0
 10
80.745822686789083
 20
284.37177862274598
 30
0.0
 40
1.7482264828289229
 50
264.30367129731098
 51
265.24964395471648
  0
ARC
  5
9A6
  8
0
 10
79.020698355656236
 20
281.8172327313419
 30
0.0
 40
1.8491654766390171
 50
15.76794659027386
 51
19.0658375935433
  0
ARC
  5
9A7
  8
0
 10
79.580780638452552
 20
282.01080469711002
 30
0.0
 40
1.256576015516284
 50
19.065837593545609
 51
23.827153573174769
  0
ARC
  5
9A8
  8
0
 10
80.325960916195854
 20
282.33989030207528
 30
0.0
 40
0.4419650766424107
 50
23.827153573170389
 51
31.77583647962857
  0
ARC
  5
9A9
  8
0
 10
80.52916800519904
 20
282.46576542164479
 30
0.0
 40
0.2029302115123035
 50
31.77583647962356
 51
48.02243258799632
  0
ARC
  5
9AA
  8
0
 10
80.639132297214474
 20
282.5879893406468
 30
0.0
 40
0.038519652561013
 50
48.022432587994018
 51
85.937995020260672
  0
LINE
  5
9AB
  8
0
 10
79.92873770457993
 20
282.69637948389681
 30
0.0
 11
80.572300736256807
 21
282.63218500125049
 31
0.0
  0
ARC
  5
9AC
  8
0
 10
73.364980081266253
 20
280.6876043408767
 30
0.0
 40
7.6258739438577292
 50
4.4472546573642502
 51
5.9813317494339469
  0
ARC
  5
9AD
  8
0
 10
72.375968731639887
 20
280.62648838478998
 30
0.0
 40
8.6170055753971972
 50
0.0000000000618809
 51
1.468767222383994
  0
ARC
  5
9AE
  8
0
 10
72.603573101633515
 20
280.63232426114439
 30
0.0
 40
8.3893264004755288
 50
1.468767222383994
 51
2.945165654799613
  0
ARC
  5
9AF
  8
0
 10
72.753178931930847
 20
280.64002120563958
 30
0.0
 40
8.2395227042142523
 50
2.9451656548012402
 51
4.4472546573650611
  0
ARC
  5
9B0
  8
0
 10
73.811099376619154
 20
280.73434641187339
 30
0.0
 40
7.1773126360222008
 50
5.9813317494331377
 51
7.5888041645336379
  0
LINE
  5
9B1
  8
0
 10
79.92873770457993
 20
354.62635398235221
 30
0.0
 11
79.92873770457993
 21
323.69637948389692
 31
0.0
  0
LINE
  5
9B2
  8
0
 10
80.992974307037116
 20
321.62648838479942
 30
0.0
 11
80.992974307037116
 21
304.76627058299442
 31
0.0
  0
ARC
  5
9B3
  8
0
 10
80.883234249295583
 20
299.36740860414699
 30
0.0
 40
3.4074978409304841
 50
94.062003289630837
 51
94.750356045278551
  0
ARC
  5
9B4
  8
0
 10
80.745822686788756
 20
301.02098034504888
 30
0.0
 40
1.7482264828278029
 50
94.750356045280171
 51
95.696328702682464
  0
ARC
  5
9B5
  8
0
 10
80.639132297214474
 20
302.8047696271471
 30
0.0
 40
0.0385196525610965
 50
274.06200497972958
 51
311.97756741191017
  0
ARC
  5
9B6
  8
0
 10
80.529168005200646
 20
302.92699354614791
 30
0.0
 40
0.2029302115104144
 50
311.97756741187499
 51
328.22416352027631
  0
ARC
  5
9B7
  8
0
 10
80.325960916199392
 20
303.05286866571657
 30
0.0
 40
0.4419650766384639
 50
328.22416352028438
 51
336.17284642677282
  0
ARC
  5
9B8
  8
0
 10
79.580780638460396
 20
303.38195427068081
 30
0.0
 40
1.25657601550789
 50
336.17284642676992
 51
340.93416240639931
  0
ARC
  5
9B9
  8
0
 10
79.020698355667605
 20
303.57552623644818
 30
0.0
 40
1.8491654766270891
 50
340.93416240640443
 51
344.2320534096815
  0
ARC
  5
9BA
  8
0
 10
77.658352307751557
 20
303.9602082654792
 30
0.0
 40
3.264780896764822
 50
344.23205340967939
 51
346.76750157305997
  0
ARC
  5
9BB
  8
0
 10
76.911153869005716
 20
304.1359092661628
 30
0.0
 40
4.0323591328459107
 50
346.7675015730556
 51
348.8660574395916
  0
ARC
  5
9BC
  8
0
 10
75.493566577762749
 20
304.41490105374709
 30
0.0
 40
5.4771394434236438
 50
348.86605743959251
 51
350.7192678549988
  0
ARC
  5
9BD
  8
0
 10
74.852209185035463
 20
304.5197059025806
 30
0.0
 40
6.1270035534843821
 50
350.7192678549996
 51
352.41119583543372
  0
ARC
  5
9BE
  8
0
 10
73.811099376649395
 20
304.65841255591721
 30
0.0
 40
7.1773126359916857
 50
352.41119583543269
 51
354.01866825053901
  0
ARC
  5
9BF
  8
0
 10
72.753178931941079
 20
304.75273776215317
 30
0.0
 40
8.2395227042040382
 50
355.55274534261531
 51
357.05483434518487
  0
ARC
  5
9C0
  8
0
 10
72.603573101641018
 20
304.76043470664899
 30
0.0
 40
8.3893264004680521
 50
357.05483434518248
 51
358.53123277761119
  0
ARC
  5
9C1
  8
0
 10
72.375968731748458
 20
304.76627058300102
 30
0.0
 40
8.6170055752885961
 50
358.5312327776104
 51
359.999999999956
  0
ARC
  5
9C2
  8
0
 10
73.364980081279896
 20
304.70515462691583
 30
0.0
 40
7.625873943844006
 50
354.01866825053901
 51
355.55274534261451
  0
LINE
  5
9C3
  8
0
 10
80.572300736256807
 20
302.76057396654329
 30
0.0
 11
79.92873770457993
 21
302.69637948389692
 31
0.0
  0
ARC
  5
9C4
  8
0
 10
74.852209184872095
 20
321.8730530651884
 30
0.0
 40
6.1270035536496703
 50
7.5888041642773096
 51
9.2807321446662634
  0
ARC
  5
9C5
  8
0
 10
75.493566577575507
 20
321.97785791401401
 30
0.0
 40
5.477139443613801
 50
9.2807321446686721
 51
11.133942560042181
  0
ARC
  5
9C6
  8
0
 10
76.911153868793576
 20
322.25684970158409
 30
0.0
 40
4.0323591330632436
 50
11.13394256004378
 51
13.232498426520181
  0
ARC
  5
9C7
  8
0
 10
77.658352307552377
 20
322.43255070226479
 30
0.0
 40
3.2647808969701608
 50
13.2324984265186
 51
15.767946589843151
  0
ARC
  5
9C8
  8
0
 10
79.020698355525042
 20
322.8172327312995
 30
0.0
 40
1.84916547677683
 50
15.767946589842371
 51
19.06583759300873
  0
ARC
  5
9C9
  8
0
 10
79.580780638354781
 20
323.01080469707318
 30
0.0
 40
1.256576015620763
 50
19.065837593014411
 51
23.827153572513481
  0
ARC
  5
9CA
  8
0
 10
80.325960916161876
 20
323.33989030205629
 30
0.0
 40
0.4419650766813012
 50
23.827153572506209
 51
31.775836478743059
  0
ARC
  5
9CB
  8
0
 10
80.529168005187444
 20
323.4657654216353
 30
0.0
 40
0.2029302115272669
 50
31.7758364787686
 51
48.022432587055469
  0
ARC
  5
9CC
  8
0
 10
80.639132297214346
 20
323.587989340646
 30
0.0
 40
0.0385196525618305
 50
48.022432587091167
 51
85.937995020192119
  0
ARC
  5
9CD
  8
0
 10
80.883234249295455
 20
327.02535036363912
 30
0.0
 40
3.4074978409227819
 50
265.24964395471977
 51
265.93799671036101
  0
ARC
  5
9CE
  8
0
 10
80.745822686790348
 20
325.3717786227549
 30
0.0
 40
1.7482264828378791
 50
264.30367129730121
 51
265.24964395471318
  0
LINE
  5
9CF
  8
0
 10
79.92873770457993
 20
323.69637948389692
 30
0.0
 11
80.572300736256807
 21
323.63218500125049
 31
0.0
  0
ARC
  5
9D0
  8
0
 10
73.364980081195753
 20
321.68760434087011
 30
0.0
 40
7.6258739439286058
 50
4.44725465718777
 51
5.9813317492096889
  0
ARC
  5
9D1
  8
0
 10
72.375968731757325
 20
321.62648838479367
 30
0.0
 40
8.6170055752797978
 50
0.0000000000382684
 51
1.468767222312324
  0
ARC
  5
9D2
  8
0
 10
72.603573101637608
 20
321.63232426114479
 30
0.0
 40
8.3893264004715054
 50
1.4687672223131381
 51
2.9451656546691751
  0
ARC
  5
9D3
  8
0
 10
72.753178931898773
 20
321.64002120563788
 30
0.0
 40
8.2395227042464079
 50
2.9451656546699878
 51
4.4472546571885818
  0
ARC
  5
9D4
  8
0
 10
73.811099376518087
 20
321.73434641186162
 30
0.0
 40
7.1773126361239479
 50
5.981331749210498
 51
7.5888041642773096
  0
ARC
  5
9D5
  8
0
 10
82.185729268061777
 20
353.1835967781181
 30
0.0
 40
1.6976545756381269
 50
198.12375935149089
 51
214.1935142321764
  0
ARC
  5
9D6
  8
0
 10
84.262529116811365
 20
354.9663073836719
 30
0.0
 40
4.452180157124153
 50
227.1278770601526
 51
236.90559625778519
  0
ARC
  5
9D7
  8
0
 10
83.328104690452733
 20
353.95976528877929
 30
0.0
 40
3.078762523129829
 50
214.19351423217711
 51
227.1278770601526
  0
LINE
  5
9D8
  8
0
 10
80.527345841764713
 20
352.7930128330263
 30
0.0
 11
80.572300736243847
 21
352.6555064156787
 31
0.0
  0
LINE
  5
9D9
  8
0
 10
79.92873770457993
 20
354.62635398235221
 30
0.0
 11
80.527345841764713
 21
352.79301283302618
 31
0.0
  0
LINE
  5
9DA
  8
0
 10
119.07126229542069
 20
302.69637948389692
 30
0.0
 11
119.07126229542069
 21
282.69637948389681
 31
0.0
  0
LINE
  5
9DB
  8
0
 10
111.3895108604612
 20
323.69637948389692
 30
0.0
 11
111.3895108604611
 21
283.02455816804701
 31
0.0
  0
LINE
  5
9DC
  8
0
 10
101.7154621063863
 20
300.89637948389679
 30
0.0
 11
101.7154621063863
 21
297.89637948389691
 31
0.0
  0
LINE
  5
9DD
  8
0
 10
101.1819535558607
 20
300.89637948389679
 30
0.0
 11
101.1819535558607
 21
297.89637948389691
 31
0.0
  0
LINE
  5
9DE
  8
0
 10
97.818046444139554
 20
300.89637948389679
 30
0.0
 11
97.818046444139554
 21
297.89637948389691
 31
0.0
  0
LINE
  5
9DF
  8
0
 10
97.284537893613901
 20
300.89637948389679
 30
0.0
 11
97.284537893613901
 21
297.89637948389691
 31
0.0
  0
TEXT
  5
9E0
  8
0
 10
103.405355627316
 20
297.14191617778789
 30
0.0
 40
2.0
  1
100
 41
0.8
  7
SIMPLEX
  0
LINE
  5
9E1
  8
0
 10
100.60000000000009
 20
230.43983600555109
 30
0.0
 11
100.60000000000009
 21
306.0563288737365
 31
0.0
  0
LINE
  5
9E2
  8
0
 10
98.400000000000205
 20
230.4303577749584
 30
0.0
 11
98.400000000000205
 21
306.0563288737365
 31
0.0
  0
LINE
  5
9E3
  8
0
 10
89.500000000000114
 20
225.69637948389689
 30
0.0
 11
89.500000000000114
 21
318.69637948389698
 31
0.0
  0
LINE
  5
9E4
  8
0
 10
109.5000000000001
 20
318.69637948389692
 30
0.0
 11
109.5000000000001
 21
225.69637948389689
 31
0.0
  0
LINE
  5
9E5
  8
0
 10
87.610489139539368
 20
323.69637948389692
 30
0.0
 11
87.610489139539467
 21
272.19637948389692
 31
0.0
  0
LINE
  5
9E6
  8
0
 10
86.335274404682991
 20
323.69637948389692
 30
0.0
 11
86.335274404682991
 21
272.19637948389692
 31
0.0
  0
LINE
  5
9E7
  8
0
 10
112.66472559531741
 20
323.69637948389692
 30
0.0
 11
112.66472559531741
 21
272.19637948389692
 31
0.0
  0
TEXT
  5
9E8
  8
0
 10
104.2616382579249
 20
253.21120012644249
 30
0.0
 40
2.0
  1
20
 41
0.8
  7
SIMPLEX
  0
LINE
  5
9E9
  8
0
 10
119.07126229542069
 20
241.69637948389689
 30
0.0
 11
119.07126229542069
 21
261.69637948389692
 31
0.0
  0
LINE
  5
9EA
  8
0
 10
111.3895108604612
 20
220.69637948389689
 30
0.0
 11
111.3895108604611
 21
261.3682007997466
 31
0.0
  0
LINE
  5
9EB
  8
0
 10
112.66472559531741
 20
220.69637948389689
 30
0.0
 11
112.66472559531741
 21
272.19637948389681
 31
0.0
  0
LINE
  5
9EC
  8
0
 10
99.507706798853064
 20
230.74626538727961
 30
0.0
 11
99.507706798853064
 21
255.80275167442309
 31
0.0
  0
LINE
  5
9ED
  8
0
 10
86.335274404682991
 20
220.69637948389689
 30
0.0
 11
86.335274404682991
 21
272.19637948389681
 31
0.0
  0
LINE
  5
9EE
  8
0
 10
87.610489139539368
 20
220.69637948389689
 30
0.0
 11
87.610489139539467
 21
272.19637948389681
 31
0.0
  0
LINE
  5
9EF
  8
0
 10
86.335274404682991
 20
220.69637948659701
 30
0.0
 11
112.66472559531741
 21
220.6963794811968
 31
0.0
  0
ARC
  5
9F0
  8
0
 10
99.500000000000114
 20
231.83473615933289
 30
0.0
 40
2.7481308152481079
 50
24.906099914231611
 51
66.404812241031038
  0
ARC
  5
9F1
  8
0
 10
99.500000000000114
 20
231.83473615933289
 30
0.0
 40
2.7481308152481079
 50
113.5951877589671
 51
155.99485888125969
  0
LINE
  5
9F2
  8
0
 10
96.989557883311264
 20
230.19172038258901
 30
0.0
 11
89.500000000000114
 21
230.19172038258901
 31
0.0
  0
LINE
  5
9F3
  8
0
 10
96.989557883311264
 20
232.19172038258901
 30
0.0
 11
89.500000000000114
 21
232.19172038258901
 31
0.0
  0
LINE
  5
9F4
  8
0
 10
108.0000000000001
 20
224.19637948389689
 30
0.0
 11
91.000000000000114
 21
224.19637948389689
 31
0.0
  0
ARC
  5
9F5
  8
0
 10
91.000000000000114
 20
225.69637948389689
 30
0.0
 40
1.5
 50
180.0
 51
270.0
  0
LINE
  5
9F6
  8
0
 10
101.98955788331121
 20
232.19172038258901
 30
0.0
 11
109.5000000000001
 21
232.19172038258901
 31
0.0
  0
LINE
  5
9F7
  8
0
 10
101.98955788331121
 20
230.19172038258901
 30
0.0
 11
109.5000000000001
 21
230.19172038258901
 31
0.0
  0
LINE
  5
9F8
  8
0
 10
101.98955788331121
 20
232.5182344483085
 30
0.0
 11
101.98955788331121
 21
232.99849065378589
 31
0.0
  0
LINE
  5
9F9
  8
0
 10
96.989557883311264
 20
232.5508704461534
 30
0.0
 11
96.989557883311264
 21
232.95272692694729
 31
0.0
  0
ARC
  5
9FA
  8
0
 10
99.497005475894426
 20
228.06916385632121
 30
0.0
 40
2.7481308152481079
 50
204.15814856142481
 51
335.0939000857648
  0
CIRCLE
  5
9FB
  8
0
 10
99.507706798853064
 20
228.64626538727961
 30
0.0
 40
2.1000000000000001
  0
LINE
  5
9FC
  8
0
 10
96.989557883311264
 20
226.94447298849801
 30
0.0
 11
96.989557883311264
 21
232.95272692694721
 31
0.0
  0
LINE
  5
9FD
  8
0
 10
101.98955788331121
 20
226.9118369906532
 30
0.0
 11
101.98955788331121
 21
232.99849065378589
 31
0.0
  0
ARC
  5
9FE
  8
0
 10
108.0000000000001
 20
225.69637948389689
 30
0.0
 40
1.5
 50
270.0
 51
0.0
  0
LINE
  5
9FF
  8
0
 10
91.500000000000114
 20
247.588930116933
 30
0.0
 11
98.250000000000114
 21
247.588930116933
 31
0.0
  0
TEXT
  5
A00
  8
0
 10
91.517155272232444
 20
248.31300182106611
 30
0.0
 40
2.0
  1
50
 41
0.8
  7
SIMPLEX
  0
TEXT
  5
A01
  8
0
 10
105.7990032372582
 20
242.0427012355907
 30
0.0
 40
2.0
  1
0
 41
0.8
  7
SIMPLEX
  0
LINE
  5
A02
  8
0
 10
107.5000000000001
 20
241.64333011693299
 30
0.0
 11
100.7500000000001
 21
241.64333011693299
 31
0.0
  0
LINE
  5
A03
  8
0
 10
100.60000000000019
 20
241.23010027395711
 30
0.0
 11
101.7154621063865
 21
241.23010027395711
 31
0.0
  0
LINE
  5
A04
  8
0
 10
102.5000000000001
 20
243.84333011693289
 30
0.0
 11
100.7500000000001
 21
243.84333011693289
 31
0.0
  0
LINE
  5
A05
  8
0
 10
102.5000000000001
 20
242.74333011693301
 30
0.0
 11
100.7500000000001
 21
242.74333011693301
 31
0.0
  0
LINE
  5
A06
  8
0
 10
96.500000000000114
 20
241.64333011693299
 30
0.0
 11
98.250000000000114
 21
241.64333011693299
 31
0.0
  0
LINE
  5
A07
  8
0
 10
96.500000000000114
 20
241.64333011693299
 30
0.0
 11
98.250000000000114
 21
241.64333011693299
 31
0.0
  0
LINE
  5
A08
  8
0
 10
98.400000000000205
 20
241.23010027395711
 30
0.0
 11
97.284537893613901
 21
241.23010027395711
 31
0.0
  0
LINE
  5
A09
  8
0
 10
96.500000000000114
 20
243.12973011693299
 30
0.0
 11
98.250000000000114
 21
243.12973011693299
 31
0.0
  0
LINE
  5
A0A
  8
0
 10
101.7154621063865
 20
238.23010027395711
 30
0.0
 11
100.60000000000019
 21
238.23010027395711
 31
0.0
  0
LINE
  5
A0B
  8
0
 10
97.284537893613901
 20
238.23010027395711
 30
0.0
 11
98.400000000000205
 21
238.23010027395711
 31
0.0
  0
LINE
  5
A0C
  8
0
 10
97.284537893613901
 20
241.23010027395711
 30
0.0
 11
97.284537893613901
 21
238.23010027395711
 31
0.0
  0
LINE
  5
A0D
  8
0
 10
97.818046444139654
 20
241.23010027395711
 30
0.0
 11
97.818046444139654
 21
238.23010027395711
 31
0.0
  0
LINE
  5
A0E
  8
0
 10
101.1819535558608
 20
241.23010027395711
 30
0.0
 11
101.1819535558608
 21
238.23010027395711
 31
0.0
  0
LINE
  5
A0F
  8
0
 10
101.7154621063865
 20
241.23010027395711
 30
0.0
 11
101.7154621063865
 21
238.23010027395711
 31
0.0
  0
LINE
  5
A10
  8
0
 10
104.7158432585248
 20
247.14333011693299
 30
0.0
 11
100.7500000000001
 21
247.14333011693299
 31
0.0
  0
LINE
  5
A11
  8
0
 10
107.5000000000001
 20
252.64333011693299
 30
0.0
 11
100.7500000000001
 21
252.64333011693299
 31
0.0
  0
LINE
  5
A12
  8
0
 10
102.5000000000001
 20
253.74333011693301
 30
0.0
 11
100.7500000000001
 21
253.74333011693301
 31
0.0
  0
LINE
  5
A13
  8
0
 10
96.500000000000114
 20
253.53453011693301
 30
0.0
 11
98.250000000000114
 21
253.53453011693301
 31
0.0
  0
LINE
  5
A14
  8
0
 10
102.5000000000001
 20
248.24333011693301
 30
0.0
 11
100.7500000000001
 21
248.24333011693301
 31
0.0
  0
LINE
  5
A15
  8
0
 10
102.5000000000001
 20
251.54333011693299
 30
0.0
 11
100.7500000000001
 21
251.54333011693299
 31
0.0
  0
LINE
  5
A16
  8
0
 10
102.5000000000001
 20
250.443330116933
 30
0.0
 11
100.7500000000001
 21
250.443330116933
 31
0.0
  0
LINE
  5
A17
  8
0
 10
102.5000000000001
 20
249.34333011693289
 30
0.0
 11
100.7500000000001
 21
249.34333011693289
 31
0.0
  0
LINE
  5
A18
  8
0
 10
96.500000000000114
 20
252.04813011693301
 30
0.0
 11
98.250000000000114
 21
252.04813011693301
 31
0.0
  0
LINE
  5
A19
  8
0
 10
96.500000000000114
 20
249.075330116933
 30
0.0
 11
98.250000000000114
 21
249.075330116933
 31
0.0
  0
LINE
  5
A1A
  8
0
 10
96.500000000000114
 20
250.56173011693301
 30
0.0
 11
98.250000000000114
 21
250.56173011693301
 31
0.0
  0
LINE
  5
A1B
  8
0
 10
102.5000000000001
 20
244.94333011693291
 30
0.0
 11
100.7500000000001
 21
244.94333011693291
 31
0.0
  0
LINE
  5
A1C
  8
0
 10
102.5000000000001
 20
246.04333011693299
 30
0.0
 11
100.7500000000001
 21
246.04333011693299
 31
0.0
  0
LINE
  5
A1D
  8
0
 10
96.500000000000114
 20
244.61613011693299
 30
0.0
 11
98.250000000000114
 21
244.61613011693299
 31
0.0
  0
LINE
  5
A1E
  8
0
 10
96.500000000000114
 20
246.102530116933
 30
0.0
 11
98.250000000000114
 21
246.102530116933
 31
0.0
  0
LINE
  5
A1F
  8
0
 10
118.0070256929635
 20
222.76627058299439
 30
0.0
 11
118.0070256929635
 21
239.62648838479939
 31
0.0
  0
ARC
  5
A20
  8
0
 10
126.2468210680677
 20
222.7527377621536
 30
0.0
 40
8.2395227042124972
 50
182.94516565468459
 51
184.44725465720899
  0
LINE
  5
A21
  8
0
 10
119.07126229542069
 20
220.69637948389689
 30
0.0
 11
118.42769926374361
 21
220.76057396654329
 31
0.0
  0
ARC
  5
A22
  8
0
 10
122.08884613120659
 20
222.13590926620961
 30
0.0
 40
4.0323591330629958
 50
191.13394256003809
 51
193.23249842650671
  0
ARC
  5
A23
  8
0
 10
118.1167657507057
 20
217.36740860416239
 30
0.0
 40
3.4074978409150449
 50
85.249643954719815
 51
85.937996710364274
  0
ARC
  5
A24
  8
0
 10
121.3416476924631
 20
221.9602082655328
 30
0.0
 40
3.2647808969856702
 50
193.2324984265087
 51
195.7679465898135
  0
ARC
  5
A25
  8
0
 10
119.9793016444862
 20
221.57552623649769
 30
0.0
 40
1.8491654767881871
 50
195.7679465898099
 51
199.06583759295569
  0
ARC
  5
A26
  8
0
 10
119.4192193616542
 20
221.38195427072381
 30
0.0
 40
1.25657601562989
 50
199.0658375929624
 51
203.82715357243839
  0
ARC
  5
A27
  8
0
 10
118.6740390838434
 20
221.05286866574019
 30
0.0
 40
0.441965076686985
 50
203.8271535724362
 51
211.7758364786055
  0
ARC
  5
A28
  8
0
 10
118.4708319948142
 20
220.92699354615951
 30
0.0
 40
0.202930211528861
 50
211.7758364785858
 51
228.02243258692741
  0
ARC
  5
A29
  8
0
 10
118.36086770278619
 20
220.80476962714809
 30
0.0
 40
0.0385196525621517
 50
228.02243258694881
 51
265.93799502022313
  0
ARC
  5
A2A
  8
0
 10
123.5064334224199
 20
222.41490105377869
 30
0.0
 40
5.4771394436086771
 50
189.28073214467349
 51
191.133942560039
  0
ARC
  5
A2B
  8
0
 10
125.1889006234818
 20
222.6584125559321
 30
0.0
 40
7.1773126361233643
 50
185.9813317492293
 51
187.5888041642888
  0
ARC
  5
A2C
  8
0
 10
124.1477908151117
 20
222.51970590260279
 30
0.0
 40
6.1270035536328802
 50
187.58880416428801
 51
189.28073214467381
  0
ARC
  5
A2D
  8
0
 10
125.63501991880899
 20
222.7051546269243
 30
0.0
 40
7.6258739439331249
 50
184.44725465720981
 51
185.9813317492293
  0
ARC
  5
A2E
  8
0
 10
118.25417731320999
 20
219.0209803450303
 30
0.0
 40
1.74822648284638
 50
84.303671297319255
 51
85.249643954724704
  0
ARC
  5
A2F
  8
0
 10
126.6240312679306
 20
222.7662705829903
 30
0.0
 40
8.6170055749670738
 50
179.99999999997311
 51
181.46876722230411
  0
ARC
  5
A30
  8
0
 10
126.3964268982978
 20
222.7604347066455
 30
0.0
 40
8.3893264004063504
 50
181.46876722230411
 51
182.94516565468621
  0
LINE
  5
A31
  8
0
 10
118.42769926374361
 20
241.63218500125049
 30
0.0
 11
119.07126229542069
 21
241.69637948389689
 31
0.0
  0
ARC
  5
A32
  8
0
 10
118.36086770278609
 20
241.58798934064629
 30
0.0
 40
0.0385196525615044
 50
94.062004979687103
 51
131.97756741194709
  0
ARC
  5
A33
  8
0
 10
118.4708319947996
 20
241.4657654216459
 30
0.0
 40
0.2029302115102622
 50
131.97756741187271
 51
148.2241635203479
  0
ARC
  5
A34
  8
0
 10
118.67403908380361
 20
241.3398903020757
 30
0.0
 40
0.4419650766415666
 50
148.22416352035009
 51
156.1728464268237
  0
ARC
  5
A35
  8
0
 10
119.4192193615491
 20
241.01080469710959
 30
0.0
 40
1.2565760155176791
 50
156.1728464268281
 51
160.93416240645149
  0
ARC
  5
A36
  8
0
 10
119.97930164434349
 20
240.8172327313419
 30
0.0
 40
1.8491654766384551
 50
160.93416240645001
 51
164.23205340972021
  0
ARC
  5
A37
  8
0
 10
121.34164769227399
 20
240.43255070230799
 30
0.0
 40
3.264780896790942
 50
164.232053409721
 51
166.76750157309741
  0
ARC
  5
A38
  8
0
 10
122.0888461310102
 20
240.25684970162729
 30
0.0
 40
4.032359132861961
 50
166.76750157309311
 51
168.86605743962909
  0
ARC
  5
A39
  8
0
 10
123.5064334222572
 20
239.9778579140432
 30
0.0
 40
5.4771394434437184
 50
168.86605743963079
 51
170.7192678550376
  0
ARC
  5
A3A
  8
0
 10
118.11676575070911
 20
245.02535036360149
 30
0.0
 40
3.4074978408850138
 50
274.06200328961609
 51
274.75035604527369
  0
ARC
  5
A3B
  8
0
 10
118.2541773132113
 20
243.37177862274879
 30
0.0
 40
1.7482264828317231
 50
274.75035604528341
 51
275.69632870268242
  0
ARC
  5
A3C
  8
0
 10
125.1889006233888
 20
239.73434641187239
 30
0.0
 40
7.1773126360299671
 50
172.41119583547299
 51
174.01866825057169
  0
ARC
  5
A3D
  8
0
 10
125.63501991873299
 20
239.6876043408767
 30
0.0
 40
7.6258739438567584
 50
174.01866825057169
 51
175.55274534264069
  0
ARC
  5
A3E
  8
0
 10
126.24682106808341
 20
239.6400212056387
 30
0.0
 40
8.2395227042283832
 50
175.55274534264069
 51
177.05483434520281
  0
ARC
  5
A3F
  8
0
 10
126.39642689825919
 20
239.6323242611499
 30
0.0
 40
8.3893264003678691
 50
177.05483434520519
 51
178.5312327776461
  0
ARC
  5
A40
  8
0
 10
126.624031267815
 20
239.62648838480681
 30
0.0
 40
8.6170055748515022
 50
178.5312327776461
 51
180.0000000000488
  0
ARC
  5
A41
  8
0
 10
124.147790814964
 20
239.87305306521321
 30
0.0
 40
6.1270035534836387
 50
170.71926785503601
 51
172.4111958354722
  0
TEXT
  5
A42
  8
0
 10
104.2616382579249
 20
275.27010013364151
 30
0.0
 40
2.0
  1
60
 41
0.8
  7
SIMPLEX
  0
LINE
  5
A43
  8
0
 10
98.250000000000114
 20
269.88493011693299
 30
0.0
 11
94.284156741475385
 21
269.88493011693299
 31
0.0
  0
LINE
  5
A44
  8
0
 10
91.500000000000114
 20
262.45293011693298
 30
0.0
 11
98.250000000000114
 21
262.45293011693298
 31
0.0
  0
LINE
  5
A45
  8
0
 10
98.250000000000114
 20
255.02093011693299
 30
0.0
 11
94.284156741475385
 21
255.02093011693299
 31
0.0
  0
TEXT
  5
A46
  8
0
 10
91.277393248264389
 20
263.10964253522422
 30
0.0
 40
2.0
  1
100
 41
0.8
  7
SIMPLEX
  0
TEXT
  5
A47
  8
0
 10
104.2616382579249
 20
264.14710814851583
 30
0.0
 40
2.0
  1
40
 41
0.8
  7
SIMPLEX
  0
LINE
  5
A48
  8
0
 10
104.7158432585248
 20
258.14333011693299
 30
0.0
 11
100.7500000000001
 21
258.14333011693299
 31
0.0
  0
LINE
  5
A49
  8
0
 10
107.5000000000001
 20
263.64333011693299
 30
0.0
 11
100.7500000000001
 21
263.64333011693299
 31
0.0
  0
LINE
  5
A4A
  8
0
 10
102.5000000000001
 20
264.74333011693301
 30
0.0
 11
100.7500000000001
 21
264.74333011693301
 31
0.0
  0
LINE
  5
A4B
  8
0
 10
96.500000000000114
 20
265.42573011693298
 30
0.0
 11
98.250000000000114
 21
265.42573011693298
 31
0.0
  0
LINE
  5
A4C
  8
0
 10
102.5000000000001
 20
261.44333011693288
 30
0.0
 11
100.7500000000001
 21
261.44333011693288
 31
0.0
  0
LINE
  5
A4D
  8
0
 10
102.5000000000001
 20
260.34333011693292
 30
0.0
 11
100.7500000000001
 21
260.34333011693292
 31
0.0
  0
LINE
  5
A4E
  8
0
 10
102.5000000000001
 20
262.54333011693302
 30
0.0
 11
100.7500000000001
 21
262.54333011693302
 31
0.0
  0
LINE
  5
A4F
  8
0
 10
102.5000000000001
 20
259.24333011693301
 30
0.0
 11
100.7500000000001
 21
259.24333011693301
 31
0.0
  0
LINE
  5
A50
  8
0
 10
96.500000000000114
 20
260.96653011693297
 30
0.0
 11
98.250000000000114
 21
260.96653011693297
 31
0.0
  0
LINE
  5
A51
  8
0
 10
96.500000000000114
 20
263.93933011693298
 30
0.0
 11
98.250000000000114
 21
263.93933011693298
 31
0.0
  0
LINE
  5
A52
  8
0
 10
96.500000000000114
 20
259.48013011693303
 30
0.0
 11
98.250000000000114
 21
259.48013011693303
 31
0.0
  0
LINE
  5
A53
  8
0
 10
102.5000000000001
 20
254.84333011693289
 30
0.0
 11
100.7500000000001
 21
254.84333011693289
 31
0.0
  0
LINE
  5
A54
  8
0
 10
102.5000000000001
 20
257.04333011693302
 30
0.0
 11
100.7500000000001
 21
257.04333011693302
 31
0.0
  0
LINE
  5
A55
  8
0
 10
102.5000000000001
 20
255.94333011693291
 30
0.0
 11
100.7500000000001
 21
255.94333011693291
 31
0.0
  0
LINE
  5
A56
  8
0
 10
96.500000000000114
 20
256.50733011693302
 30
0.0
 11
98.250000000000114
 21
256.50733011693302
 31
0.0
  0
LINE
  5
A57
  8
0
 10
96.500000000000114
 20
257.99373011693302
 30
0.0
 11
98.250000000000114
 21
257.99373011693302
 31
0.0
  0
LINE
  5
A58
  8
0
 10
104.7158432585248
 20
269.14333011693299
 30
0.0
 11
100.7500000000001
 21
269.14333011693299
 31
0.0
  0
LINE
  5
A59
  8
0
 10
107.5000000000001
 20
274.64333011693299
 30
0.0
 11
100.7500000000001
 21
274.64333011693299
 31
0.0
  0
LINE
  5
A5A
  8
0
 10
96.500000000000114
 20
275.83053011693312
 30
0.0
 11
98.250000000000114
 21
275.83053011693312
 31
0.0
  0
LINE
  5
A5B
  8
0
 10
102.5000000000001
 20
273.54333011693291
 30
0.0
 11
100.7500000000001
 21
273.54333011693291
 31
0.0
  0
LINE
  5
A5C
  8
0
 10
102.5000000000001
 20
272.44333011693288
 30
0.0
 11
100.7500000000001
 21
272.44333011693288
 31
0.0
  0
LINE
  5
A5D
  8
0
 10
102.5000000000001
 20
271.34333011693292
 30
0.0
 11
100.7500000000001
 21
271.34333011693292
 31
0.0
  0
LINE
  5
A5E
  8
0
 10
102.5000000000001
 20
270.24333011693301
 30
0.0
 11
100.7500000000001
 21
270.24333011693301
 31
0.0
  0
LINE
  5
A5F
  8
0
 10
102.5000000000001
 20
275.74333011693301
 30
0.0
 11
100.7500000000001
 21
275.74333011693301
 31
0.0
  0
LINE
  5
A60
  8
0
 10
96.500000000000114
 20
274.34413011693312
 30
0.0
 11
98.250000000000114
 21
274.34413011693312
 31
0.0
  0
LINE
  5
A61
  8
0
 10
96.500000000000114
 20
271.37133011693311
 30
0.0
 11
98.250000000000114
 21
271.37133011693311
 31
0.0
  0
LINE
  5
A62
  8
0
 10
96.500000000000114
 20
272.857730116933
 30
0.0
 11
98.250000000000114
 21
272.857730116933
 31
0.0
  0
LINE
  5
A63
  8
0
 10
102.5000000000001
 20
268.04333011693302
 30
0.0
 11
100.7500000000001
 21
268.04333011693302
 31
0.0
  0
LINE
  5
A64
  8
0
 10
102.5000000000001
 20
266.943330116933
 30
0.0
 11
100.7500000000001
 21
266.943330116933
 31
0.0
  0
LINE
  5
A65
  8
0
 10
102.5000000000001
 20
265.84333011693292
 30
0.0
 11
100.7500000000001
 21
265.84333011693292
 31
0.0
  0
LINE
  5
A66
  8
0
 10
96.500000000000114
 20
268.3985301169331
 30
0.0
 11
98.250000000000114
 21
268.3985301169331
 31
0.0
  0
LINE
  5
A67
  8
0
 10
96.500000000000114
 20
266.91213011693299
 30
0.0
 11
98.250000000000114
 21
266.91213011693299
 31
0.0
  0
LINE
  5
A68
  8
0
 10
91.500000000000114
 20
292.1809301169331
 30
0.0
 11
98.250000000000114
 21
292.1809301169331
 31
0.0
  0
LINE
  5
A69
  8
0
 10
91.500000000000114
 20
277.31693011693312
 30
0.0
 11
98.250000000000114
 21
277.31693011693312
 31
0.0
  0
LINE
  5
A6A
  8
0
 10
98.250000000000114
 20
284.74893011693308
 30
0.0
 11
94.284156741475385
 21
284.74893011693308
 31
0.0
  0
TEXT
  5
A6B
  8
0
 10
91.197472573608366
 20
278.07635957943012
 30
0.0
 40
2.0
  1
150
 41
0.8
  7
SIMPLEX
  0
TEXT
  5
A6C
  8
0
 10
91.277393248264389
 20
292.68591633053569
 30
0.0
 40
2.0
  1
200
 41
0.8
  7
SIMPLEX
  0
TEXT
  5
A6D
  8
0
 10
104.2616382579249
 20
286.20600815571458
 30
0.0
 40
2.0
  1
80
 41
0.8
  7
SIMPLEX
  0
LINE
  5
A6E
  8
0
 10
104.7158432585248
 20
280.14333011693299
 30
0.0
 11
100.7500000000001
 21
280.14333011693299
 31
0.0
  0
LINE
  5
A6F
  8
0
 10
107.5000000000001
 20
285.64333011693299
 30
0.0
 11
100.7500000000001
 21
285.64333011693299
 31
0.0
  0
LINE
  5
A70
  8
0
 10
102.5000000000001
 20
286.74333011693301
 30
0.0
 11
100.7500000000001
 21
286.74333011693301
 31
0.0
  0
LINE
  5
A71
  8
0
 10
102.5000000000001
 20
284.54333011693302
 30
0.0
 11
100.7500000000001
 21
284.54333011693302
 31
0.0
  0
LINE
  5
A72
  8
0
 10
102.5000000000001
 20
283.443330116933
 30
0.0
 11
100.7500000000001
 21
283.443330116933
 31
0.0
  0
LINE
  5
A73
  8
0
 10
102.5000000000001
 20
282.34333011693292
 30
0.0
 11
100.7500000000001
 21
282.34333011693292
 31
0.0
  0
LINE
  5
A74
  8
0
 10
96.500000000000114
 20
281.77613011693307
 30
0.0
 11
98.250000000000114
 21
281.77613011693307
 31
0.0
  0
LINE
  5
A75
  8
0
 10
96.500000000000114
 20
286.23533011693308
 30
0.0
 11
98.250000000000114
 21
286.23533011693308
 31
0.0
  0
LINE
  5
A76
  8
0
 10
96.500000000000114
 20
283.26253011693308
 30
0.0
 11
98.250000000000114
 21
283.26253011693308
 31
0.0
  0
LINE
  5
A77
  8
0
 10
102.5000000000001
 20
276.84333011693292
 30
0.0
 11
100.7500000000001
 21
276.84333011693292
 31
0.0
  0
LINE
  5
A78
  8
0
 10
102.5000000000001
 20
277.94333011693288
 30
0.0
 11
100.7500000000001
 21
277.94333011693288
 31
0.0
  0
LINE
  5
A79
  8
0
 10
102.5000000000001
 20
279.04333011693302
 30
0.0
 11
100.7500000000001
 21
279.04333011693302
 31
0.0
  0
LINE
  5
A7A
  8
0
 10
102.5000000000001
 20
281.24333011693301
 30
0.0
 11
100.7500000000001
 21
281.24333011693301
 31
0.0
  0
LINE
  5
A7B
  8
0
 10
96.500000000000114
 20
280.28973011693307
 30
0.0
 11
98.250000000000114
 21
280.28973011693307
 31
0.0
  0
LINE
  5
A7C
  8
0
 10
96.500000000000114
 20
278.80333011693313
 30
0.0
 11
98.250000000000114
 21
278.80333011693313
 31
0.0
  0
LINE
  5
A7D
  8
0
 10
104.7158432585248
 20
291.14333011693299
 30
0.0
 11
100.7500000000001
 21
291.14333011693299
 31
0.0
  0
LINE
  5
A7E
  8
0
 10
107.5000000000001
 20
296.64333011693299
 30
0.0
 11
100.7500000000001
 21
296.64333011693299
 31
0.0
  0
LINE
  5
A7F
  8
0
 10
101.7154621063863
 20
297.89637948389691
 30
0.0
 11
100.60000000000009
 21
297.89637948389691
 31
0.0
  0
LINE
  5
A80
  8
0
 10
102.5000000000001
 20
294.44333011693288
 30
0.0
 11
100.7500000000001
 21
294.44333011693288
 31
0.0
  0
LINE
  5
A81
  8
0
 10
102.5000000000001
 20
295.54333011693302
 30
0.0
 11
100.7500000000001
 21
295.54333011693302
 31
0.0
  0
LINE
  5
A82
  8
0
 10
96.500000000000114
 20
293.6673301169331
 30
0.0
 11
98.250000000000114
 21
293.6673301169331
 31
0.0
  0
LINE
  5
A83
  8
0
 10
96.500000000000114
 20
295.1537301169331
 30
0.0
 11
98.250000000000114
 21
295.1537301169331
 31
0.0
  0
LINE
  5
A84
  8
0
 10
97.284537893613901
 20
297.89637948389691
 30
0.0
 11
98.400000000000105
 21
297.89637948389691
 31
0.0
  0
LINE
  5
A85
  8
0
 10
102.5000000000001
 20
287.84333011693292
 30
0.0
 11
100.7500000000001
 21
287.84333011693292
 31
0.0
  0
LINE
  5
A86
  8
0
 10
102.5000000000001
 20
290.04333011693291
 30
0.0
 11
100.7500000000001
 21
290.04333011693291
 31
0.0
  0
LINE
  5
A87
  8
0
 10
102.5000000000001
 20
288.94333011693288
 30
0.0
 11
100.7500000000001
 21
288.94333011693288
 31
0.0
  0
LINE
  5
A88
  8
0
 10
102.5000000000001
 20
292.24333011693301
 30
0.0
 11
100.7500000000001
 21
292.24333011693301
 31
0.0
  0
LINE
  5
A89
  8
0
 10
102.5000000000001
 20
293.34333011693292
 30
0.0
 11
100.7500000000001
 21
293.34333011693292
 31
0.0
  0
LINE
  5
A8A
  8
0
 10
96.500000000000114
 20
287.72173011693309
 30
0.0
 11
98.250000000000114
 21
287.72173011693309
 31
0.0
  0
LINE
  5
A8B
  8
0
 10
96.500000000000114
 20
289.20813011693309
 30
0.0
 11
98.250000000000114
 21
289.20813011693309
 31
0.0
  0
LINE
  5
A8C
  8
0
 10
96.500000000000114
 20
290.69453011693309
 30
0.0
 11
98.250000000000114
 21
290.69453011693309
 31
0.0
  0
LINE
  5
A8D
  8
0
 10
111.3895108604611
 20
283.02455816804701
 30
0.0
 11
111.3895108604611
 21
272.19637948389692
 31
0.0
  0
LINE
  5
A8E
  8
0
 10
118.0070256929635
 20
280.6264883847993
 30
0.0
 11
118.0070256929635
 21
272.19637948389681
 31
0.0
  0
LINE
  5
A8F
  8
0
 10
111.3895108604611
 20
261.36820079974677
 30
0.0
 11
111.3895108604611
 21
272.19637948389681
 31
0.0
  0
LINE
  5
A90
  8
0
 10
118.0070256929635
 20
263.76627058299442
 30
0.0
 11
118.0070256929635
 21
272.19637948389681
 31
0.0
  0
LINE
  5
A91
  8
0
 10
119.07126229542069
 20
261.69637948389692
 30
0.0
 11
118.42769926374361
 21
261.76057396654329
 31
0.0
  0
ARC
  5
A92
  8
0
 10
118.11676575070859
 20
258.36740860419718
 30
0.0
 40
3.4074978408801448
 50
85.249643954716518
 51
85.937996710370797
  0
ARC
  5
A93
  8
0
 10
125.18890062336629
 20
263.6584125559188
 30
0.0
 40
7.177312636007203
 50
185.98133174945599
 51
187.58880416456469
  0
ARC
  5
A94
  8
0
 10
124.1477908149525
 20
263.51970590257872
 30
0.0
 40
6.1270035534718792
 50
187.58880416456469
 51
189.2807321450052
  0
ARC
  5
A95
  8
0
 10
123.50643342223189
 20
263.41490105374641
 30
0.0
 40
5.4771394434180909
 50
189.28073214500779
 51
191.13394256042139
  0
ARC
  5
A96
  8
0
 10
122.08884613098969
 20
263.13590926616172
 30
0.0
 40
4.0323591328409316
 50
191.13394256042059
 51
193.2324984269637
  0
ARC
  5
A97
  8
0
 10
121.3416476922464
 20
262.96020826547868
 30
0.0
 40
3.2647808967623848
 50
193.2324984269645
 51
195.7679465903509
  0
ARC
  5
A98
  8
0
 10
119.9793016443207
 20
262.5755262364442
 30
0.0
 40
1.8491654766143739
 50
195.76794659035011
 51
199.06583759364031
  0
ARC
  5
A99
  8
0
 10
119.4192193615292
 20
262.38195427067677
 30
0.0
 40
1.2565760154965899
 50
199.06583759364551
 51
203.82715357330451
  0
ARC
  5
A9A
  8
0
 10
118.6740390837968
 20
262.05286866571441
 30
0.0
 40
0.441965076633764
 50
203.8271535733133
 51
211.77583647984659
  0
ARC
  5
A9B
  8
0
 10
118.4708319947969
 20
261.92699354614592
 30
0.0
 40
0.2029302115070454
 50
211.7758364798473
 51
228.02243258833539
  0
ARC
  5
A9C
  8
0
 10
118.36086770278609
 20
261.80476962714749
 30
0.0
 40
0.0385196525615141
 50
228.02243258827141
 51
265.93799502031288
  0
ARC
  5
A9D
  8
0
 10
126.2468210680691
 20
263.75273776215403
 30
0.0
 40
8.2395227042141226
 50
182.94516565481021
 51
184.4472546573796
  0
ARC
  5
A9E
  8
0
 10
126.6240312677167
 20
263.7662705829843
 30
0.0
 40
8.6170055747531951
 50
179.99999999993241
 51
181.46876722235791
  0
ARC
  5
A9F
  8
0
 10
126.3964268982467
 20
263.76043470664342
 30
0.0
 40
8.3893264003554275
 50
181.46876722235791
 51
182.94516565481101
  0
ARC
  5
AA0
  8
0
 10
125.6350199187314
 20
263.70515462691691
 30
0.0
 40
7.6258739438552547
 50
184.4472546573806
 51
185.98133174945599
  0
ARC
  5
AA1
  8
0
 10
118.254177313211
 20
260.02098034504439
 30
0.0
 40
1.7482264828323499
 50
84.303671297306124
 51
85.249643954711644
  0
LINE
  5
AA2
  8
0
 10
119.07126229542069
 20
282.69637948389681
 30
0.0
 11
118.42769926374361
 21
282.63218500125049
 31
0.0
  0
ARC
  5
AA3
  8
0
 10
121.3416476922464
 20
281.4325507023151
 30
0.0
 40
3.2647808967623848
 50
164.2320534096491
 51
166.76750157303539
  0
ARC
  5
AA4
  8
0
 10
122.08884613098969
 20
281.25684970163212
 30
0.0
 40
4.0323591328409316
 50
166.76750157303621
 51
168.86605743957929
  0
ARC
  5
AA5
  8
0
 10
123.50643342223189
 20
280.97785791404738
 30
0.0
 40
5.4771394434180909
 50
168.86605743957861
 51
170.7192678549921
  0
ARC
  5
AA6
  8
0
 10
124.1477908149525
 20
280.87305306521512
 30
0.0
 40
6.1270035534718792
 50
170.7192678549948
 51
172.41119583543519
  0
ARC
  5
AA7
  8
0
 10
118.36086770278609
 20
282.58798934064629
 30
0.0
 40
0.0385196525615141
 50
94.062004979687103
 51
131.97756741172859
  0
ARC
  5
AA8
  8
0
 10
118.4708319947969
 20
282.4657654216478
 30
0.0
 40
0.2029302115070454
 50
131.97756741166461
 51
148.2241635201527
  0
ARC
  5
AA9
  8
0
 10
118.6740390837968
 20
282.33989030207943
 30
0.0
 40
0.441965076633764
 50
148.22416352015341
 51
156.17284642668591
  0
ARC
  5
AAA
  8
0
 10
119.4192193615292
 20
282.0108046971169
 30
0.0
 40
1.2565760154965899
 50
156.1728464266954
 51
160.9341624063544
  0
ARC
  5
AAB
  8
0
 10
119.9793016443207
 20
281.81723273134958
 30
0.0
 40
1.8491654766143739
 50
160.93416240635881
 51
164.23205340964981
  0
ARC
  5
AAC
  8
0
 10
118.11676575070859
 20
286.0253503635966
 30
0.0
 40
3.4074978408801448
 50
274.06200328962922
 51
274.75035604528352
  0
ARC
  5
AAD
  8
0
 10
118.254177313211
 20
284.37177862274939
 30
0.0
 40
1.7482264828323499
 50
274.75035604528841
 51
275.69632870269379
  0
ARC
  5
AAE
  8
0
 10
125.6350199187314
 20
280.68760434087687
 30
0.0
 40
7.6258739438552547
 50
174.01866825054401
 51
175.5527453426194
  0
ARC
  5
AAF
  8
0
 10
126.2468210680691
 20
280.6400212056397
 30
0.0
 40
8.2395227042141226
 50
175.55274534262031
 51
177.05483434518979
  0
ARC
  5
AB0
  8
0
 10
126.3964268982467
 20
280.6323242611503
 30
0.0
 40
8.3893264003554275
 50
177.05483434518899
 51
178.531232777642
  0
ARC
  5
AB1
  8
0
 10
126.6240312677167
 20
280.62648838480942
 30
0.0
 40
8.6170055747531951
 50
178.531232777642
 51
180.00000000006759
  0
ARC
  5
AB2
  8
0
 10
125.18890062336629
 20
280.73434641187492
 30
0.0
 40
7.177312636007203
 50
172.41119583543519
 51
174.01866825054401
  0
LINE
  5
AB3
  8
0
 10
119.07126229542069
 20
354.62635398235221
 30
0.0
 11
119.07126229542069
 21
323.69637948389692
 31
0.0
  0
CIRCLE
  5
AB4
  8
0
 10
99.500000000000242
 20
335.69637414203783
 30
0.0
 40
9.1999999999999993
  0
CIRCLE
  5
AB5
  8
0
 10
99.500000000000242
 20
335.69637414203783
 30
0.0
 40
8.5
  0
LINE
  5
AB6
  8
0
 10
86.335274404682991
 20
323.6963794811968
 30
0.0
 11
112.66472559531741
 21
323.69637948659698
 31
0.0
  0
ARC
  5
AB7
  8
0
 10
108.0000000000001
 20
318.69637948389692
 30
0.0
 40
1.5
 50
0.0
 51
90.0
  0
ARC
  5
AB8
  8
0
 10
91.000000000000114
 20
318.69637948389698
 30
0.0
 40
1.5
 50
90.0
 51
180.0
  0
LINE
  5
AB9
  8
0
 10
98.471476533320015
 20
306.44637948389709
 30
0.0
 11
89.500000000000114
 21
306.44637948389709
 31
0.0
  0
LINE
  5
ABA
  8
0
 10
98.400000000000205
 20
304.94637948389698
 30
0.0
 11
89.500000000000114
 21
304.94637948389698
 31
0.0
  0
TEXT
  5
ABB
  8
0
 10
91.105888423120675
 20
308.72649290277923
 30
0.0
 40
1.3
  1
ELESA
 41
3.0
  7
SIM300
 72
     1
 11
99.555888423120663
 21
308.72649290277923
 31
0.0
  0
TEXT
  5
ABC
  8
0
 10
91.950231531793293
 20
301.70628873114629
 30
0.0
 40
2.0
  1
%%dF        %%dC
 41
0.8
  7
SIMPLEX
  0
LINE
  5
ABD
  8
0
 10
100.60000000000009
 20
304.94637948389692
 30
0.0
 11
109.5000000000001
 21
304.94637948389692
 31
0.0
  0
LINE
  5
ABE
  8
0
 10
100.5285234666802
 20
306.44637948389709
 30
0.0
 11
109.5000000000001
 21
306.44637948389709
 31
0.0
  0
ARC
  5
ABF
  8
0
 10
99.500000000000114
 20
306.0563288737365
 30
0.0
 40
1.1000000000000001
 50
0.0
 51
180.0
  0
LINE
  5
AC0
  8
0
 10
100.60000000000009
 20
300.89637948389679
 30
0.0
 11
101.7154621063863
 21
300.89637948389679
 31
0.0
  0
LINE
  5
AC1
  8
0
 10
98.400000000000105
 20
300.89637948389679
 30
0.0
 11
97.284537893613901
 21
300.89637948389679
 31
0.0
  0
LINE
  5
AC2
  8
0
 10
91.000000000000114
 20
320.19637948389698
 30
0.0
 11
108.0000000000001
 21
320.19637948389681
 31
0.0
  0
LINE
  5
AC3
  8
0
 10
91.059028491933176
 20
336.69637414203783
 30
0.0
 11
107.94097150806719
 21
336.69637414203783
 31
0.0
  0
LINE
  5
AC4
  8
0
 10
91.059028491933176
 20
334.69637414203783
 30
0.0
 11
107.94097150806719
 21
334.69637414203783
 31
0.0
  0
LINE
  5
AC5
  8
0
 10
118.0070256929635
 20
321.62648838479942
 30
0.0
 11
118.0070256929635
 21
304.76627058299442
 31
0.0
  0
LINE
  5
AC6
  8
0
 10
118.42769926374361
 20
302.76057396654329
 30
0.0
 11
119.07126229542069
 21
302.69637948389692
 31
0.0
  0
ARC
  5
AC7
  8
0
 10
118.11676575070911
 20
299.36740860419229
 30
0.0
 40
3.4074978408850138
 50
85.249643954726324
 51
85.937996710383885
  0
ARC
  5
AC8
  8
0
 10
125.1889006233888
 20
304.65841255592142
 30
0.0
 40
7.1773126360299671
 50
185.98133174942831
 51
187.58880416452701
  0
ARC
  5
AC9
  8
0
 10
124.147790814964
 20
304.5197059025806
 30
0.0
 40
6.1270035534836387
 50
187.58880416452769
 51
189.28073214496391
  0
ARC
  5
ACA
  8
0
 10
123.5064334222572
 20
304.4149010537505
 30
0.0
 40
5.4771394434437184
 50
189.28073214496229
 51
191.13394256036921
  0
ARC
  5
ACB
  8
0
 10
122.0888461310102
 20
304.13590926616649
 30
0.0
 40
4.032359132861961
 50
191.1339425603708
 51
193.2324984269068
  0
ARC
  5
ACC
  8
0
 10
121.34164769227399
 20
303.96020826548568
 30
0.0
 40
3.264780896790942
 50
193.23249842690251
 51
195.767946590279
  0
ARC
  5
ACD
  8
0
 10
119.97930164434349
 20
303.57552623645182
 30
0.0
 40
1.8491654766384551
 50
195.76794659027979
 51
199.06583759354999
  0
ARC
  5
ACE
  8
0
 10
119.4192193615491
 20
303.3819542706841
 30
0.0
 40
1.2565760155176791
 50
199.06583759354839
 51
203.8271535731719
  0
ARC
  5
ACF
  8
0
 10
118.67403908380361
 20
303.05286866571811
 30
0.0
 40
0.4419650766415666
 50
203.8271535731763
 51
211.7758364796498
  0
ARC
  5
AD0
  8
0
 10
118.4708319947996
 20
302.92699354614791
 30
0.0
 40
0.2029302115102622
 50
211.77583647965201
 51
228.0224325881272
  0
ARC
  5
AD1
  8
0
 10
118.36086770278609
 20
302.80476962714749
 30
0.0
 40
0.0385196525615044
 50
228.02243258805279
 51
265.93799502031288
  0
ARC
  5
AD2
  8
0
 10
126.624031267815
 20
304.76627058298698
 30
0.0
 40
8.6170055748515022
 50
179.99999999995109
 51
181.4687672223539
  0
ARC
  5
AD3
  8
0
 10
126.39642689825919
 20
304.76043470664388
 30
0.0
 40
8.3893264003678691
 50
181.46876722235299
 51
182.94516565479469
  0
ARC
  5
AD4
  8
0
 10
126.24682106808341
 20
304.75273776215511
 30
0.0
 40
8.2395227042283832
 50
182.94516565479711
 51
184.4472546573592
  0
ARC
  5
AD5
  8
0
 10
125.63501991873299
 20
304.70515462691708
 30
0.0
 40
7.6258739438567584
 50
184.4472546573592
 51
185.98133174942831
  0
ARC
  5
AD6
  8
0
 10
118.2541773132113
 20
301.02098034504502
 30
0.0
 40
1.7482264828317231
 50
84.303671297317536
 51
85.249643954716575
  0
LINE
  5
AD7
  8
0
 10
119.07126229542069
 20
323.69637948389692
 30
0.0
 11
118.42769926374361
 21
323.63218500125049
 31
0.0
  0
ARC
  5
AD8
  8
0
 10
118.36086770278619
 20
323.58798934064561
 30
0.0
 40
0.0385196525621517
 50
94.062004979776916
 51
131.97756741305119
  0
ARC
  5
AD9
  8
0
 10
118.4708319948142
 20
323.46576542163427
 30
0.0
 40
0.202930211528861
 50
131.97756741307259
 51
148.2241635214142
  0
ARC
  5
ADA
  8
0
 10
118.6740390838434
 20
323.33989030205362
 30
0.0
 40
0.441965076686985
 50
148.2241635213945
 51
156.1728464275638
  0
ARC
  5
ADB
  8
0
 10
119.4192193616542
 20
323.01080469706989
 30
0.0
 40
1.25657601562989
 50
156.1728464275615
 51
160.9341624070376
  0
ARC
  5
ADC
  8
0
 10
119.9793016444862
 20
322.81723273129609
 30
0.0
 40
1.8491654767881871
 50
160.93416240704431
 51
164.23205341018999
  0
ARC
  5
ADD
  8
0
 10
121.3416476924631
 20
322.43255070226093
 30
0.0
 40
3.2647808969856702
 50
164.2320534101865
 51
166.76750157349119
  0
ARC
  5
ADE
  8
0
 10
122.08884613120659
 20
322.2568497015842
 30
0.0
 40
4.0323591330629958
 50
166.76750157349321
 51
168.86605743996179
  0
ARC
  5
ADF
  8
0
 10
123.5064334224199
 20
321.97785791401509
 30
0.0
 40
5.4771394436086771
 50
168.866057439961
 51
170.71926785532651
  0
ARC
  5
AE0
  8
0
 10
124.1477908151117
 20
321.87305306519102
 30
0.0
 40
6.1270035536328802
 50
170.71926785532651
 51
172.41119583571199
  0
ARC
  5
AE1
  8
0
 10
118.1167657507057
 20
327.02535036363139
 30
0.0
 40
3.4074978409150449
 50
274.0620032896357
 51
274.75035604528023
  0
ARC
  5
AE2
  8
0
 10
118.25417731320999
 20
325.37177862276337
 30
0.0
 40
1.74822648284638
 50
274.7503560452754
 51
275.69632870268072
  0
ARC
  5
AE3
  8
0
 10
125.63501991880899
 20
321.68760434086943
 30
0.0
 40
7.6258739439331249
 50
174.0186682507707
 51
175.55274534279019
  0
ARC
  5
AE4
  8
0
 10
126.2468210680677
 20
321.6400212056401
 30
0.0
 40
8.2395227042124972
 50
175.55274534279101
 51
177.05483434531541
  0
ARC
  5
AE5
  8
0
 10
126.3964268982978
 20
321.6323242611482
 30
0.0
 40
8.3893264004063504
 50
177.05483434531371
 51
178.53123277769581
  0
ARC
  5
AE6
  8
0
 10
126.6240312679306
 20
321.62648838480339
 30
0.0
 40
8.6170055749670738
 50
178.53123277769581
 51
180.0000000000268
  0
ARC
  5
AE7
  8
0
 10
125.1889006234818
 20
321.73434641186168
 30
0.0
 40
7.1773126361233643
 50
172.41119583571111
 51
174.0186682507707
  0
ARC
  5
AE8
  8
0
 10
103.418146003309
 20
386.99930864931099
 30
0.0
 40
38.659421951304623
 50
279.41662679130718
 51
282.2218401596013
  0
ARC
  5
AE9
  8
0
 10
103.89758515747771
 20
380.50037682185109
 30
0.0
 40
29.56461085242125
 50
282.05671898677173
 51
285.17042945243219
  0
LINE
  5
AEA
  8
0
 10
81.935866527182611
 20
356.69637947868449
 30
0.0
 11
117.0641334728178
 21
356.69637948588962
 31
0.0
  0
ARC
  5
AEB
  8
0
 10
99.461861991852984
 20
419.19773207683801
 30
0.0
 40
71.119265794764488
 50
267.20457998034431
 51
268.25990930698219
  0
ARC
  5
AEC
  8
0
 10
99.470278640201286
 20
412.37786808979507
 30
0.0
 40
61.781860956758599
 50
267.20717426986897
 51
268.26064509359588
  0
ARC
  5
AED
  8
0
 10
91.44699927834688
 20
367.85527563451348
 30
0.0
 40
16.396738662584099
 50
248.41104856825669
 51
251.20576827842669
  0
ARC
  5
AEE
  8
0
 10
96.273924252471488
 20
390.70354418041808
 30
0.0
 40
42.426929131483412
 50
258.26643000147499
 51
260.58292745633781
  0
ARC
  5
AEF
  8
0
 10
96.886766738205893
 20
389.27809552763807
 30
0.0
 40
38.521995465056222
 50
258.41578472867371
 51
260.666812295022
  0
ARC
  5
AF0
  8
0
 10
92.331475754249254
 20
370.45426586251449
 30
0.0
 40
19.14210727930379
 50
251.20576827842319
 51
253.68807687088989
  0
ARC
  5
AF1
  8
0
 10
94.071764305844553
 20
380.10100339268212
 30
0.0
 40
31.59810742336883
 50
255.6746112846634
 51
258.26643000147499
  0
ARC
  5
AF2
  8
0
 10
92.921636371499403
 20
375.59721085431011
 30
0.0
 40
26.94978068205037
 50
253.3332410461407
 51
255.6746112846634
  0
ARC
  5
AF3
  8
0
 10
95.040289933532776
 20
380.27016361888411
 30
0.0
 40
29.326762250887882
 50
255.92077773388601
 51
258.41578472867371
  0
ARC
  5
AF4
  8
0
 10
94.058820680361677
 20
376.35676492832908
 30
0.0
 40
25.29216546729749
 50
253.68807687089171
 51
255.92077773388769
  0
ARC
  5
AF5
  8
0
 10
88.016131532191253
 20
361.40744012611492
 30
0.0
 40
11.92200583955889
 50
244.30713181153081
 51
247.7248807892403
  0
ARC
  5
AF6
  8
0
 10
89.917321600845867
 20
366.04876040072878
 30
0.0
 40
16.93761921866756
 50
247.7248807892399
 51
250.7073000403432
  0
ARC
  5
AF7
  8
0
 10
90.923746433585507
 20
368.92383284213543
 30
0.0
 40
19.983753241866498
 50
250.7073000403432
 51
253.3332410461405
  0
ARC
  5
AF8
  8
0
 10
99.281789201243214
 20
415.50983436072812
 30
0.0
 40
67.426974395862246
 50
266.12634558354603
 51
267.20457998034601
  0
ARC
  5
AF9
  8
0
 10
99.327519188136307
 20
409.45142879953301
 30
0.0
 40
58.851941643749612
 50
266.13314131989142
 51
267.20717426986732
  0
ARC
  5
AFA
  8
0
 10
97.484672163475466
 20
392.91607184939608
 30
0.0
 40
42.208777614199022
 50
260.666812295022
 51
261.92812205372599
  0
ARC
  5
AFB
  8
0
 10
98.422565203963586
 20
405.63670489180709
 30
0.0
 40
57.51589592806139
 50
263.09710273132532
 51
264.64576124795161
  0
ARC
  5
AFC
  8
0
 10
97.948069620083871
 20
401.71734641407608
 30
0.0
 40
53.567919619104771
 50
261.87179978786639
 51
263.09710273132532
  0
ARC
  5
AFD
  8
0
 10
98.257923424567721
 20
398.36840136619912
 30
0.0
 40
47.715665544108447
 50
261.92812205372599
 51
263.1327854515531
  0
ARC
  5
AFE
  8
0
 10
98.641983739420425
 20
401.55740383058412
 30
0.0
 40
50.927711472064388
 50
263.1327854515531
 51
264.66315554925899
  0
ARC
  5
AFF
  8
0
 10
97.002089207570066
 20
395.09391289827113
 30
0.0
 40
46.877273127236457
 50
260.58292745633941
 51
261.87179978786639
  0
ARC
  5
B00
  8
0
 10
99.191696664549113
 20
407.44198415091699
 30
0.0
 40
56.837911963291731
 50
264.66315554926069
 51
266.13314131989142
  0
ARC
  5
B01
  8
0
 10
99.109702261865763
 20
412.96835102883
 30
0.0
 40
64.879671618212981
 50
264.64576124795161
 51
266.12634558354603
  0
ARC
  5
B02
  8
0
 10
89.747151703504528
 20
363.55953074449633
 30
0.0
 40
11.77690036045651
 50
245.2345253613619
 51
248.41104856825669
  0
ARC
  5
B03
  8
0
 10
86.288729536910054
 20
357.31684963111178
 30
0.0
 40
4.6284533218281911
 50
229.60899000575299
 51
238.44576358514891
  0
ARC
  5
B04
  8
0
 10
85.378207360380983
 20
356.24664952197031
 30
0.0
 40
3.2233273817225161
 50
217.94510426555161
 51
229.6089900057525
  0
LINE
  5
B05
  8
0
 10
81.935866527182611
 20
356.696379482287
 30
0.0
 11
82.565197233459784
 21
354.76894514138729
 31
0.0
  0
LINE
  5
B06
  8
0
 10
82.565197233459784
 20
354.76894514138729
 30
0.0
 11
82.611886589659662
 21
354.64526343466338
 31
0.0
  0
ARC
  5
B07
  8
0
 10
84.184536704886796
 20
355.31589219236997
 30
0.0
 40
1.709669943464869
 50
203.09496425111951
 51
217.94510426555229
  0
ARC
  5
B08
  8
0
 10
88.614030255845023
 20
361.10334532536962
 30
0.0
 40
9.0719399118958837
 50
238.44576358514891
 51
245.2345253613623
  0
ARC
  5
B09
  8
0
 10
99.617345878596225
 20
417.34373503961808
 30
0.0
 40
69.263599959845166
 50
272.44064363510529
 51
273.51211279103399
  0
ARC
  5
B0A
  8
0
 10
99.776777090862652
 20
407.89941728456103
 30
0.0
 40
57.296447841907778
 50
273.50697733286569
 51
274.59355435031188
  0
ARC
  5
B0B
  8
0
 10
99.499999319731515
 20
413.2370219290151
 30
0.0
 40
65.157077769292727
 50
269.99987331332977
 51
271.09576139155757
  0
ARC
  5
B0C
  8
0
 10
99.592506917425794
 20
410.9061989160831
 30
0.0
 40
60.308870666890357
 50
272.43900072404529
 51
273.50697733286569
  0
ARC
  5
B0D
  8
0
 10
99.531662185191749
 20
419.35400159970811
 30
0.0
 40
71.275691741531972
 50
271.04128611521958
 51
272.44064363510358
  0
ARC
  5
B0E
  8
0
 10
99.524886676815527
 20
412.493740016706
 30
0.0
 40
61.89785123414341
 50
271.04112445244868
 51
272.43900072404529
  0
ARC
  5
B0F
  8
0
 10
99.487819450335905
 20
412.95549927646908
 30
0.0
 40
62.359758411190242
 50
268.26064509359588
 51
268.95822647456561
  0
ARC
  5
B10
  8
0
 10
99.484398891390924
 20
419.93957398438801
 30
0.0
 40
71.861449954955333
 50
268.2599093069789
 51
268.95803341185132
  0
ARC
  5
B11
  8
0
 10
99.499024051658125
 20
421.14968617405611
 30
0.0
 40
73.071672904660346
 50
269.65500614127069
 51
271.04128611521958
  0
ARC
  5
B12
  8
0
 10
99.499193502332801
 20
413.90754643453113
 30
0.0
 40
63.31189109436594
 50
269.65490746002371
 51
271.04112445244868
  0
ARC
  5
B13
  8
0
 10
99.499999319417611
 20
413.23687963562099
 30
0.0
 40
65.156935475898763
 50
268.90398436004762
 51
270.0
  0
ARC
  5
B14
  8
0
 10
99.495369558764324
 20
420.54276380874001
 30
0.0
 40
72.46473953695093
 50
268.95803341185291
 51
270.0
  0
ARC
  5
B15
  8
0
 10
99.496252449984581
 20
413.419248862953
 30
0.0
 40
62.823584665780423
 50
268.95822647456561
 51
270.0
  0
ARC
  5
B16
  8
0
 10
100.8916647532743
 20
397.09615620920511
 30
0.0
 40
46.43471330951359
 50
276.8719868705486
 51
279.33266254452059
  0
ARC
  5
B17
  8
0
 10
100.68829448008211
 20
404.68303838523798
 30
0.0
 40
56.555879590355943
 50
275.73185953735992
 51
276.90786506236049
  0
ARC
  5
B18
  8
0
 10
99.942910206324655
 20
405.83166701399409
 30
0.0
 40
55.222034336002281
 50
274.59355435031352
 51
275.7107501638086
  0
ARC
  5
B19
  8
0
 10
100.4500058930556
 20
400.76085050857108
 30
0.0
 40
50.125925421627421
 50
275.71075016380701
 51
276.87198687054689
  0
ARC
  5
B1A
  8
0
 10
100.0594871437345
 20
410.94762616516812
 30
0.0
 40
62.851946514928237
 50
274.6048255384884
 51
275.73185953735992
  0
ARC
  5
B1B
  8
0
 10
101.2384097926314
 20
400.1423566260861
 30
0.0
 40
51.981995278854697
 50
276.90786506236049
 51
279.41662679130718
  0
ARC
  5
B1C
  8
0
 10
102.689575353777
 20
386.15608012783809
 30
0.0
 40
35.34788566615692
 50
279.33266254452059
 51
282.05671898677173
  0
ARC
  5
B1D
  8
0
 10
99.851150019273973
 20
413.53428788036513
 30
0.0
 40
65.446984700831138
 50
273.51211279103399
 51
274.6048255384884
  0
ARC
  5
B1E
  8
0
 10
116.83415290929911
 20
353.17708915413272
 30
0.0
 40
1.676734486094166
 50
327.92078152048862
 51
341.87624064776782
  0
ARC
  5
B1F
  8
0
 10
107.7895218997014
 20
367.16673847840048
 30
0.0
 40
15.668713156012521
 50
288.78661120602158
 51
293.12641073872322
  0
ARC
  5
B20
  8
0
 10
112.10111313437559
 20
359.09193781407322
 30
0.0
 40
9.3520291525730208
 50
293.92612946475418
 51
299.66879093179602
  0
ARC
  5
B21
  8
0
 10
109.3500841774483
 20
365.29235191860971
 30
0.0
 40
16.135339214009608
 50
289.28390725315131
 51
293.92612946475452
  0
ARC
  5
B22
  8
0
 10
115.2235131524269
 20
354.42118114983538
 30
0.0
 40
3.722524995935637
 50
306.95418426391541
 51
316.23052419291889
  0
ARC
  5
B23
  8
0
 10
113.3220155278554
 20
356.94875637333217
 30
0.0
 40
6.8854871719164681
 50
299.66879093179642
 51
306.95418426391581
  0
ARC
  5
B24
  8
0
 10
115.9318131809768
 20
353.74266983087932
 30
0.0
 40
2.7416750887654699
 50
316.23052419291889
 51
327.92078152048862
  0
ARC
  5
B25
  8
0
 10
106.42615717875459
 20
371.1746657690926
 30
0.0
 40
19.902180355578022
 50
285.17042945243043
 51
288.78661120602158
  0
ARC
  5
B26
  8
0
 10
104.8562413117093
 20
380.36010776921103
 30
0.0
 40
31.866255793881159
 50
282.2218401596013
 51
285.4675589789195
  0
ARC
  5
B27
  8
0
 10
107.7989205166667
 20
369.7257714905258
 30
0.0
 40
20.83228692536203
 50
285.4675589789195
 51
289.28390725315131
  0
LINE
  5
B28
  8
0
 10
118.4726541582358
 20
352.7930128330263
 30
0.0
 11
118.42769926377861
 21
352.65550641574532
 31
0.0
  0
LINE
  5
B29
  8
0
 10
117.0641334728178
 20
356.696379482287
 30
0.0
 11
119.07126229542069
 21
354.62635398235221
 31
0.0
  0
ARC
  5
B2A
  8
0
 10
113.8808737188175
 20
356.00338790907472
 30
0.0
 40
2.8691629644619701
 50
313.41497581366298
 51
323.97024046398712
  0
ARC
  5
B2B
  8
0
 10
113.1799842469559
 20
356.74416979691779
 30
0.0
 40
3.888968758288847
 50
305.05904833137117
 51
313.41497581366468
  0
ARC
  5
B2C
  8
0
 10
111.3863629855433
 20
359.30011601686459
 30
0.0
 40
7.0114578789507238
 50
298.42463933304629
 51
305.05904833136941
  0
ARC
  5
B2D
  8
0
 10
110.2620903596849
 20
361.37727921480302
 30
0.0
 40
9.3733630184776437
 50
293.12641073872322
 51
298.42463933304668
  0
LINE
  5
B2E
  8
0
 10
117.0641334728178
 20
356.696379482287
 30
0.0
 11
116.4348027665407
 21
354.76894514138729
 31
0.0
  0
LINE
  5
B2F
  8
0
 10
116.4348027665407
 20
354.76894514138729
 30
0.0
 11
116.3881134104318
 21
354.64526343490297
 31
0.0
  0
ARC
  5
B30
  8
0
 10
114.8411681459805
 20
355.30493081447821
 30
0.0
 40
1.681725513548229
 50
323.97024046398491
 51
336.90503574889948
  0
LINE
  5
B31
  8
0
 10
119.07126229542069
 20
354.62635398235221
 30
0.0
 11
118.4726541582358
 21
352.79301283302618
 31
0.0
  0
LINE
  5
B32
  8
0
 10
276.7464626380754
 20
213.5528260903171
 30
0.0
 11
276.74646263807551
 21
203.8399435611924
 31
0.0
  0
LINE
  5
B33
  8
0
 10
260.38437023327651
 20
210.7237122100054
 30
0.0
 11
260.38437018217093
 21
211.82336153118391
 31
0.0
  0
LINE
  5
B34
  8
0
 10
259.4796759691007
 20
212.7667396035296
 30
0.0
 11
261.97699496944227
 21
210.1626376312403
 31
0.0
  0
LINE
  5
B35
  8
0
 10
260.87857894999831
 20
211.3080208691195
 30
0.0
 11
259.90561317194857
 21
210.15767222106831
 31
0.0
  0
LINE
  5
B36
  8
0
 10
262.5164635013752
 20
203.57206092260159
 30
0.0
 11
262.51646340611512
 21
213.8207087321093
 31
0.0
  0
LINE
  5
B37
  8
0
 10
273.74646263807551
 20
214.69638482575479
 30
0.0
 11
273.74646263807551
 21
202.69638482575479
 31
0.0
  0
LINE
  5
B38
  8
0
 10
272.51718139083738
 20
203.7122419844396
 30
0.0
 11
272.51718139083738
 21
213.68053695260701
 31
0.0
  0
ARC
  5
B39
  8
0
 10
258.85739491830782
 20
213.68053695260701
 30
0.0
 40
13.659786472529619
 50
338.59996093118122
 51
21.400039068818781
  0
ARC
  5
B3A
  8
0
 10
276.17553066370402
 20
213.68053695260701
 30
0.0
 40
13.659786472529619
 50
158.59996093118119
 51
201.40003906881881
  0
LINE
  5
B3B
  8
0
 10
262.31117214167273
 20
210.53455915915501
 30
0.0
 11
259.81385313441717
 21
213.13866113765681
 31
0.0
  0
LINE
  5
B3C
  8
0
 10
255.7466464755046
 20
220.19638482575479
 30
0.0
 11
255.7466464755046
 21
208.69638482575479
 31
0.0
1001
ACAD
1000
ASC_BOUNDS
1002
{
1070
    19
1002
}
  0
LINE
  5
B3D
  8
0
 10
229.07126229542061
 20
216.82921138754801
 30
0.0
 11
229.07126229542061
 21
209.69638482575479
 31
0.0
  0
LINE
  5
B3E
  8
0
 10
253.7466464755046
 20
187.69637948389581
 30
0.0
 11
253.7466464755046
 21
220.6963794838959
 31
0.0
210
-1.0
220
0.0
230
0.0
1001
ACAD
1000
ASC_BOUNDS
1002
{
1070
    19
1002
}
  0
ARC
  5
B3F
  8
0
 10
216.00545106353431
 20
208.6843667455696
 30
0.0
 40
15.71132218850404
 50
326.20944521974371
 51
33.896044168741142
  0
LINE
  5
B4B
  8
1
 10
281.74646263807551
 20
208.69638482575479
 30
0.0
 11
224.07126229542061
 21
208.69638482575479
 31
0.0
  0
LINE
  5
B4C
  8
3
 10
259.4581743701508
 20
203.6419667941299
 30
0.0
 11
255.7466464755046
 21
203.64196679412979
 31
0.0
  0
LINE
  5
B4D
  8
0
 10
259.62244895629459
 20
202.69638482575479
 30
0.0
 11
255.7466464755046
 21
202.69638482575479
 31
0.0
1001
ACAD
1000
ASC_BOUNDS
1002
{
1070
    19
1002
}
  0
LINE
  5
B4E
  8
0
 10
253.7466464755046
 20
187.69637948389581
 30
0.0
 11
230.9784666207556
 21
193.7970948891026
 31
0.0
210
-1.0
220
0.0
230
0.0
1001
ACAD
1000
ASC_BOUNDS
1002
{
1070
    19
1002
}
  0
LINE
  5
B4F
  8
0
 10
253.7466464755046
 20
189.6964542701381
 30
0.0
 11
229.0567683183078
 21
196.31208718358201
 31
0.0
210
-1.0
220
0.0
230
0.0
1001
ACAD
1000
ASC_BOUNDS
1002
{
1070
    19
1002
}
  0
LINE
  5
B50
  8
0
 10
229.3089062011731
 20
200.3259143582095
 30
0.0
 11
229.07126229542061
 21
200.56355826396171
 31
0.0
  0
LINE
  5
B51
  8
0
 10
229.0466464755045
 20
199.9463794788297
 30
0.0
 11
229.0567683183078
 21
196.31208718358201
 31
0.0
1001
ACAD
1000
ASC_BOUNDS
1002
{
1070
    19
1002
}
  0
LINE
  5
B52
  8
0
 10
230.97846662075531
 20
193.79709488910291
 30
0.0
 11
229.0567683183078
 21
196.31208718358201
 31
0.0
1001
ACAD
1000
ASC_BOUNDS
1002
{
1070
    19
1002
}
  0
LINE
  5
B53
  8
0
 10
230.8626188888727
 20
209.69638482575479
 30
0.0
 11
230.8626188888727
 21
208.69638482575479
 31
0.0
  0
LINE
  5
B54
  8
0
 10
230.8626188888727
 20
207.69638482575479
 30
0.0
 11
230.8626188888727
 21
208.69638482575479
 31
0.0
  0
LINE
  5
B55
  8
0
 10
229.07126229542061
 20
209.69638482575479
 30
0.0
 11
230.8626188888727
 21
209.69638482575479
 31
0.0
  0
LINE
  5
B56
  8
0
 10
229.07126229542061
 20
207.69638482575479
 30
0.0
 11
230.8626188888727
 21
207.69638482575479
 31
0.0
  0
LINE
  5
B57
  8
0
 10
229.07126229542061
 20
200.5635582639616
 30
0.0
 11
229.07126229542061
 21
207.69638482575479
 31
0.0
  0
LINE
  5
B58
  8
0
 10
255.7466464755046
 20
197.19638482575479
 30
0.0
 11
255.7466464755046
 21
208.69638482575479
 31
0.0
1001
ACAD
1000
ASC_BOUNDS
1002
{
1070
    19
1002
}
  0
LINE
  5
B59
  8
0
 10
254.2466464755046
 20
197.19638482575479
 30
0.0
 11
255.7466464755046
 21
197.19638482575479
 31
0.0
1001
ACAD
1000
ASC_BOUNDS
1002
{
1070
    19
1002
}
  0
LINE
  5
B5A
  8
0
 10
255.7466464755046
 20
199.7369444143753
 30
0.0
 11
254.2466464755046
 21
199.7369444143753
 31
0.0
  0
LINE
  5
B5B
  8
0
 10
255.7466464755046
 20
199.67444441437519
 30
0.0
 11
254.2466464755046
 21
199.67444441437519
 31
0.0
  0
LINE
  5
B5C
  8
0
 10
255.7466464755046
 20
199.6119444143753
 30
0.0
 11
254.2466464755046
 21
199.61194441437519
 31
0.0
  0
LINE
  5
B5D
  8
0
 10
255.7466464755046
 20
199.54944441437519
 30
0.0
 11
254.2466464755046
 21
199.5494444143753
 31
0.0
  0
LINE
  5
B5E
  8
0
 10
255.7466464755046
 20
199.48694441437519
 30
0.0
 11
254.2466464755046
 21
199.48694441437519
 31
0.0
  0
LINE
  5
B5F
  8
0
 10
255.7466464755046
 20
199.4244444143753
 30
0.0
 11
254.2466464755046
 21
199.4244444143753
 31
0.0
  0
LINE
  5
B60
  8
0
 10
255.7466464755046
 20
199.36194441437519
 30
0.0
 11
254.2466464755046
 21
199.36194441437519
 31
0.0
  0
LINE
  5
B61
  8
0
 10
255.7466464755046
 20
199.2994444143753
 30
0.0
 11
254.2466464755046
 21
199.2994444143753
 31
0.0
  0
LINE
  5
B62
  8
0
 10
255.7466464755046
 20
199.23694441437519
 30
0.0
 11
254.2466464755046
 21
199.23694441437519
 31
0.0
  0
LINE
  5
B63
  8
0
 10
255.7466464755046
 20
199.1744444143753
 30
0.0
 11
254.2466464755046
 21
199.1744444143753
 31
0.0
  0
LINE
  5
B64
  8
0
 10
255.7466464755046
 20
199.1119444143753
 30
0.0
 11
254.2466464755046
 21
199.1119444143753
 31
0.0
  0
LINE
  5
B65
  8
0
 10
255.7466464755046
 20
199.0494444143753
 30
0.0
 11
254.2466464755046
 21
199.0494444143753
 31
0.0
  0
LINE
  5
B66
  8
0
 10
255.7466464755046
 20
198.9869444143753
 30
0.0
 11
254.2466464755046
 21
198.9869444143753
 31
0.0
  0
LINE
  5
B67
  8
0
 10
255.7466464755046
 20
198.92444441437519
 30
0.0
 11
254.2466464755046
 21
198.92444441437519
 31
0.0
  0
LINE
  5
B68
  8
0
 10
255.7466464755046
 20
198.86194441437519
 30
0.0
 11
254.2466464755046
 21
198.86194441437519
 31
0.0
  0
LINE
  5
B69
  8
0
 10
255.7466464755046
 20
198.7994444143753
 30
0.0
 11
254.2466464755046
 21
198.7994444143753
 31
0.0
  0
LINE
  5
B6A
  8
0
 10
255.7466464755046
 20
198.7369444143753
 30
0.0
 11
254.2466464755046
 21
198.7369444143753
 31
0.0
  0
LINE
  5
B6B
  8
0
 10
255.7466464755046
 20
198.67444441437519
 30
0.0
 11
254.2466464755046
 21
198.67444441437519
 31
0.0
  0
LINE
  5
B6C
  8
0
 10
255.7466464755046
 20
198.6119444143753
 30
0.0
 11
254.2466464755046
 21
198.6119444143753
 31
0.0
  0
LINE
  5
B6D
  8
0
 10
255.7466464755046
 20
198.54944441437519
 30
0.0
 11
254.2466464755046
 21
198.54944441437519
 31
0.0
  0
LINE
  5
B6E
  8
0
 10
255.7466464755046
 20
198.4869444143753
 30
0.0
 11
254.2466464755046
 21
198.4869444143753
 31
0.0
  0
LINE
  5
B6F
  8
0
 10
255.7466464755046
 20
198.4244444143753
 30
0.0
 11
254.2466464755046
 21
198.4244444143753
 31
0.0
  0
LINE
  5
B70
  8
0
 10
255.7466464755046
 20
198.36194441437519
 30
0.0
 11
254.2466464755046
 21
198.36194441437519
 31
0.0
  0
LINE
  5
B71
  8
0
 10
255.7466464755046
 20
198.29944441437519
 30
0.0
 11
254.2466464755046
 21
198.29944441437519
 31
0.0
  0
LINE
  5
B72
  8
0
 10
255.7466464755046
 20
198.23694441437519
 30
0.0
 11
254.2466464755046
 21
198.23694441437519
 31
0.0
  0
LINE
  5
B73
  8
0
 10
255.7466464755046
 20
198.1744444143753
 30
0.0
 11
254.2466464755046
 21
198.17444441437519
 31
0.0
  0
LINE
  5
B74
  8
0
 10
255.7466464755046
 20
198.11194441437519
 30
0.0
 11
254.2466464755046
 21
198.1119444143753
 31
0.0
  0
LINE
  5
B75
  8
0
 10
255.7466464755046
 20
198.0494444143753
 30
0.0
 11
254.2466464755046
 21
198.0494444143753
 31
0.0
  0
LINE
  5
B76
  8
0
 10
255.7466464755046
 20
197.98694441437519
 30
0.0
 11
254.2466464755046
 21
197.98694441437519
 31
0.0
  0
LINE
  5
B77
  8
0
 10
255.7466464755046
 20
197.92444441437519
 30
0.0
 11
254.2466464755046
 21
197.92444441437519
 31
0.0
  0
LINE
  5
B78
  8
0
 10
255.7466464755046
 20
197.8619444143753
 30
0.0
 11
254.2466464755046
 21
197.8619444143753
 31
0.0
  0
LINE
  5
B79
  8
0
 10
255.7466464755046
 20
197.79944441437519
 30
0.0
 11
254.2466464755046
 21
197.79944441437519
 31
0.0
  0
LINE
  5
B7A
  8
0
 10
255.7466464755046
 20
197.7369444143753
 30
0.0
 11
254.2466464755046
 21
197.7369444143753
 31
0.0
  0
LINE
  5
B7B
  8
0
 10
255.7466464755046
 20
197.67444441437519
 30
0.0
 11
254.2466464755046
 21
197.67444441437519
 31
0.0
  0
LINE
  5
B7C
  8
0
 10
255.7466464755046
 20
197.6119444143753
 30
0.0
 11
254.2466464755046
 21
197.6119444143753
 31
0.0
  0
LINE
  5
B7D
  8
0
 10
255.7466464755046
 20
197.5494444143753
 30
0.0
 11
254.2466464755046
 21
197.5494444143753
 31
0.0
  0
LINE
  5
B7E
  8
0
 10
255.7466464755046
 20
197.4869444143753
 30
0.0
 11
254.2466464755046
 21
197.4869444143753
 31
0.0
  0
LINE
  5
B7F
  8
0
 10
255.7466464755046
 20
197.4244444143753
 30
0.0
 11
254.2466464755046
 21
197.42444441437519
 31
0.0
  0
LINE
  5
B80
  8
0
 10
255.7466464755046
 20
197.36194441437519
 30
0.0
 11
254.2466464755046
 21
197.3619444143753
 31
0.0
  0
LINE
  5
B81
  8
0
 10
255.7466464755046
 20
197.29944441437519
 30
0.0
 11
254.2466464755046
 21
197.29944441437519
 31
0.0
  0
LINE
  5
B82
  8
0
 10
255.7466464755046
 20
197.2369444143753
 30
0.0
 11
254.2466464755046
 21
197.2369444143753
 31
0.0
  0
LINE
  5
B83
  8
0
 10
254.2466464755046
 20
199.79638482575481
 30
0.0
 11
254.2466464755046
 21
197.19638482575479
 31
0.0
1001
ACAD
1000
ASC_BOUNDS
1002
{
1070
    19
1002
}
  0
LINE
  5
B84
  8
0
 10
255.7466464755046
 20
200.4244444143753
 30
0.0
 11
253.7466464755046
 21
200.4244444143753
 31
0.0
  0
LINE
  5
B85
  8
0
 10
255.7466464755046
 20
200.3619444143753
 30
0.0
 11
253.7466464755046
 21
200.3619444143753
 31
0.0
  0
LINE
  5
B86
  8
0
 10
255.7466464755046
 20
200.2994444143753
 30
0.0
 11
253.7466464755046
 21
200.29944441437519
 31
0.0
  0
LINE
  5
B87
  8
0
 10
255.7466464755046
 20
200.2369444143753
 30
0.0
 11
253.7466464755046
 21
200.2369444143753
 31
0.0
  0
LINE
  5
B88
  8
0
 10
255.7466464755046
 20
200.1744444143753
 30
0.0
 11
253.7466464755046
 21
200.1744444143753
 31
0.0
  0
LINE
  5
B89
  8
0
 10
255.7466464755046
 20
200.1119444143753
 30
0.0
 11
253.7466464755046
 21
200.1119444143753
 31
0.0
  0
LINE
  5
B8A
  8
0
 10
255.7466464755046
 20
200.0494444143753
 30
0.0
 11
253.7466464755046
 21
200.0494444143753
 31
0.0
  0
LINE
  5
B8B
  8
0
 10
255.7466464755046
 20
199.9869444143753
 30
0.0
 11
253.7466464755046
 21
199.98694441437519
 31
0.0
  0
LINE
  5
B8C
  8
0
 10
255.7466464755046
 20
199.92444441437519
 30
0.0
 11
253.7466464755046
 21
199.9244444143753
 31
0.0
  0
LINE
  5
B8D
  8
0
 10
255.7466464755046
 20
199.86194441437519
 30
0.0
 11
253.7466464755046
 21
199.86194441437519
 31
0.0
  0
LINE
  5
B8E
  8
0
 10
255.7466464755046
 20
199.79944441437519
 30
0.0
 11
253.7466464755046
 21
199.79944441437519
 31
0.0
  0
LINE
  5
B8F
  8
0
 10
254.2466464755046
 20
199.79638482575481
 30
0.0
 11
253.7466464755046
 21
199.79638482575481
 31
0.0
1001
ACAD
1000
ASC_BOUNDS
1002
{
1070
    19
1002
}
  0
LINE
  5
B90
  8
0
 10
253.74671410812999
 20
191.09636136178841
 30
0.0
 11
253.74669699675539
 21
191.09636594676741
 31
0.0
210
-1.0
220
0.0
230
0.0
  0
LINE
  5
B91
  8
0
 10
253.74671410812999
 20
191.09636136178841
 30
0.0
 11
253.74669699675539
 21
191.09636594676741
 31
0.0
210
-1.0
220
0.0
230
0.0
  0
LINE
  5
B92
  8
0
 10
255.7466464755046
 20
208.6744444143753
 30
0.0
 11
253.7466464755046
 21
208.6744444143753
 31
0.0
  0
LINE
  5
B93
  8
0
 10
255.7466464755046
 20
208.6119444143753
 30
0.0
 11
253.7466464755046
 21
208.6119444143753
 31
0.0
  0
LINE
  5
B94
  8
0
 10
255.7466464755046
 20
208.5494444143753
 30
0.0
 11
253.7466464755046
 21
208.54944441437519
 31
0.0
  0
LINE
  5
B95
  8
0
 10
255.7466464755046
 20
208.4869444143753
 30
0.0
 11
253.7466464755046
 21
208.48694441437519
 31
0.0
  0
LINE
  5
B96
  8
0
 10
255.7466464755046
 20
208.4244444143753
 30
0.0
 11
253.7466464755046
 21
208.4244444143753
 31
0.0
  0
LINE
  5
B97
  8
0
 10
255.7466464755046
 20
208.36194441437519
 30
0.0
 11
253.7466464755046
 21
208.36194441437519
 31
0.0
  0
LINE
  5
B98
  8
0
 10
255.7466464755046
 20
208.2994444143753
 30
0.0
 11
253.7466464755046
 21
208.2994444143753
 31
0.0
  0
LINE
  5
B99
  8
0
 10
255.7466464755046
 20
208.2369444143753
 30
0.0
 11
253.7466464755046
 21
208.23694441437519
 31
0.0
  0
LINE
  5
B9A
  8
0
 10
255.7466464755046
 20
208.1744444143753
 30
0.0
 11
253.7466464755046
 21
208.1744444143753
 31
0.0
  0
LINE
  5
B9B
  8
0
 10
255.7466464755046
 20
208.1119444143753
 30
0.0
 11
253.7466464755046
 21
208.1119444143753
 31
0.0
  0
LINE
  5
B9C
  8
0
 10
255.7466464755046
 20
208.0494444143753
 30
0.0
 11
253.7466464755046
 21
208.0494444143753
 31
0.0
  0
LINE
  5
B9D
  8
0
 10
255.7466464755046
 20
207.9869444143753
 30
0.0
 11
253.7466464755046
 21
207.9869444143753
 31
0.0
  0
LINE
  5
B9E
  8
0
 10
255.7466464755046
 20
207.9244444143753
 30
0.0
 11
253.7466464755046
 21
207.92444441437519
 31
0.0
  0
LINE
  5
B9F
  8
0
 10
255.7466464755046
 20
207.8619444143753
 30
0.0
 11
253.7466464755046
 21
207.8619444143753
 31
0.0
  0
LINE
  5
BA0
  8
0
 10
255.7466464755046
 20
207.7994444143753
 30
0.0
 11
253.7466464755046
 21
207.7994444143753
 31
0.0
  0
LINE
  5
BA1
  8
0
 10
255.7466464755046
 20
207.7369444143753
 30
0.0
 11
253.7466464755046
 21
207.7369444143753
 31
0.0
  0
LINE
  5
BA2
  8
0
 10
255.7466464755046
 20
207.6744444143753
 30
0.0
 11
253.7466464755046
 21
207.6744444143753
 31
0.0
  0
LINE
  5
BA3
  8
0
 10
255.7466464755046
 20
207.6119444143753
 30
0.0
 11
253.7466464755046
 21
207.61194441437519
 31
0.0
  0
LINE
  5
BA4
  8
0
 10
255.7466464755046
 20
207.5494444143753
 30
0.0
 11
253.7466464755046
 21
207.5494444143753
 31
0.0
  0
LINE
  5
BA5
  8
0
 10
255.7466464755046
 20
207.4869444143753
 30
0.0
 11
253.7466464755046
 21
207.4869444143753
 31
0.0
  0
LINE
  5
BA6
  8
0
 10
255.7466464755046
 20
207.4244444143753
 30
0.0
 11
253.7466464755046
 21
207.4244444143753
 31
0.0
  0
LINE
  5
BA7
  8
0
 10
255.7466464755046
 20
207.3619444143753
 30
0.0
 11
253.7466464755046
 21
207.3619444143753
 31
0.0
  0
LINE
  5
BA8
  8
0
 10
255.7466464755046
 20
207.2994444143753
 30
0.0
 11
253.7466464755046
 21
207.29944441437519
 31
0.0
  0
LINE
  5
BA9
  8
0
 10
255.7466464755046
 20
207.2369444143753
 30
0.0
 11
253.7466464755046
 21
207.2369444143753
 31
0.0
  0
LINE
  5
BAA
  8
0
 10
255.7466464755046
 20
208.7369444143753
 30
0.0
 11
253.7466464755046
 21
208.7369444143753
 31
0.0
  0
LINE
  5
BAB
  8
0
 10
255.7466464755046
 20
208.7994444143753
 30
0.0
 11
253.7466464755046
 21
208.79944441437519
 31
0.0
  0
LINE
  5
BAC
  8
0
 10
255.7466464755046
 20
208.8619444143753
 30
0.0
 11
253.7466464755046
 21
208.8619444143753
 31
0.0
  0
LINE
  5
BAD
  8
0
 10
255.7466464755046
 20
208.9244444143753
 30
0.0
 11
253.7466464755046
 21
208.9244444143753
 31
0.0
  0
LINE
  5
BAE
  8
0
 10
255.7466464755046
 20
208.9869444143753
 30
0.0
 11
253.7466464755046
 21
208.9869444143753
 31
0.0
  0
LINE
  5
BAF
  8
0
 10
255.7466464755046
 20
209.0494444143753
 30
0.0
 11
253.7466464755046
 21
209.0494444143753
 31
0.0
  0
LINE
  5
BB0
  8
0
 10
255.7466464755046
 20
209.1119444143753
 30
0.0
 11
253.7466464755046
 21
209.11194441437519
 31
0.0
  0
LINE
  5
BB1
  8
0
 10
255.7466464755046
 20
209.1744444143753
 30
0.0
 11
253.7466464755046
 21
209.1744444143753
 31
0.0
  0
LINE
  5
BB2
  8
0
 10
255.7466464755046
 20
209.2369444143753
 30
0.0
 11
253.7466464755046
 21
209.2369444143753
 31
0.0
  0
LINE
  5
BB3
  8
0
 10
255.7466464755046
 20
209.2994444143753
 30
0.0
 11
253.7466464755046
 21
209.2994444143753
 31
0.0
  0
LINE
  5
BB4
  8
0
 10
255.7466464755046
 20
209.3619444143753
 30
0.0
 11
253.7466464755046
 21
209.3619444143753
 31
0.0
  0
LINE
  5
BB5
  8
0
 10
255.7466464755046
 20
209.4244444143753
 30
0.0
 11
253.7466464755046
 21
209.42444441437519
 31
0.0
  0
LINE
  5
BB6
  8
0
 10
255.7466464755046
 20
209.4869444143753
 30
0.0
 11
253.7466464755046
 21
209.4869444143753
 31
0.0
  0
LINE
  5
BB7
  8
0
 10
255.7466464755046
 20
209.5494444143753
 30
0.0
 11
253.7466464755046
 21
209.5494444143753
 31
0.0
  0
LINE
  5
BB8
  8
0
 10
255.7466464755046
 20
209.6119444143753
 30
0.0
 11
253.7466464755046
 21
209.6119444143753
 31
0.0
  0
LINE
  5
BB9
  8
0
 10
255.7466464755046
 20
209.6744444143753
 30
0.0
 11
253.7466464755046
 21
209.6744444143753
 31
0.0
  0
LINE
  5
BBA
  8
0
 10
255.7466464755046
 20
209.7369444143753
 30
0.0
 11
253.7466464755046
 21
209.73694441437519
 31
0.0
  0
LINE
  5
BBB
  8
0
 10
255.7466464755046
 20
209.7994444143753
 30
0.0
 11
253.7466464755046
 21
209.7994444143753
 31
0.0
  0
LINE
  5
BBC
  8
0
 10
255.7466464755046
 20
209.8619444143753
 30
0.0
 11
253.7466464755046
 21
209.8619444143753
 31
0.0
  0
LINE
  5
BBD
  8
0
 10
255.7466464755046
 20
209.92444441437519
 30
0.0
 11
253.7466464755046
 21
209.92444441437519
 31
0.0
  0
LINE
  5
BBE
  8
0
 10
255.7466464755046
 20
209.9869444143753
 30
0.0
 11
253.7466464755046
 21
209.9869444143753
 31
0.0
  0
LINE
  5
BBF
  8
0
 10
255.7466464755046
 20
210.0494444143753
 30
0.0
 11
253.7466464755046
 21
210.04944441437519
 31
0.0
  0
LINE
  5
BC0
  8
0
 10
255.7466464755046
 20
210.1119444143753
 30
0.0
 11
253.7466464755046
 21
210.1119444143753
 31
0.0
  0
LINE
  5
BC1
  8
0
 10
255.7466464755046
 20
210.1744444143753
 30
0.0
 11
253.7466464755046
 21
210.1744444143753
 31
0.0
  0
LINE
  5
BC2
  8
0
 10
255.7466464755046
 20
210.2369444143753
 30
0.0
 11
253.7466464755046
 21
210.2369444143753
 31
0.0
  0
LINE
  5
BC3
  8
0
 10
255.7466464755046
 20
210.2994444143753
 30
0.0
 11
253.7466464755046
 21
210.2994444143753
 31
0.0
  0
LINE
  5
BC4
  8
0
 10
255.7466464755046
 20
210.3619444143753
 30
0.0
 11
253.7466464755046
 21
210.36194441437519
 31
0.0
  0
LINE
  5
BC5
  8
0
 10
255.7466464755046
 20
210.4244444143753
 30
0.0
 11
253.7466464755046
 21
210.4244444143753
 31
0.0
  0
LINE
  5
BC6
  8
0
 10
255.7466464755046
 20
210.4869444143753
 30
0.0
 11
253.7466464755046
 21
210.4869444143753
 31
0.0
  0
LINE
  5
BC7
  8
0
 10
255.7466464755046
 20
210.5494444143753
 30
0.0
 11
253.7466464755046
 21
210.5494444143753
 31
0.0
  0
LINE
  5
BC8
  8
0
 10
255.7466464755046
 20
210.6119444143753
 30
0.0
 11
253.7466464755046
 21
210.6119444143753
 31
0.0
  0
LINE
  5
BC9
  8
0
 10
255.7466464755046
 20
210.6744444143753
 30
0.0
 11
253.7466464755046
 21
210.67444441437519
 31
0.0
  0
LINE
  5
BCA
  8
0
 10
255.7466464755046
 20
210.7369444143753
 30
0.0
 11
253.7466464755046
 21
210.7369444143753
 31
0.0
  0
LINE
  5
BCB
  8
0
 10
255.7466464755046
 20
210.7994444143753
 30
0.0
 11
253.7466464755046
 21
210.7994444143753
 31
0.0
  0
LINE
  5
BCC
  8
0
 10
255.7466464755046
 20
210.8619444143753
 30
0.0
 11
253.7466464755046
 21
210.8619444143753
 31
0.0
  0
LINE
  5
BCD
  8
0
 10
255.7466464755046
 20
210.9244444143753
 30
0.0
 11
253.7466464755046
 21
210.92444441437519
 31
0.0
  0
LINE
  5
BCE
  8
0
 10
255.7466464755046
 20
210.9869444143753
 30
0.0
 11
253.7466464755046
 21
210.98694441437519
 31
0.0
  0
LINE
  5
BCF
  8
0
 10
255.7466464755046
 20
211.0494444143753
 30
0.0
 11
253.7466464755046
 21
211.0494444143753
 31
0.0
  0
LINE
  5
BD0
  8
0
 10
255.7466464755046
 20
211.1119444143753
 30
0.0
 11
253.7466464755046
 21
211.1119444143753
 31
0.0
  0
LINE
  5
BD1
  8
0
 10
255.7466464755046
 20
211.1744444143753
 30
0.0
 11
253.7466464755046
 21
211.1744444143753
 31
0.0
  0
LINE
  5
BD2
  8
0
 10
255.7466464755046
 20
211.2369444143753
 30
0.0
 11
253.7466464755046
 21
211.23694441437519
 31
0.0
  0
LINE
  5
BD3
  8
0
 10
255.7466464755046
 20
207.1744444143753
 30
0.0
 11
253.7466464755046
 21
207.1744444143753
 31
0.0
  0
LINE
  5
BD4
  8
0
 10
255.7466464755046
 20
207.1119444143753
 30
0.0
 11
253.7466464755046
 21
207.1119444143753
 31
0.0
  0
LINE
  5
BD5
  8
0
 10
255.7466464755046
 20
207.0494444143753
 30
0.0
 11
253.7466464755046
 21
207.0494444143753
 31
0.0
  0
LINE
  5
BD6
  8
0
 10
255.7466464755046
 20
206.9869444143753
 30
0.0
 11
253.7466464755046
 21
206.98694441437519
 31
0.0
  0
LINE
  5
BD7
  8
0
 10
255.7466464755046
 20
206.9244444143753
 30
0.0
 11
253.7466464755046
 21
206.9244444143753
 31
0.0
  0
LINE
  5
BD8
  8
0
 10
255.7466464755046
 20
206.8619444143753
 30
0.0
 11
253.7466464755046
 21
206.8619444143753
 31
0.0
  0
LINE
  5
BD9
  8
0
 10
255.7466464755046
 20
206.79944441437519
 30
0.0
 11
253.7466464755046
 21
206.79944441437519
 31
0.0
  0
LINE
  5
BDA
  8
0
 10
255.7466464755046
 20
206.7369444143753
 30
0.0
 11
253.7466464755046
 21
206.7369444143753
 31
0.0
  0
LINE
  5
BDB
  8
0
 10
255.7466464755046
 20
206.6744444143753
 30
0.0
 11
253.7466464755046
 21
206.67444441437519
 31
0.0
  0
LINE
  5
BDC
  8
0
 10
255.7466464755046
 20
206.6119444143753
 30
0.0
 11
253.7466464755046
 21
206.6119444143753
 31
0.0
  0
LINE
  5
BDD
  8
0
 10
255.7466464755046
 20
206.5494444143753
 30
0.0
 11
253.7466464755046
 21
206.5494444143753
 31
0.0
  0
LINE
  5
BDE
  8
0
 10
255.7466464755046
 20
206.4869444143753
 30
0.0
 11
253.7466464755046
 21
206.4869444143753
 31
0.0
  0
LINE
  5
BDF
  8
0
 10
255.7466464755046
 20
206.4244444143753
 30
0.0
 11
253.7466464755046
 21
206.4244444143753
 31
0.0
  0
LINE
  5
BE0
  8
0
 10
255.7466464755046
 20
206.3619444143753
 30
0.0
 11
253.7466464755046
 21
206.36194441437519
 31
0.0
  0
LINE
  5
BE1
  8
0
 10
255.7466464755046
 20
206.2994444143753
 30
0.0
 11
253.7466464755046
 21
206.2994444143753
 31
0.0
  0
LINE
  5
BE2
  8
0
 10
255.7466464755046
 20
206.2369444143753
 30
0.0
 11
253.7466464755046
 21
206.2369444143753
 31
0.0
  0
LINE
  5
BE3
  8
0
 10
255.7466464755046
 20
206.1744444143753
 30
0.0
 11
253.7466464755046
 21
206.1744444143753
 31
0.0
  0
LINE
  5
BE4
  8
0
 10
255.7466464755046
 20
206.1119444143753
 30
0.0
 11
253.7466464755046
 21
206.11194441437519
 31
0.0
  0
LINE
  5
BE5
  8
0
 10
255.7466464755046
 20
206.0494444143753
 30
0.0
 11
253.7466464755046
 21
206.04944441437519
 31
0.0
  0
LINE
  5
BE6
  8
0
 10
255.7466464755046
 20
205.9869444143753
 30
0.0
 11
253.7466464755046
 21
205.9869444143753
 31
0.0
  0
LINE
  5
BE7
  8
0
 10
255.7466464755046
 20
205.9244444143753
 30
0.0
 11
253.7466464755046
 21
205.9244444143753
 31
0.0
  0
LINE
  5
BE8
  8
0
 10
255.7466464755046
 20
205.8619444143753
 30
0.0
 11
253.7466464755046
 21
205.8619444143753
 31
0.0
  0
LINE
  5
BE9
  8
0
 10
255.7466464755046
 20
205.7994444143753
 30
0.0
 11
253.7466464755046
 21
205.79944441437519
 31
0.0
  0
LINE
  5
BEA
  8
0
 10
255.7466464755046
 20
205.7369444143753
 30
0.0
 11
253.7466464755046
 21
205.7369444143753
 31
0.0
  0
LINE
  5
BEB
  8
0
 10
255.7466464755046
 20
205.6744444143753
 30
0.0
 11
253.7466464755046
 21
205.6744444143753
 31
0.0
  0
LINE
  5
BEC
  8
0
 10
255.7466464755046
 20
205.6119444143753
 30
0.0
 11
253.7466464755046
 21
205.6119444143753
 31
0.0
  0
LINE
  5
BED
  8
0
 10
255.7466464755046
 20
205.4244444143753
 30
0.0
 11
253.7466464755046
 21
205.4244444143753
 31
0.0
  0
LINE
  5
BEE
  8
0
 10
255.7466464755046
 20
205.3619444143753
 30
0.0
 11
253.7466464755046
 21
205.3619444143753
 31
0.0
  0
LINE
  5
BEF
  8
0
 10
255.7466464755046
 20
205.2994444143753
 30
0.0
 11
253.7466464755046
 21
205.2994444143753
 31
0.0
  0
LINE
  5
BF0
  8
0
 10
255.7466464755046
 20
205.23694441437519
 30
0.0
 11
253.7466464755046
 21
205.23694441437519
 31
0.0
  0
LINE
  5
BF1
  8
0
 10
255.7466464755046
 20
205.1744444143753
 30
0.0
 11
253.7466464755046
 21
205.17444441437519
 31
0.0
  0
LINE
  5
BF2
  8
0
 10
255.7466464755046
 20
205.1119444143753
 30
0.0
 11
253.7466464755046
 21
205.1119444143753
 31
0.0
  0
LINE
  5
BF3
  8
0
 10
255.7466464755046
 20
205.0494444143753
 30
0.0
 11
253.7466464755046
 21
205.0494444143753
 31
0.0
  0
LINE
  5
BF4
  8
0
 10
255.7466464755046
 20
204.9869444143753
 30
0.0
 11
253.7466464755046
 21
204.9869444143753
 31
0.0
  0
LINE
  5
BF5
  8
0
 10
255.7466464755046
 20
204.9244444143753
 30
0.0
 11
253.7466464755046
 21
204.9244444143753
 31
0.0
  0
LINE
  5
BF6
  8
0
 10
255.7466464755046
 20
204.8619444143753
 30
0.0
 11
253.7466464755046
 21
204.86194441437519
 31
0.0
  0
LINE
  5
BF7
  8
0
 10
255.7466464755046
 20
204.7994444143753
 30
0.0
 11
253.7466464755046
 21
204.7994444143753
 31
0.0
  0
LINE
  5
BF8
  8
0
 10
255.7466464755046
 20
204.7369444143753
 30
0.0
 11
253.7466464755046
 21
204.7369444143753
 31
0.0
  0
LINE
  5
BF9
  8
0
 10
255.7466464755046
 20
204.6744444143753
 30
0.0
 11
253.7466464755046
 21
204.6744444143753
 31
0.0
  0
LINE
  5
BFA
  8
0
 10
255.7466464755046
 20
204.6119444143753
 30
0.0
 11
253.7466464755046
 21
204.6119444143753
 31
0.0
  0
LINE
  5
BFB
  8
0
 10
255.7466464755046
 20
204.5494444143753
 30
0.0
 11
253.7466464755046
 21
204.54944441437519
 31
0.0
  0
LINE
  5
BFC
  8
0
 10
255.7466464755046
 20
204.4869444143753
 30
0.0
 11
253.7466464755046
 21
204.4869444143753
 31
0.0
  0
LINE
  5
BFD
  8
0
 10
255.7466464755046
 20
204.4244444143753
 30
0.0
 11
253.7466464755046
 21
204.4244444143753
 31
0.0
  0
LINE
  5
BFE
  8
0
 10
255.7466464755046
 20
204.3619444143753
 30
0.0
 11
253.7466464755046
 21
204.3619444143753
 31
0.0
  0
LINE
  5
BFF
  8
0
 10
255.7466464755046
 20
204.2994444143753
 30
0.0
 11
253.7466464755046
 21
204.2994444143753
 31
0.0
  0
LINE
  5
C00
  8
0
 10
255.7466464755046
 20
204.2369444143753
 30
0.0
 11
253.7466464755046
 21
204.23694441437519
 31
0.0
  0
LINE
  5
C01
  8
0
 10
255.7466464755046
 20
204.1744444143753
 30
0.0
 11
253.7466464755046
 21
204.1744444143753
 31
0.0
  0
LINE
  5
C02
  8
0
 10
255.7466464755046
 20
204.1119444143753
 30
0.0
 11
253.7466464755046
 21
204.1119444143753
 31
0.0
  0
LINE
  5
C03
  8
0
 10
255.7466464755046
 20
204.0494444143753
 30
0.0
 11
253.7466464755046
 21
204.0494444143753
 31
0.0
  0
LINE
  5
C04
  8
0
 10
255.7466464755046
 20
203.9869444143753
 30
0.0
 11
253.7466464755046
 21
203.9869444143753
 31
0.0
  0
LINE
  5
C05
  8
0
 10
255.7466464755046
 20
203.9244444143753
 30
0.0
 11
253.7466464755046
 21
203.92444441437519
 31
0.0
  0
LINE
  5
C06
  8
0
 10
255.7466464755046
 20
203.8619444143753
 30
0.0
 11
253.7466464755046
 21
203.8619444143753
 31
0.0
  0
LINE
  5
C07
  8
0
 10
255.7466464755046
 20
203.7994444143753
 30
0.0
 11
253.7466464755046
 21
203.7994444143753
 31
0.0
  0
LINE
  5
C08
  8
0
 10
255.7466464755046
 20
203.7369444143753
 30
0.0
 11
253.7466464755046
 21
203.7369444143753
 31
0.0
  0
LINE
  5
C09
  8
0
 10
255.7466464755046
 20
203.67444441437519
 30
0.0
 11
253.7466464755046
 21
203.67444441437519
 31
0.0
  0
LINE
  5
C0A
  8
0
 10
255.7466464755046
 20
203.6119444143753
 30
0.0
 11
253.7466464755046
 21
203.61194441437519
 31
0.0
  0
LINE
  5
C0B
  8
0
 10
255.7466464755046
 20
203.5494444143753
 30
0.0
 11
253.7466464755046
 21
203.5494444143753
 31
0.0
  0
LINE
  5
C0C
  8
0
 10
255.7466464755046
 20
203.4869444143753
 30
0.0
 11
253.7466464755046
 21
203.4869444143753
 31
0.0
  0
LINE
  5
C0D
  8
0
 10
255.7466464755046
 20
203.4244444143753
 30
0.0
 11
253.7466464755046
 21
203.4244444143753
 31
0.0
  0
LINE
  5
C0E
  8
0
 10
255.7466464755046
 20
203.3619444143753
 30
0.0
 11
253.7466464755046
 21
203.36194441437519
 31
0.0
  0
LINE
  5
C0F
  8
0
 10
255.7466464755046
 20
203.2994444143753
 30
0.0
 11
253.7466464755046
 21
203.2994444143753
 31
0.0
  0
LINE
  5
C10
  8
0
 10
255.7466464755046
 20
203.2369444143753
 30
0.0
 11
253.7466464755046
 21
203.2369444143753
 31
0.0
  0
LINE
  5
C11
  8
0
 10
255.7466464755046
 20
203.1744444143753
 30
0.0
 11
253.7466464755046
 21
203.1744444143753
 31
0.0
  0
LINE
  5
C12
  8
0
 10
255.7466464755046
 20
203.1119444143753
 30
0.0
 11
253.7466464755046
 21
203.1119444143753
 31
0.0
  0
LINE
  5
C13
  8
0
 10
255.7466464755046
 20
203.0494444143753
 30
0.0
 11
253.7466464755046
 21
203.04944441437519
 31
0.0
  0
LINE
  5
C14
  8
0
 10
255.7466464755046
 20
202.9869444143753
 30
0.0
 11
253.7466464755046
 21
202.9869444143753
 31
0.0
  0
LINE
  5
C15
  8
0
 10
255.7466464755046
 20
202.9244444143753
 30
0.0
 11
253.7466464755046
 21
202.9244444143753
 31
0.0
  0
LINE
  5
C16
  8
0
 10
255.7466464755046
 20
202.8619444143753
 30
0.0
 11
253.7466464755046
 21
202.8619444143753
 31
0.0
  0
LINE
  5
C17
  8
0
 10
255.7466464755046
 20
202.7994444143753
 30
0.0
 11
253.7466464755046
 21
202.7994444143753
 31
0.0
  0
LINE
  5
C18
  8
0
 10
255.7466464755046
 20
202.7369444143753
 30
0.0
 11
253.7466464755046
 21
202.73694441437519
 31
0.0
  0
LINE
  5
C19
  8
0
 10
255.7466464755046
 20
202.6744444143753
 30
0.0
 11
253.7466464755046
 21
202.6744444143753
 31
0.0
  0
LINE
  5
C1A
  8
0
 10
255.7466464755046
 20
202.6119444143753
 30
0.0
 11
253.7466464755046
 21
202.6119444143753
 31
0.0
  0
LINE
  5
C1B
  8
0
 10
255.7466464755046
 20
202.5494444143753
 30
0.0
 11
253.7466464755046
 21
202.5494444143753
 31
0.0
  0
LINE
  5
C1C
  8
0
 10
255.7466464755046
 20
202.4869444143753
 30
0.0
 11
253.7466464755046
 21
202.4869444143753
 31
0.0
  0
LINE
  5
C1D
  8
0
 10
255.7466464755046
 20
202.4244444143753
 30
0.0
 11
253.7466464755046
 21
202.42444441437519
 31
0.0
  0
LINE
  5
C1E
  8
0
 10
255.7466464755046
 20
202.3619444143753
 30
0.0
 11
253.7466464755046
 21
202.3619444143753
 31
0.0
  0
LINE
  5
C1F
  8
0
 10
255.7466464755046
 20
202.2994444143753
 30
0.0
 11
253.7466464755046
 21
202.2994444143753
 31
0.0
  0
LINE
  5
C20
  8
0
 10
255.7466464755046
 20
202.2369444143753
 30
0.0
 11
253.7466464755046
 21
202.2369444143753
 31
0.0
  0
LINE
  5
C21
  8
0
 10
255.7466464755046
 20
202.1744444143753
 30
0.0
 11
253.7466464755046
 21
202.1744444143753
 31
0.0
  0
LINE
  5
C22
  8
0
 10
255.7466464755046
 20
202.1119444143753
 30
0.0
 11
253.7466464755046
 21
202.11194441437519
 31
0.0
  0
LINE
  5
C23
  8
0
 10
255.7466464755046
 20
202.0494444143753
 30
0.0
 11
253.7466464755046
 21
202.0494444143753
 31
0.0
  0
LINE
  5
C24
  8
0
 10
255.7466464755046
 20
201.9869444143753
 30
0.0
 11
253.7466464755046
 21
201.9869444143753
 31
0.0
  0
LINE
  5
C25
  8
0
 10
255.7466464755046
 20
201.92444441437519
 30
0.0
 11
253.7466464755046
 21
201.9244444143753
 31
0.0
  0
LINE
  5
C26
  8
0
 10
255.7466464755046
 20
201.86194441437519
 30
0.0
 11
253.7466464755046
 21
201.8619444143753
 31
0.0
  0
LINE
  5
C27
  8
0
 10
255.7466464755046
 20
201.79944441437519
 30
0.0
 11
253.7466464755046
 21
201.79944441437519
 31
0.0
  0
LINE
  5
C28
  8
0
 10
255.7466464755046
 20
201.73694441437519
 30
0.0
 11
253.7466464755046
 21
201.7369444143753
 31
0.0
  0
LINE
  5
C29
  8
0
 10
255.7466464755046
 20
201.67444441437519
 30
0.0
 11
253.7466464755046
 21
201.6744444143753
 31
0.0
  0
LINE
  5
C2A
  8
0
 10
255.7466464755046
 20
201.61194441437519
 30
0.0
 11
253.7466464755046
 21
201.6119444143753
 31
0.0
  0
LINE
  5
C2B
  8
0
 10
255.7466464755046
 20
201.54944441437519
 30
0.0
 11
253.7466464755046
 21
201.5494444143753
 31
0.0
  0
LINE
  5
C2C
  8
0
 10
255.7466464755046
 20
201.48694441437519
 30
0.0
 11
253.7466464755046
 21
201.48694441437519
 31
0.0
  0
LINE
  5
C2D
  8
0
 10
255.7466464755046
 20
201.42444441437519
 30
0.0
 11
253.7466464755046
 21
201.4244444143753
 31
0.0
  0
LINE
  5
C2E
  8
0
 10
255.7466464755046
 20
201.36194441437519
 30
0.0
 11
253.7466464755046
 21
201.3619444143753
 31
0.0
  0
LINE
  5
C2F
  8
0
 10
255.7466464755046
 20
205.5494444143753
 30
0.0
 11
253.7466464755046
 21
205.5494444143753
 31
0.0
  0
LINE
  5
C30
  8
0
 10
255.7466464755046
 20
205.4869444143753
 30
0.0
 11
253.7466464755046
 21
205.48694441437519
 31
0.0
  0
LINE
  5
C31
  8
0
 10
255.7466464755046
 20
201.29944441437519
 30
0.0
 11
253.7466464755046
 21
201.2994444143753
 31
0.0
  0
LINE
  5
C32
  8
0
 10
255.7466464755046
 20
201.23694441437519
 30
0.0
 11
253.7466464755046
 21
201.23694441437519
 31
0.0
  0
LINE
  5
C33
  8
0
 10
255.7466464755046
 20
201.17444441437519
 30
0.0
 11
253.7466464755046
 21
201.17444441437519
 31
0.0
  0
LINE
  5
C34
  8
0
 10
255.7466464755046
 20
201.11194441437519
 30
0.0
 11
253.7466464755046
 21
201.1119444143753
 31
0.0
  0
LINE
  5
C35
  8
0
 10
255.7466464755046
 20
201.04944441437519
 30
0.0
 11
253.7466464755046
 21
201.0494444143753
 31
0.0
  0
LINE
  5
C36
  8
0
 10
255.7466464755046
 20
200.98694441437519
 30
0.0
 11
253.7466464755046
 21
200.9869444143753
 31
0.0
  0
LINE
  5
C37
  8
0
 10
255.7466464755046
 20
200.92444441437519
 30
0.0
 11
253.7466464755046
 21
200.92444441437519
 31
0.0
  0
LINE
  5
C38
  8
0
 10
255.7466464755046
 20
200.86194441437519
 30
0.0
 11
253.7466464755046
 21
200.8619444143753
 31
0.0
  0
LINE
  5
C39
  8
0
 10
255.7466464755046
 20
200.7994444143753
 30
0.0
 11
253.7466464755046
 21
200.7994444143753
 31
0.0
  0
LINE
  5
C3A
  8
0
 10
255.7466464755046
 20
200.7369444143753
 30
0.0
 11
253.7466464755046
 21
200.7369444143753
 31
0.0
  0
LINE
  5
C3B
  8
0
 10
255.7466464755046
 20
200.6744444143753
 30
0.0
 11
253.7466464755046
 21
200.6744444143753
 31
0.0
  0
LINE
  5
C3C
  8
0
 10
255.7466464755046
 20
200.6119444143753
 30
0.0
 11
253.7466464755046
 21
200.61194441437519
 31
0.0
  0
LINE
  5
C3D
  8
0
 10
255.7466464755046
 20
200.54944441437519
 30
0.0
 11
253.7466464755046
 21
200.5494444143753
 31
0.0
  0
LINE
  5
C3E
  8
0
 10
255.7466464755046
 20
200.4869444143753
 30
0.0
 11
253.7466464755046
 21
200.4869444143753
 31
0.0
  0
ARC
  5
C3F
  8
0
 10
258.85739491830782
 20
203.7122419844396
 30
0.0
 40
13.659786472529619
 50
338.59996093118122
 51
21.400039068818781
  0
LINE
  5
C40
  8
0
 10
261.15921812606138
 20
198.35322958199609
 30
0.0
 11
261.1592180095297
 21
200.44275762426929
 31
0.0
  0
ARC
  5
C41
  8
0
 10
276.17553066370402
 20
203.7122419844396
 30
0.0
 40
13.659786472529619
 50
158.59996093118119
 51
201.40003906881881
  0
LINE
  5
C42
  8
0
 10
260.38437080818818
 20
198.35322955922979
 30
0.0
 11
260.38437061289028
 21
202.55549243056521
 31
0.0
  0
LINE
  5
C43
  8
0
 10
260.38437075196481
 20
199.5629986949622
 30
0.0
 11
262.00698266253562
 21
201.40530671526929
 31
0.0
  0
LINE
  5
C44
  8
0
 10
261.62411501510559
 20
201.67670177795171
 30
0.0
 11
260.38437072185218
 21
200.21093781805999
 31
0.0
  0
LINE
  5
C45
  8
0
 10
263.45751123929472
 20
198.72537378586941
 30
0.0
 11
271.57541597410608
 21
198.72537408768969
 31
0.0
  0
LINE
  5
C46
  8
0
 10
261.15921812606138
 20
198.35322961080459
 30
0.0
 11
260.38437080818818
 21
198.35322958199609
 31
0.0
  0
LINE
  5
C47
  8
0
 10
263.45751042360018
 20
208.6963893176131
 30
0.0
 11
271.57541515841149
 21
208.69638961943349
 31
0.0
  0
LINE
  5
C48
  8
0
 10
262.28494025297192
 20
207.45289011293411
 30
0.0
 11
259.8634825690466
 21
210.12767833322289
 31
0.0
  0
LINE
  5
C49
  8
0
 10
259.8634825690466
 20
210.12767833322289
 30
0.0
 11
259.51875606661031
 21
209.76551311694101
 31
0.0
  0
LINE
  5
C4A
  8
0
 10
261.15921754923011
 20
208.69638482575479
 30
0.0
 11
261.15921742449149
 21
210.93307104971871
 31
0.0
  0
LINE
  5
C4B
  8
0
 10
260.3843703785019
 20
207.59887000056719
 30
0.0
 11
260.38437032224601
 21
208.8093391434916
 31
0.0
  0
LINE
  5
C4C
  8
0
 10
261.97699496944227
 20
210.1626376312403
 30
0.0
 11
262.31117214167273
 21
210.53455915915501
 31
0.0
  0
LINE
  5
C4D
  8
0
 10
260.3843702877175
 20
209.55229585049639
 30
0.0
 11
260.38437026443302
 21
210.05331223111989
 31
0.0
  0
LINE
  5
C4E
  8
0
 10
260.16070380718878
 20
209.79936209962511
 30
0.0
 11
261.19700697043089
 21
210.9759771710867
 31
0.0
  0
LINE
  5
C4F
  8
0
 10
260.38437051425291
 20
204.6778908051439
 30
0.0
 11
260.38437046705951
 21
205.69335999280219
 31
0.0
  0
LINE
  5
C50
  8
0
 10
262.19313403429459
 20
204.26353682231931
 30
0.0
 11
259.91351508427852
 21
207.0601931796796
 31
0.0
  0
LINE
  5
C51
  8
0
 10
259.55048706525042
 20
206.7163754041546
 30
0.0
 11
261.83010600887508
 21
203.91971905354291
 31
0.0
  0
LINE
  5
C52
  8
0
 10
262.4838728531488
 20
201.67844710502081
 30
0.0
 11
259.54033934118058
 21
203.76496568925549
 31
0.0
  0
LINE
  5
C53
  8
0
 10
260.80588087379368
 20
205.17624735907049
 30
0.0
 11
259.58527613849333
 21
203.73311231903639
 31
0.0
  0
LINE
  5
C54
  8
0
 10
259.93641935014051
 20
203.49032014646309
 30
0.0
 11
261.10168224796712
 21
204.81335566003671
 31
0.0
  0
LINE
  5
C55
  8
0
 10
259.54033934118058
 20
203.76496568925549
 30
0.0
 11
259.28228274254502
 21
203.33670549116661
 31
0.0
  0
LINE
  5
C56
  8
3
 10
262.51592496395068
 20
203.6419667941299
 30
0.0
 11
261.14480192906842
 21
203.6419667941299
 31
0.0
  0
LINE
  5
C57
  8
0
 10
261.15921788824983
 20
202.61742646120021
 30
0.0
 11
261.15921776972073
 21
204.74277058144349
 31
0.0
  0
LINE
  5
C58
  8
0
 10
262.55357042634341
 20
202.69638482575479
 30
0.0
 11
261.1592178838464
 21
202.69638482575479
 31
0.0
  0
LINE
  5
C59
  8
0
 10
262.55357042634262
 20
202.69638482575479
 30
0.0
 11
261.97100620960629
 21
202.69638482575479
 31
0.0
  0
LINE
  5
C5A
  8
0
 10
262.55357042634228
 20
202.69638482575479
 30
0.0
 11
261.17363316939179
 21
202.69638482575479
 31
0.0
  0
LINE
  5
C5B
  8
0
 10
261.83010600887508
 20
203.91971905354291
 30
0.0
 11
262.19313403429459
 21
204.26353682231931
 31
0.0
  0
LINE
  5
C5C
  8
0
 10
260.38437058448579
 20
203.16667561792769
 30
0.0
 11
260.38437054580749
 21
203.9989224037912
 31
0.0
  0
LINE
  5
C5D
  8
0
 10
259.91351508427852
 20
207.0601931796796
 30
0.0
 11
259.55048706525042
 21
206.7163754041546
 31
0.0
  0
LINE
  5
C5E
  8
0
 10
260.38437043038249
 20
206.48254374529949
 30
0.0
 11
260.3843704095965
 21
206.9298010299031
 31
0.0
  0
LINE
  5
C5F
  8
0
 10
261.1592177257084
 20
205.53195434331141
 30
0.0
 11
261.15921759868769
 21
207.80955988146559
 31
0.0
  0
LINE
  5
C60
  8
0
 10
259.51875606661031
 20
209.76551311694101
 30
0.0
 11
261.94021374380299
 21
207.09072490306059
 31
0.0
  0
LINE
  5
C61
  8
0
 10
260.89651631784392
 20
208.2043860446237
 30
0.0
 11
259.93398398972067
 21
207.06637298461499
 31
0.0
  0
LINE
  5
C62
  8
0
 10
261.94021374380299
 20
207.09072490306059
 30
0.0
 11
262.28494025297192
 21
207.45289011293411
 31
0.0
  0
LINE
  5
C63
  8
0
 10
260.19503154797781
 20
206.71482633321591
 30
0.0
 11
261.2059321530927
 21
207.86259942695671
 31
0.0
  0
LINE
  5
C64
  8
0
 10
259.28228274254502
 20
203.33670549116661
 30
0.0
 11
262.22581624655197
 21
201.25018691172929
 31
0.0
  0
LINE
  5
C65
  8
0
 10
259.4290576192941
 20
203.23266437632469
 30
0.0
 11
260.38446134717839
 21
200.58330329454489
 31
0.0
  0
LINE
  5
C66
  8
0
 10
262.22581624655197
 20
201.25018691172929
 30
0.0
 11
262.4838728531488
 21
201.67844710502081
 31
0.0
  0
LINE
  5
C67
  8
0
 10
276.74646263807551
 20
203.83994356119251
 30
0.0
 11
273.74646263807551
 21
202.69638482575479
 31
0.0
  0
LINE
  5
C68
  8
3
 10
276.22709246251537
 20
203.64196679413001
 30
0.0
 11
272.5170006180611
 21
203.6419667941299
 31
0.0
  0
LINE
  5
C69
  8
0
 10
273.74646263807563
 20
202.69638482575479
 30
0.0
 11
272.47935515566911
 21
202.69638482575479
 31
0.0
  0
LINE
  5
C6B
  8
0
 10
253.7466464755046
 20
302.69637948389578
 30
0.0
 11
253.7466464755046
 21
282.69637948389578
 31
0.0
210
-1.0
220
0.0
230
0.0
  0
LINE
  5
C6C
  8
0
 10
253.7466464755046
 20
302.6963794838959
 30
0.0
 11
253.7466464755046
 21
282.69637948389578
 31
0.0
  0
LINE
  5
C6D
  8
0
 10
234.44664647550459
 20
220.6963794838959
 30
0.0
 11
234.44664647550451
 21
323.69637948896201
 31
0.0
210
-1.0
220
0.0
230
0.0
  0
LINE
  5
C6E
  8
1
 10
258.1390810213644
 20
272.19637948389578
 30
0.0
 11
229.44664647550451
 21
272.19637948389578
 31
0.0
  0
LINE
  5
C6F
  8
3
 10
260.40960530082219
 20
213.75080285737971
 30
0.0
 11
255.7466464755046
 21
213.75080285737971
 31
0.0
  0
LINE
  5
C70
  8
0
 10
260.30869595969028
 20
214.69638482575479
 30
0.0
 11
255.7466464755046
 21
214.69638482575479
 31
0.0
1001
ACAD
1000
ASC_BOUNDS
1002
{
1070
    19
1002
}
  0
LINE
  5
C71
  8
0
 10
253.7466464755046
 20
241.6963794838959
 30
0.0
 11
253.7466464755046
 21
261.69637948389578
 31
0.0
210
-1.0
220
0.0
230
0.0
  0
LINE
  5
C72
  8
0
 10
253.7466464755046
 20
261.6963794838959
 30
0.0
 11
253.7466464755046
 21
241.6963794838957
 31
0.0
  0
LINE
  5
C73
  8
0
 10
253.13908102136449
 20
241.6963794838959
 30
0.0
 11
253.13908102136449
 21
220.70168162728851
 31
0.0
  0
LINE
  5
C74
  8
0
 10
243.7466464755046
 20
222.7662705829934
 30
0.0
 11
243.7466464755046
 21
239.62648838479831
 31
0.0
210
-1.0
220
0.0
230
0.0
  0
LINE
  5
C75
  8
0
 10
250.63908102136449
 20
241.6963794838959
 30
0.0
 11
250.63908102136449
 21
220.71819665337279
 31
0.0
  0
LINE
  5
C76
  8
0
 10
229.3089062011731
 20
217.06685529330019
 30
0.0
 11
229.07126229542061
 21
216.82921138754801
 31
0.0
  0
LINE
  5
C77
  8
0
 10
229.0466464755045
 20
220.60386763471021
 30
0.0
 11
229.0466464755045
 21
217.44637947882981
 31
0.0
1001
ACAD
1000
ASC_BOUNDS
1002
{
1070
    19
1002
}
  0
LINE
  5
C78
  8
0
 10
234.44664647550459
 20
220.69637947991691
 30
0.0
 11
229.0466464755045
 21
220.60386763471021
 31
0.0
1001
ACAD
1000
ASC_BOUNDS
1002
{
1070
    19
1002
}
  0
ARC
  5
C79
  8
CONTORNO
 10
-245.7511237765697
 20
222.76771255396591
 30
0.0
 40
2.0046783035198281
210
0.0
220
0.0
230
-1.0
 50
335.80744751676849
 51
348.10665047566619
  0
LINE
  5
C7A
  8
0
 10
253.7466464755046
 20
220.6963794838959
 30
0.0
 11
245.7291934045079
 21
220.7663467368651
 31
0.0
210
-1.0
220
0.0
230
0.0
  0
ARC
  5
C7B
  8
CONTORNO
 10
-245.7457354340776
 20
222.76073670617239
 30
0.0
 40
1.9944082752158849
210
0.0
220
0.0
230
-1.0
 50
276.92280236939899
 51
283.77005719800258
  0
ARC
  5
C7C
  8
CONTORNO
 10
-245.7481963803171
 20
222.7678254242594
 30
0.0
 40
2.0021878252046581
210
0.0
220
0.0
230
-1.0
 50
309.04556039366503
 51
316.59519209500678
  0
ARC
  5
C7D
  8
CONTORNO
 10
-245.7463432982953
 20
222.7656698833803
 30
0.0
 40
1.999342481470533
210
0.0
220
0.0
230
-1.0
 50
302.61256550464032
 51
309.04556039367088
  0
ARC
  5
C7E
  8
CONTORNO
 10
-245.7451787595285
 20
222.76398091867651
 30
0.0
 40
1.99729356983226
210
0.0
220
0.0
230
-1.0
 50
296.1747402308647
 51
303.55825973754008
  0
ARC
  5
C7F
  8
CONTORNO
 10
-245.747135239767
 20
222.7678215342093
 30
0.0
 40
2.001603806785671
210
0.0
220
0.0
230
-1.0
 50
289.75352504484789
 51
296.99513068160542
  0
ARC
  5
C80
  8
CONTORNO
 10
-245.74812432818669
 20
222.77048452916969
 30
0.0
 40
2.0044445528252881
210
0.0
220
0.0
230
-1.0
 50
283.34099589871653
 51
290.37598155306762
  0
ARC
  5
C81
  8
CONTORNO
 10
-245.7460098136894
 20
222.76523373487001
 30
0.0
 40
1.9987969657992151
210
0.0
220
0.0
230
-1.0
 50
303.5582597375415
 51
310.15378746894987
  0
ARC
  5
C82
  8
CONTORNO
 10
-245.74730184313421
 20
222.7669336858763
 30
0.0
 40
2.0009249386402028
210
0.0
220
0.0
230
-1.0
 50
315.45522326424731
 51
321.8745573510347
  0
ARC
  5
C83
  8
CONTORNO
 10
-245.7466627068336
 20
222.7681305090874
 30
0.0
 40
2.0018599969170641
210
0.0
220
0.0
230
-1.0
 50
270.50000000000131
 51
277.14826659737048
  0
ARC
  5
C84
  8
CONTORNO
 10
-245.74848821716051
 20
222.7668030558624
 30
0.0
 40
2.0018924886123188
210
0.0
220
0.0
230
-1.0
 50
334.6755041197481
 51
341.02313776965042
  0
ARC
  5
C85
  8
CONTORNO
 10
-245.74144664839781
 20
222.76343372312371
 30
0.0
 40
1.9940942460515709
210
0.0
220
0.0
230
-1.0
 50
329.41153510748171
 51
335.80744751677292
  0
ARC
  5
C86
  8
CONTORNO
 10
-245.7435437461036
 20
222.76446322830699
 30
0.0
 40
1.9964223344077949
210
0.0
220
0.0
230
-1.0
 50
328.26444451663258
 51
334.67550411982029
  0
ARC
  5
C87
  8
CONTORNO
 10
-245.74772668279729
 20
222.76714601878311
 30
0.0
 40
2.0013894479760168
210
0.0
220
0.0
230
-1.0
 50
323.10656676054907
 51
329.41153510748171
  0
ARC
  5
C88
  8
CONTORNO
 10
-245.74642303954579
 20
222.76624398545979
 30
0.0
 40
1.999807807308849
210
0.0
220
0.0
230
-1.0
 50
316.59519209500968
 51
328.26444451663332
  0
LINE
  5
C89
  8
0
 10
254.2466464755046
 20
220.19638482575479
 30
0.0
 11
255.7466464755046
 21
220.19638482575479
 31
0.0
1001
ACAD
1000
ASC_BOUNDS
1002
{
1070
    19
1002
}
  0
LINE
  5
C8A
  8
0
 10
255.7466464755046
 20
218.9244444143753
 30
0.0
 11
254.2466464755046
 21
218.9244444143753
 31
0.0
  0
LINE
  5
C8B
  8
0
 10
255.7466464755046
 20
218.9869444143753
 30
0.0
 11
254.2466464755046
 21
218.9869444143753
 31
0.0
  0
LINE
  5
C8C
  8
0
 10
255.7466464755046
 20
219.0494444143753
 30
0.0
 11
254.2466464755046
 21
219.0494444143753
 31
0.0
  0
LINE
  5
C8D
  8
0
 10
255.7466464755046
 20
219.1119444143753
 30
0.0
 11
254.2466464755046
 21
219.1119444143753
 31
0.0
  0
LINE
  5
C8E
  8
0
 10
255.7466464755046
 20
219.1744444143753
 30
0.0
 11
254.2466464755046
 21
219.1744444143753
 31
0.0
  0
LINE
  5
C8F
  8
0
 10
255.7466464755046
 20
219.2369444143753
 30
0.0
 11
254.2466464755046
 21
219.2369444143753
 31
0.0
  0
LINE
  5
C90
  8
0
 10
255.7466464755046
 20
219.2994444143753
 30
0.0
 11
254.2466464755046
 21
219.2994444143753
 31
0.0
  0
LINE
  5
C91
  8
0
 10
255.7466464755046
 20
219.3619444143753
 30
0.0
 11
254.2466464755046
 21
219.3619444143753
 31
0.0
  0
LINE
  5
C92
  8
0
 10
255.7466464755046
 20
219.4244444143753
 30
0.0
 11
254.2466464755046
 21
219.4244444143753
 31
0.0
  0
LINE
  5
C93
  8
0
 10
255.7466464755046
 20
219.4869444143753
 30
0.0
 11
254.2466464755046
 21
219.4869444143753
 31
0.0
  0
LINE
  5
C94
  8
0
 10
255.7466464755046
 20
219.5494444143753
 30
0.0
 11
254.2466464755046
 21
219.5494444143753
 31
0.0
  0
LINE
  5
C95
  8
0
 10
255.7466464755046
 20
219.6119444143753
 30
0.0
 11
254.2466464755046
 21
219.6119444143753
 31
0.0
  0
LINE
  5
C96
  8
0
 10
255.7466464755046
 20
219.6744444143753
 30
0.0
 11
254.2466464755046
 21
219.6744444143753
 31
0.0
  0
LINE
  5
C97
  8
0
 10
255.7466464755046
 20
219.7369444143753
 30
0.0
 11
254.2466464755046
 21
219.7369444143753
 31
0.0
  0
LINE
  5
C98
  8
0
 10
255.7466464755046
 20
219.7994444143753
 30
0.0
 11
254.2466464755046
 21
219.7994444143753
 31
0.0
  0
LINE
  5
C99
  8
0
 10
255.7466464755046
 20
219.8619444143753
 30
0.0
 11
254.2466464755046
 21
219.8619444143753
 31
0.0
  0
LINE
  5
C9A
  8
0
 10
255.7466464755046
 20
219.9244444143753
 30
0.0
 11
254.2466464755046
 21
219.9244444143753
 31
0.0
  0
LINE
  5
C9B
  8
0
 10
255.7466464755046
 20
219.9869444143753
 30
0.0
 11
254.2466464755046
 21
219.9869444143753
 31
0.0
  0
LINE
  5
C9C
  8
0
 10
255.7466464755046
 20
220.0494444143753
 30
0.0
 11
254.2466464755046
 21
220.0494444143753
 31
0.0
  0
LINE
  5
C9D
  8
0
 10
255.7466464755046
 20
220.1119444143753
 30
0.0
 11
254.2466464755046
 21
220.1119444143753
 31
0.0
  0
LINE
  5
C9E
  8
0
 10
255.7466464755046
 20
220.1744444143753
 30
0.0
 11
254.2466464755046
 21
220.1744444143753
 31
0.0
  0
LINE
  5
C9F
  8
0
 10
255.7466464755046
 20
217.6119444143753
 30
0.0
 11
254.2466464755046
 21
217.61194441437519
 31
0.0
  0
LINE
  5
CA0
  8
0
 10
255.7466464755046
 20
217.67444441437539
 30
0.0
 11
254.2466464755046
 21
217.6744444143753
 31
0.0
  0
LINE
  5
CA1
  8
0
 10
255.7466464755046
 20
217.7369444143753
 30
0.0
 11
254.2466464755046
 21
217.7369444143753
 31
0.0
  0
LINE
  5
CA2
  8
0
 10
255.7466464755046
 20
217.7994444143753
 30
0.0
 11
254.2466464755046
 21
217.7994444143753
 31
0.0
  0
LINE
  5
CA3
  8
0
 10
255.7466464755046
 20
217.8619444143753
 30
0.0
 11
254.2466464755046
 21
217.8619444143753
 31
0.0
  0
LINE
  5
CA4
  8
0
 10
255.7466464755046
 20
217.9244444143753
 30
0.0
 11
254.2466464755046
 21
217.92444441437519
 31
0.0
  0
LINE
  5
CA5
  8
0
 10
255.7466464755046
 20
217.9869444143753
 30
0.0
 11
254.2466464755046
 21
217.9869444143753
 31
0.0
  0
LINE
  5
CA6
  8
0
 10
255.7466464755046
 20
218.0494444143753
 30
0.0
 11
254.2466464755046
 21
218.0494444143753
 31
0.0
  0
LINE
  5
CA7
  8
0
 10
255.7466464755046
 20
218.1119444143753
 30
0.0
 11
254.2466464755046
 21
218.1119444143753
 31
0.0
  0
LINE
  5
CA8
  8
0
 10
255.7466464755046
 20
218.1744444143753
 30
0.0
 11
254.2466464755046
 21
218.1744444143753
 31
0.0
  0
LINE
  5
CA9
  8
0
 10
255.7466464755046
 20
218.2369444143753
 30
0.0
 11
254.2466464755046
 21
218.2369444143753
 31
0.0
  0
LINE
  5
CAA
  8
0
 10
255.7466464755046
 20
218.2994444143753
 30
0.0
 11
254.2466464755046
 21
218.2994444143753
 31
0.0
  0
LINE
  5
CAB
  8
0
 10
255.7466464755046
 20
218.3619444143753
 30
0.0
 11
254.2466464755046
 21
218.3619444143753
 31
0.0
  0
LINE
  5
CAC
  8
0
 10
255.7466464755046
 20
218.4244444143753
 30
0.0
 11
254.2466464755046
 21
218.4244444143753
 31
0.0
  0
LINE
  5
CAD
  8
0
 10
255.7466464755046
 20
218.4869444143753
 30
0.0
 11
254.2466464755046
 21
218.4869444143753
 31
0.0
  0
LINE
  5
CAE
  8
0
 10
255.7466464755046
 20
218.5494444143753
 30
0.0
 11
254.2466464755046
 21
218.5494444143753
 31
0.0
  0
LINE
  5
CAF
  8
0
 10
255.7466464755046
 20
218.6119444143753
 30
0.0
 11
254.2466464755046
 21
218.6119444143753
 31
0.0
  0
LINE
  5
CB0
  8
0
 10
255.7466464755046
 20
218.6744444143753
 30
0.0
 11
254.2466464755046
 21
218.6744444143753
 31
0.0
  0
LINE
  5
CB1
  8
0
 10
255.7466464755046
 20
218.7369444143753
 30
0.0
 11
254.2466464755046
 21
218.7369444143753
 31
0.0
  0
LINE
  5
CB2
  8
0
 10
255.7466464755046
 20
218.7994444143753
 30
0.0
 11
254.2466464755046
 21
218.7994444143753
 31
0.0
  0
LINE
  5
CB3
  8
0
 10
255.7466464755046
 20
218.8619444143753
 30
0.0
 11
254.2466464755046
 21
218.8619444143753
 31
0.0
  0
LINE
  5
CB4
  8
0
 10
255.7466464755046
 20
217.2994444143753
 30
0.0
 11
253.7466464755046
 21
217.2994444143753
 31
0.0
  0
LINE
  5
CB5
  8
0
 10
255.7466464755046
 20
217.3619444143753
 30
0.0
 11
253.7466464755046
 21
217.36194441437519
 31
0.0
  0
LINE
  5
CB6
  8
0
 10
255.7466464755046
 20
217.4244444143753
 30
0.0
 11
253.7466464755046
 21
217.4244444143753
 31
0.0
  0
LINE
  5
CB7
  8
0
 10
255.7466464755046
 20
217.4869444143753
 30
0.0
 11
253.7466464755046
 21
217.4869444143753
 31
0.0
  0
LINE
  5
CB8
  8
0
 10
255.7466464755046
 20
217.5494444143753
 30
0.0
 11
253.7466464755046
 21
217.5494444143753
 31
0.0
  0
LINE
  5
CB9
  8
0
 10
255.7466464755046
 20
213.04944441437519
 30
0.0
 11
253.7466464755046
 21
213.0494444143753
 31
0.0
  0
LINE
  5
CBA
  8
0
 10
255.7466464755046
 20
213.1119444143753
 30
0.0
 11
253.7466464755046
 21
213.11194441437519
 31
0.0
  0
LINE
  5
CBB
  8
0
 10
255.7466464755046
 20
213.1744444143753
 30
0.0
 11
253.7466464755046
 21
213.1744444143753
 31
0.0
  0
LINE
  5
CBC
  8
0
 10
255.7466464755046
 20
213.2369444143753
 30
0.0
 11
253.7466464755046
 21
213.2369444143753
 31
0.0
  0
LINE
  5
CBD
  8
0
 10
255.7466464755046
 20
213.2994444143753
 30
0.0
 11
253.7466464755046
 21
213.2994444143753
 31
0.0
  0
LINE
  5
CBE
  8
0
 10
255.7466464755046
 20
213.3619444143753
 30
0.0
 11
253.7466464755046
 21
213.36194441437519
 31
0.0
  0
LINE
  5
CBF
  8
0
 10
255.7466464755046
 20
213.4244444143753
 30
0.0
 11
253.7466464755046
 21
213.42444441437519
 31
0.0
  0
LINE
  5
CC0
  8
0
 10
255.7466464755046
 20
213.4869444143753
 30
0.0
 11
253.7466464755046
 21
213.4869444143753
 31
0.0
  0
LINE
  5
CC1
  8
0
 10
255.7466464755046
 20
213.5494444143753
 30
0.0
 11
253.7466464755046
 21
213.5494444143753
 31
0.0
  0
LINE
  5
CC2
  8
0
 10
255.7466464755046
 20
213.6119444143753
 30
0.0
 11
253.7466464755046
 21
213.6119444143753
 31
0.0
  0
LINE
  5
CC3
  8
0
 10
255.7466464755046
 20
213.6744444143753
 30
0.0
 11
253.7466464755046
 21
213.67444441437519
 31
0.0
  0
LINE
  5
CC4
  8
0
 10
255.7466464755046
 20
213.7369444143753
 30
0.0
 11
253.7466464755046
 21
213.7369444143753
 31
0.0
  0
LINE
  5
CC5
  8
0
 10
255.7466464755046
 20
213.7994444143753
 30
0.0
 11
253.7466464755046
 21
213.7994444143753
 31
0.0
  0
LINE
  5
CC6
  8
0
 10
255.7466464755046
 20
213.8619444143753
 30
0.0
 11
253.7466464755046
 21
213.8619444143753
 31
0.0
  0
LINE
  5
CC7
  8
0
 10
255.7466464755046
 20
213.9244444143753
 30
0.0
 11
253.7466464755046
 21
213.9244444143753
 31
0.0
  0
LINE
  5
CC8
  8
0
 10
255.7466464755046
 20
213.9869444143753
 30
0.0
 11
253.7466464755046
 21
213.98694441437519
 31
0.0
  0
LINE
  5
CC9
  8
0
 10
255.7466464755046
 20
214.0494444143753
 30
0.0
 11
253.7466464755046
 21
214.0494444143753
 31
0.0
  0
LINE
  5
CCA
  8
0
 10
255.7466464755046
 20
214.1119444143753
 30
0.0
 11
253.7466464755046
 21
214.1119444143753
 31
0.0
  0
LINE
  5
CCB
  8
0
 10
255.7466464755046
 20
214.1744444143753
 30
0.0
 11
253.7466464755046
 21
214.1744444143753
 31
0.0
  0
LINE
  5
CCC
  8
0
 10
255.7466464755046
 20
214.2369444143753
 30
0.0
 11
253.7466464755046
 21
214.2369444143753
 31
0.0
  0
LINE
  5
CCD
  8
0
 10
255.7466464755046
 20
214.2994444143753
 30
0.0
 11
253.7466464755046
 21
214.29944441437519
 31
0.0
  0
LINE
  5
CCE
  8
0
 10
255.7466464755046
 20
214.3619444143753
 30
0.0
 11
253.7466464755046
 21
214.3619444143753
 31
0.0
  0
LINE
  5
CCF
  8
0
 10
255.7466464755046
 20
214.4244444143753
 30
0.0
 11
253.7466464755046
 21
214.4244444143753
 31
0.0
  0
LINE
  5
CD0
  8
0
 10
255.7466464755046
 20
214.4869444143753
 30
0.0
 11
253.7466464755046
 21
214.4869444143753
 31
0.0
  0
LINE
  5
CD1
  8
0
 10
255.7466464755046
 20
214.5494444143753
 30
0.0
 11
253.7466464755046
 21
214.54944441437539
 31
0.0
  0
LINE
  5
CD2
  8
0
 10
255.7466464755046
 20
214.6119444143753
 30
0.0
 11
253.7466464755046
 21
214.61194441437519
 31
0.0
  0
LINE
  5
CD3
  8
0
 10
255.7466464755046
 20
214.6744444143753
 30
0.0
 11
253.7466464755046
 21
214.6744444143753
 31
0.0
  0
LINE
  5
CD4
  8
0
 10
255.7466464755046
 20
214.7369444143753
 30
0.0
 11
253.7466464755046
 21
214.7369444143753
 31
0.0
  0
LINE
  5
CD5
  8
0
 10
255.7466464755046
 20
214.7994444143753
 30
0.0
 11
253.7466464755046
 21
214.7994444143753
 31
0.0
  0
LINE
  5
CD6
  8
0
 10
255.7466464755046
 20
214.8619444143753
 30
0.0
 11
253.7466464755046
 21
214.8619444143753
 31
0.0
  0
LINE
  5
CD7
  8
0
 10
255.7466464755046
 20
214.9244444143753
 30
0.0
 11
253.7466464755046
 21
214.92444441437519
 31
0.0
  0
LINE
  5
CD8
  8
0
 10
255.7466464755046
 20
214.9869444143753
 30
0.0
 11
253.7466464755046
 21
214.9869444143753
 31
0.0
  0
LINE
  5
CD9
  8
0
 10
255.7466464755046
 20
215.0494444143753
 30
0.0
 11
253.7466464755046
 21
215.0494444143753
 31
0.0
  0
LINE
  5
CDA
  8
0
 10
255.7466464755046
 20
215.1119444143753
 30
0.0
 11
253.7466464755046
 21
215.1119444143753
 31
0.0
  0
LINE
  5
CDB
  8
0
 10
255.7466464755046
 20
215.1744444143753
 30
0.0
 11
253.7466464755046
 21
215.1744444143753
 31
0.0
  0
LINE
  5
CDC
  8
0
 10
255.7466464755046
 20
215.2369444143753
 30
0.0
 11
253.7466464755046
 21
215.23694441437519
 31
0.0
  0
LINE
  5
CDD
  8
0
 10
255.7466464755046
 20
215.2994444143753
 30
0.0
 11
253.7466464755046
 21
215.2994444143753
 31
0.0
  0
LINE
  5
CDE
  8
0
 10
255.7466464755046
 20
215.3619444143753
 30
0.0
 11
253.7466464755046
 21
215.3619444143753
 31
0.0
  0
LINE
  5
CDF
  8
0
 10
255.7466464755046
 20
215.4244444143753
 30
0.0
 11
253.7466464755046
 21
215.4244444143753
 31
0.0
  0
LINE
  5
CE0
  8
0
 10
255.7466464755046
 20
215.4869444143753
 30
0.0
 11
253.7466464755046
 21
215.4869444143753
 31
0.0
  0
LINE
  5
CE1
  8
0
 10
255.7466464755046
 20
215.5494444143753
 30
0.0
 11
253.7466464755046
 21
215.54944441437519
 31
0.0
  0
LINE
  5
CE2
  8
0
 10
255.7466464755046
 20
215.6119444143753
 30
0.0
 11
253.7466464755046
 21
215.6119444143753
 31
0.0
  0
LINE
  5
CE3
  8
0
 10
255.7466464755046
 20
215.6744444143753
 30
0.0
 11
253.7466464755046
 21
215.6744444143753
 31
0.0
  0
LINE
  5
CE4
  8
0
 10
255.7466464755046
 20
215.7369444143753
 30
0.0
 11
253.7466464755046
 21
215.7369444143753
 31
0.0
  0
LINE
  5
CE5
  8
0
 10
255.7466464755046
 20
215.7994444143753
 30
0.0
 11
253.7466464755046
 21
215.7994444143753
 31
0.0
  0
LINE
  5
CE6
  8
0
 10
255.7466464755046
 20
215.8619444143753
 30
0.0
 11
253.7466464755046
 21
215.86194441437519
 31
0.0
  0
LINE
  5
CE7
  8
0
 10
255.7466464755046
 20
215.9244444143753
 30
0.0
 11
253.7466464755046
 21
215.9244444143753
 31
0.0
  0
LINE
  5
CE8
  8
0
 10
255.7466464755046
 20
215.9869444143753
 30
0.0
 11
253.7466464755046
 21
215.9869444143753
 31
0.0
  0
LINE
  5
CE9
  8
0
 10
255.7466464755046
 20
216.0494444143753
 30
0.0
 11
253.7466464755046
 21
216.0494444143753
 31
0.0
  0
LINE
  5
CEA
  8
0
 10
255.7466464755046
 20
216.1119444143753
 30
0.0
 11
253.7466464755046
 21
216.11194441437519
 31
0.0
  0
LINE
  5
CEB
  8
0
 10
255.7466464755046
 20
216.1744444143753
 30
0.0
 11
253.7466464755046
 21
216.1744444143753
 31
0.0
  0
LINE
  5
CEC
  8
0
 10
255.7466464755046
 20
216.2369444143753
 30
0.0
 11
253.7466464755046
 21
216.2369444143753
 31
0.0
  0
LINE
  5
CED
  8
0
 10
255.7466464755046
 20
216.2994444143753
 30
0.0
 11
253.7466464755046
 21
216.2994444143753
 31
0.0
  0
LINE
  5
CEE
  8
0
 10
255.7466464755046
 20
216.3619444143753
 30
0.0
 11
253.7466464755046
 21
216.3619444143753
 31
0.0
  0
LINE
  5
CEF
  8
0
 10
255.7466464755046
 20
216.4244444143753
 30
0.0
 11
253.7466464755046
 21
216.42444441437519
 31
0.0
  0
LINE
  5
CF0
  8
0
 10
255.7466464755046
 20
216.4869444143753
 30
0.0
 11
253.7466464755046
 21
216.4869444143753
 31
0.0
  0
LINE
  5
CF1
  8
0
 10
255.7466464755046
 20
216.5494444143753
 30
0.0
 11
253.7466464755046
 21
216.5494444143753
 31
0.0
  0
LINE
  5
CF2
  8
0
 10
255.7466464755046
 20
216.6119444143753
 30
0.0
 11
253.7466464755046
 21
216.6119444143753
 31
0.0
  0
LINE
  5
CF3
  8
0
 10
255.7466464755046
 20
216.6744444143753
 30
0.0
 11
253.7466464755046
 21
216.6744444143753
 31
0.0
  0
LINE
  5
CF4
  8
0
 10
255.7466464755046
 20
216.7369444143753
 30
0.0
 11
253.7466464755046
 21
216.73694441437519
 31
0.0
  0
LINE
  5
CF5
  8
0
 10
255.7466464755046
 20
216.7994444143753
 30
0.0
 11
253.7466464755046
 21
216.7994444143753
 31
0.0
  0
LINE
  5
CF6
  8
0
 10
255.7466464755046
 20
216.8619444143753
 30
0.0
 11
253.7466464755046
 21
216.8619444143753
 31
0.0
  0
LINE
  5
CF7
  8
0
 10
255.7466464755046
 20
216.9244444143753
 30
0.0
 11
253.7466464755046
 21
216.9244444143753
 31
0.0
  0
LINE
  5
CF8
  8
0
 10
255.7466464755046
 20
216.9869444143753
 30
0.0
 11
253.7466464755046
 21
216.9869444143753
 31
0.0
  0
LINE
  5
CF9
  8
0
 10
255.7466464755046
 20
217.0494444143753
 30
0.0
 11
253.7466464755046
 21
217.04944441437519
 31
0.0
  0
LINE
  5
CFA
  8
0
 10
255.7466464755046
 20
217.1119444143753
 30
0.0
 11
253.7466464755046
 21
217.1119444143753
 31
0.0
  0
LINE
  5
CFB
  8
0
 10
255.7466464755046
 20
217.1744444143753
 30
0.0
 11
253.7466464755046
 21
217.1744444143753
 31
0.0
  0
LINE
  5
CFC
  8
0
 10
255.7466464755046
 20
217.2369444143753
 30
0.0
 11
253.7466464755046
 21
217.2369444143753
 31
0.0
  0
LINE
  5
CFD
  8
0
 10
254.2466464755046
 20
217.5963848257548
 30
0.0
 11
253.7466464755046
 21
217.5963848257548
 31
0.0
1001
ACAD
1000
ASC_BOUNDS
1002
{
1070
    19
1002
}
  0
LINE
  5
CFE
  8
0
 10
254.2466464755046
 20
217.5963848257548
 30
0.0
 11
254.2466464755046
 21
220.19638482575479
 31
0.0
1001
ACAD
1000
ASC_BOUNDS
1002
{
1070
    19
1002
}
  0
LINE
  5
CFF
  8
0
 10
255.7466464755046
 20
211.48694441437519
 30
0.0
 11
253.7466464755046
 21
211.4869444143753
 31
0.0
  0
LINE
  5
D00
  8
0
 10
255.7466464755046
 20
211.5494444143753
 30
0.0
 11
253.7466464755046
 21
211.54944441437519
 31
0.0
  0
LINE
  5
D01
  8
0
 10
255.7466464755046
 20
211.6119444143753
 30
0.0
 11
253.7466464755046
 21
211.6119444143753
 31
0.0
  0
LINE
  5
D02
  8
0
 10
255.7466464755046
 20
211.6744444143753
 30
0.0
 11
253.7466464755046
 21
211.6744444143753
 31
0.0
  0
LINE
  5
D03
  8
0
 10
255.7466464755046
 20
211.7369444143753
 30
0.0
 11
253.7466464755046
 21
211.7369444143753
 31
0.0
  0
LINE
  5
D04
  8
0
 10
255.7466464755046
 20
211.7994444143753
 30
0.0
 11
253.7466464755046
 21
211.7994444143753
 31
0.0
  0
LINE
  5
D05
  8
0
 10
255.7466464755046
 20
211.8619444143753
 30
0.0
 11
253.7466464755046
 21
211.86194441437519
 31
0.0
  0
LINE
  5
D06
  8
0
 10
255.7466464755046
 20
211.9244444143753
 30
0.0
 11
253.7466464755046
 21
211.9244444143753
 31
0.0
  0
LINE
  5
D07
  8
0
 10
255.7466464755046
 20
211.9869444143753
 30
0.0
 11
253.7466464755046
 21
211.9869444143753
 31
0.0
  0
LINE
  5
D08
  8
0
 10
255.7466464755046
 20
212.0494444143753
 30
0.0
 11
253.7466464755046
 21
212.0494444143753
 31
0.0
  0
LINE
  5
D09
  8
0
 10
255.7466464755046
 20
212.1119444143753
 30
0.0
 11
253.7466464755046
 21
212.1119444143753
 31
0.0
  0
LINE
  5
D0A
  8
0
 10
255.7466464755046
 20
212.1744444143753
 30
0.0
 11
253.7466464755046
 21
212.17444441437519
 31
0.0
  0
LINE
  5
D0B
  8
0
 10
255.7466464755046
 20
212.2369444143753
 30
0.0
 11
253.7466464755046
 21
212.2369444143753
 31
0.0
  0
LINE
  5
D0C
  8
0
 10
255.7466464755046
 20
212.2994444143753
 30
0.0
 11
253.7466464755046
 21
212.2994444143753
 31
0.0
  0
LINE
  5
D0D
  8
0
 10
255.7466464755046
 20
212.3619444143753
 30
0.0
 11
253.7466464755046
 21
212.3619444143753
 31
0.0
  0
LINE
  5
D0E
  8
0
 10
255.7466464755046
 20
212.4244444143753
 30
0.0
 11
253.7466464755046
 21
212.4244444143753
 31
0.0
  0
LINE
  5
D0F
  8
0
 10
255.7466464755046
 20
212.4869444143753
 30
0.0
 11
253.7466464755046
 21
212.48694441437519
 31
0.0
  0
LINE
  5
D10
  8
0
 10
255.7466464755046
 20
212.5494444143753
 30
0.0
 11
253.7466464755046
 21
212.5494444143753
 31
0.0
  0
LINE
  5
D11
  8
0
 10
255.7466464755046
 20
212.6119444143753
 30
0.0
 11
253.7466464755046
 21
212.6119444143753
 31
0.0
  0
LINE
  5
D12
  8
0
 10
255.7466464755046
 20
212.6744444143753
 30
0.0
 11
253.7466464755046
 21
212.6744444143753
 31
0.0
  0
LINE
  5
D13
  8
0
 10
255.7466464755046
 20
212.7369444143753
 30
0.0
 11
253.7466464755046
 21
212.7369444143753
 31
0.0
  0
LINE
  5
D14
  8
0
 10
255.7466464755046
 20
212.7994444143753
 30
0.0
 11
253.7466464755046
 21
212.79944441437519
 31
0.0
  0
LINE
  5
D15
  8
0
 10
255.7466464755046
 20
212.8619444143753
 30
0.0
 11
253.7466464755046
 21
212.8619444143753
 31
0.0
  0
LINE
  5
D16
  8
0
 10
255.7466464755046
 20
212.9244444143753
 30
0.0
 11
253.7466464755046
 21
212.9244444143753
 31
0.0
  0
LINE
  5
D17
  8
0
 10
255.7466464755046
 20
212.9869444143753
 30
0.0
 11
253.7466464755046
 21
212.9869444143753
 31
0.0
  0
LINE
  5
D18
  8
0
 10
255.7466464755046
 20
211.2994444143753
 30
0.0
 11
253.7466464755046
 21
211.2994444143753
 31
0.0
  0
LINE
  5
D19
  8
0
 10
255.7466464755046
 20
211.3619444143753
 30
0.0
 11
253.7466464755046
 21
211.3619444143753
 31
0.0
  0
LINE
  5
D1A
  8
0
 10
255.7466464755046
 20
211.4244444143753
 30
0.0
 11
253.7466464755046
 21
211.4244444143753
 31
0.0
  0
ARC
  5
D1B
  8
CONTORNO
 10
-245.74899097009509
 20
222.7662705829934
 30
0.0
 40
2.0023444945905071
210
0.0
220
0.0
230
-1.0
 50
353.68425964108621
 51
0.0
  0
ARC
  5
D1C
  8
CONTORNO
 10
-245.73965187811291
 20
222.7652964364585
 30
0.0
 40
1.992954734182248
210
0.0
220
0.0
230
-1.0
 50
347.36831242913951
 51
354.04509869991102
  0
LINE
  5
D1D
  8
0
 10
245.7291934045079
 20
241.6264122309266
 30
0.0
 11
253.7466464755046
 21
241.6963794838957
 31
0.0
210
-1.0
220
0.0
230
0.0
  0
ARC
  5
D1E
  8
CONTORNO
 10
-245.7456274313349
 20
239.6328807685039
 30
0.0
 40
1.9935449222299759
210
0.0
220
0.0
230
-1.0
 50
76.229942802750188
 51
83.077197630930684
  0
ARC
  5
D1F
  8
CONTORNO
 10
-245.74819638031749
 20
239.6249335435318
 30
0.0
 40
2.0021878252053451
210
0.0
220
0.0
230
-1.0
 50
43.40480790611624
 51
49.84621253229998
  0
ARC
  5
D20
  8
CONTORNO
 10
-245.747631699062
 20
239.6255006262864
 30
0.0
 40
2.0013877628083261
210
0.0
220
0.0
230
-1.0
 50
44.544776736954759
 51
50.954439607444577
  0
ARC
  5
D21
  8
CONTORNO
 10
-245.74600981368849
 20
239.62752523292301
 30
0.0
 40
1.9987969657976521
210
0.0
220
0.0
230
-1.0
 50
49.846212532249631
 51
56.441740263703252
  0
ARC
  5
D22
  8
CONTORNO
 10
-245.74708996974891
 20
239.62495179926469
 30
0.0
 40
2.0015746234671798
210
0.0
220
0.0
230
-1.0
 50
63.004869319527408
 51
70.246474955927368
  0
ARC
  5
D23
  8
CONTORNO
 10
-245.7450326163441
 20
239.6291375507449
 30
0.0
 40
1.9969105888954699
210
0.0
220
0.0
230
-1.0
 50
56.441740263703252
 51
63.825259770109703
  0
ARC
  5
D24
  8
CONTORNO
 10
-245.74634329829561
 20
239.6270890844109
 30
0.0
 40
1.999342481471104
210
0.0
220
0.0
230
-1.0
 50
50.954439607446361
 51
57.387434496444691
  0
ARC
  5
D25
  8
CONTORNO
 10
-245.74832010550361
 20
239.62152625007801
 30
0.0
 40
2.005214351644637
210
0.0
220
0.0
230
-1.0
 50
69.624018447885902
 51
76.659004101906163
  0
ARC
  5
D26
  8
CONTORNO
 10
-245.74730184313461
 20
239.62582528191521
 30
0.0
 40
2.000924938640579
210
0.0
220
0.0
230
-1.0
 50
38.125442650009617
 51
44.544776736955349
  0
ARC
  5
D27
  8
CONTORNO
 10
-245.7466652859199
 20
239.6243329246833
 30
0.0
 40
2.0021555421913781
210
0.0
220
0.0
230
-1.0
 50
82.851733402957834
 51
90.0
  0
ARC
  5
D28
  8
CONTORNO
 10
-245.74144664839761
 20
239.62932524466819
 30
0.0
 40
1.994094246051205
210
0.0
220
0.0
230
-1.0
 50
24.192552483969159
 51
30.588464893496571
  0
ARC
  5
D29
  8
CONTORNO
 10
-245.7435437461024
 20
239.62829573948531
 30
0.0
 40
1.996422334406444
210
0.0
220
0.0
230
-1.0
 50
25.324495881068412
 51
31.735555484437288
  0
ARC
  5
D2A
  8
CONTORNO
 10
-245.75112377657001
 20
239.6250464138258
 30
0.0
 40
2.0046783035201301
210
0.0
220
0.0
230
-1.0
 50
11.8933495247673
 51
18.066888604009851
  0
ARC
  5
D2B
  8
CONTORNO
 10
-245.7505652170164
 20
239.6252286220188
 30
0.0
 40
2.004090775988415
210
0.0
220
0.0
230
-1.0
 50
18.066888604010622
 51
24.19255248388756
  0
ARC
  5
D2C
  8
CONTORNO
 10
-245.75173870882739
 20
239.62483814596399
 30
0.0
 40
2.0053297981460041
210
0.0
220
0.0
230
-1.0
 50
12.63168757141038
 51
18.976862231058458
  0
ARC
  5
D2D
  8
CONTORNO
 10
-245.74848821715949
 20
239.62595591192971
 30
0.0
 40
2.0018924886112961
210
0.0
220
0.0
230
-1.0
 50
18.976862231177421
 51
25.324495881069879
  0
ARC
  5
D2E
  8
CONTORNO
 10
-245.73996077411681
 20
239.6274776664043
 30
0.0
 40
1.993259718850348
210
0.0
220
0.0
230
-1.0
 50
5.9549013003075428
 51
12.631687571413121
  0
ARC
  5
D2F
  8
CONTORNO
 10
-245.74889906106159
 20
239.62648838479831
 30
0.0
 40
2.0022525855570432
210
0.0
220
0.0
230
-1.0
 50
0.0
 51
6.3157403591809178
  0
ARC
  5
D30
  8
CONTORNO
 10
-245.74652178432959
 20
239.6265173964421
 30
0.0
 40
1.999882860614757
210
0.0
220
0.0
230
-1.0
 50
31.735555484438681
 51
43.404807906116837
  0
ARC
  5
D31
  8
CONTORNO
 10
-245.74772668279769
 20
239.62561294900809
 30
0.0
 40
2.0013894479767251
210
0.0
220
0.0
230
-1.0
 50
30.588464893550601
 51
36.893433240473911
  0
LINE
  5
D32
  8
0
 10
243.7466464755046
 20
280.62648838479828
 30
0.0
 11
243.7466464755046
 21
272.19637948389578
 31
0.0
210
-1.0
220
0.0
230
0.0
  0
LINE
  5
D33
  8
0
 10
253.13908102136449
 20
282.69637948389578
 30
0.0
 11
253.13908102136449
 21
261.70168162728839
 31
0.0
  0
LINE
  5
D34
  8
0
 10
250.63908102136449
 20
282.69637948389578
 30
0.0
 11
250.63908102136449
 21
261.71819665337279
 31
0.0
  0
LINE
  5
D35
  8
0
 10
243.7466464755046
 20
263.7662705829934
 30
0.0
 11
243.7466464755046
 21
272.19637948389578
 31
0.0
210
-1.0
220
0.0
230
0.0
  0
LINE
  5
D36
  8
0
 10
253.7466464755046
 20
261.69637948389578
 30
0.0
 11
245.7291934045079
 21
261.76634673686499
 31
0.0
210
-1.0
220
0.0
230
0.0
  0
ARC
  5
D37
  8
0
 10
245.7466464755046
 20
263.7662705829934
 30
0.0
 40
2.0
 50
180.0
 51
269.50000000000028
  0
LINE
  5
D38
  8
0
 10
253.7466464755046
 20
282.69637948389578
 30
0.0
 11
245.7291934045079
 21
282.62641223092658
 31
0.0
210
-1.0
220
0.0
230
0.0
  0
ARC
  5
D39
  8
CONTORNO
 10
-245.74573543407729
 20
280.6320222616207
 30
0.0
 40
1.994408275214457
210
0.0
220
0.0
230
-1.0
 50
76.22994280251379
 51
83.077197630906156
  0
ARC
  5
D3A
  8
CONTORNO
 10
-245.7451787595289
 20
280.6287780491146
 30
0.0
 40
1.997293569833021
210
0.0
220
0.0
230
-1.0
 50
56.441740263446718
 51
63.825259770011748
  0
ARC
  5
D3B
  8
CONTORNO
 10
-245.74634329829561
 20
280.62708908441073
 30
0.0
 40
1.9993424814712899
210
0.0
220
0.0
230
-1.0
 50
50.954439607623378
 51
57.387434496343943
  0
ARC
  5
D3C
  8
CONTORNO
 10
-245.7481963803171
 20
280.62493354353228
 30
0.0
 40
2.0021878252047269
210
0.0
220
0.0
230
-1.0
 50
43.404807905973392
 51
50.95443960744916
  0
ARC
  5
D3D
  8
CONTORNO
 10
-245.7460098136894
 20
280.6275252329217
 30
0.0
 40
1.9987969657991811
210
0.0
220
0.0
230
-1.0
 50
49.846212532072833
 51
56.441740263445361
  0
ARC
  5
D3E
  8
CONTORNO
 10
-245.74730184313469
 20
280.62582528191513
 30
0.0
 40
2.000924938640686
210
0.0
220
0.0
230
-1.0
 50
38.125442650170861
 51
44.544776736834443
  0
ARC
  5
D3F
  8
CONTORNO
 10
-245.74713523976709
 20
280.62493743358181
 30
0.0
 40
2.001603806786286
210
0.0
220
0.0
230
-1.0
 50
63.004869319371913
 51
70.246474956001791
  0
ARC
  5
D40
  8
CONTORNO
 10
-245.7481243281859
 20
280.62227443862412
 30
0.0
 40
2.0044445528230672
210
0.0
220
0.0
230
-1.0
 50
69.62401844765661
 51
76.65900410201499
  0
ARC
  5
D41
  8
CONTORNO
 10
-245.7466627068338
 20
280.62462845870232
 30
0.0
 40
2.001859996918967
210
0.0
220
0.0
230
-1.0
 50
82.851733402908565
 51
89.500000000001918
  0
ARC
  5
D42
  8
CONTORNO
 10
-245.7435437461028
 20
280.62829573948522
 30
0.0
 40
1.9964223344068841
210
0.0
220
0.0
230
-1.0
 50
25.324495881187879
 51
31.735555484318709
  0
ARC
  5
D43
  8
CONTORNO
 10
-245.7511237765697
 20
280.62504641382583
 30
0.0
 40
2.0046783035198561
210
0.0
220
0.0
230
-1.0
 50
11.89334952477879
 51
24.192552483913769
  0
ARC
  5
D44
  8
CONTORNO
 10
-245.74848821716009
 20
280.62595591192951
 30
0.0
 40
2.0018924886119298
210
0.0
220
0.0
230
-1.0
 50
18.976862231152442
 51
25.32449588109537
  0
ARC
  5
D45
  8
CONTORNO
 10
-245.74144664839741
 20
280.62932524466828
 30
0.0
 40
1.9940942460509761
210
0.0
220
0.0
230
-1.0
 50
24.19255248391303
 51
30.588464893400221
  0
ARC
  5
D46
  8
CONTORNO
 10
-245.74899097009529
 20
280.62648838479828
 30
0.0
 40
2.0023444945907838
210
0.0
220
0.0
230
-1.0
 50
0.0
 51
6.3157403591940451
  0
ARC
  5
D47
  8
CONTORNO
 10
-245.73965187811231
 20
280.62746253133332
 30
0.0
 40
1.9929547341817211
210
0.0
220
0.0
230
-1.0
 50
5.9549013003133808
 51
12.63168757137956
  0
ARC
  5
D48
  8
CONTORNO
 10
-245.74772668279769
 20
280.6256129490082
 30
0.0
 40
2.0013894479767411
210
0.0
220
0.0
230
-1.0
 50
30.588464893400221
 51
36.893433240379778
  0
ARC
  5
D49
  8
CONTORNO
 10
-245.7464230395467
 20
280.62651498233117
 30
0.0
 40
1.9998078073099701
210
0.0
220
0.0
230
-1.0
 50
31.73555548431802
 51
43.40480790597168
  0
LINE
  5
D4A
  8
0
 10
263.45751042360018
 20
218.66468458760079
 30
0.0
 11
271.57541515841149
 21
218.66468488942121
 31
0.0
  0
LINE
  5
D4B
  8
0
 10
261.15921720598641
 20
214.8510848664701
 30
0.0
 11
261.15921698278919
 21
218.8532296491486
 31
0.0
  0
LINE
  5
D4C
  8
0
 10
260.38436997510541
 20
216.27882698716741
 30
0.0
 11
260.38436985546139
 21
218.85322955922979
 31
0.0
  0
LINE
  5
D4D
  8
0
 10
262.60915017942648
 20
214.14549313407699
 30
0.0
 11
259.36486715476428
 21
215.72428285862091
 31
0.0
  0
LINE
  5
D4E
  8
0
 10
260.96781218554298
 20
214.38970407932979
 30
0.0
 11
259.86477113228511
 21
213.08556593491971
 31
0.0
  0
LINE
  5
D4F
  8
0
 10
261.15921708597313
 20
217.00304098372729
 30
0.0
 11
259.6539127895478
 21
215.5961022144362
 31
0.0
  0
LINE
  5
D50
  8
0
 10
259.18007220094802
 20
215.25968536571941
 30
0.0
 11
262.4243552169732
 21
213.6808956446107
 31
0.0
  0
LINE
  5
D51
  8
0
 10
259.36486715476428
 20
215.72428285862091
 30
0.0
 11
259.18007220094802
 21
215.25968536571941
 31
0.0
  0
LINE
  5
D52
  8
3
 10
262.51592491618209
 20
213.75080285737971
 30
0.0
 11
261.17363316939179
 21
213.75080285737971
 31
0.0
  0
LINE
  5
D53
  8
0
 10
262.60915017942648
 20
214.14549313407699
 30
0.0
 11
261.15921711090039
 21
216.5560693369799
 31
0.0
  0
LINE
  5
D54
  8
0
 10
262.55356973387762
 20
214.69638482575479
 30
0.0
 11
262.34129840248858
 21
214.69638482575479
 31
0.0
  0
LINE
  5
D55
  8
0
 10
262.55356973387723
 20
214.69638482575479
 30
0.0
 11
261.6114022477326
 21
214.69638482575479
 31
0.0
  0
LINE
  5
D56
  8
0
 10
262.4243552169732
 20
213.6808956446107
 30
0.0
 11
262.60915017942648
 21
214.14549313407699
 31
0.0
  0
LINE
  5
D57
  8
0
 10
260.38437009495999
 20
213.69989377432211
 30
0.0
 11
260.38437004970621
 21
214.6736288917987
 31
0.0
  0
LINE
  5
D58
  8
0
 10
260.06418980913418
 20
215.38396624244811
 30
0.0
 11
261.1592171214391
 21
216.367101903296
 31
0.0
  0
LINE
  5
D59
  8
0
 10
261.15921698278919
 20
218.85322962890311
 30
0.0
 11
260.38436985546139
 21
218.85322955922979
 31
0.0
  0
LINE
  5
D5A
  8
0
 10
260.38437014869118
 20
212.54374936173889
 30
0.0
 11
260.38437012595801
 21
213.03290452795201
 31
0.0
  0
LINE
  5
D5B
  8
0
 10
259.81385313441717
 20
213.13866113765681
 30
0.0
 11
259.4796759691007
 21
212.7667396035296
 31
0.0
  0
LINE
  5
D5C
  8
0
 10
261.15921737972542
 20
211.73577040450101
 30
0.0
 11
261.15921725832152
 21
213.91266331510599
 31
0.0
  0
LINE
  5
D5D
  8
0
 10
260.1576301928269
 20
212.7754647824344
 30
0.0
 11
261.3958928554581
 21
214.1813839795947
 31
0.0
  0
LINE
  5
D5E
  8
0
 10
276.74646263807551
 20
213.5528260903171
 30
0.0
 11
273.74646263807551
 21
214.69638482575479
 31
0.0
  0
LINE
  5
D5F
  8
3
 10
276.22709246251537
 20
213.7508028573796
 30
0.0
 11
272.51700066582953
 21
213.7508028573796
 31
0.0
  0
LINE
  5
D60
  8
0
 10
273.74646263807551
 20
214.69638482575479
 30
0.0
 11
272.47935584813439
 21
214.69638482575479
 31
0.0
  0
LINE
  5
D61
  8
1
 10
281.74646263807551
 20
335.6963741420368
 30
0.0
 11
224.07126229542061
 21
335.6963741420368
 31
0.0
  0
LINE
  5
D62
  8
0
 10
260.30869595969028
 20
329.6963741420368
 30
0.0
 11
255.7466464755046
 21
329.69637414203692
 31
0.0
1001
ACAD
1000
ASC_BOUNDS
1002
{
1070
    19
1002
}
  0
LINE
  5
D63
  8
3
 10
260.40960530082219
 20
330.64195611041191
 30
0.0
 11
255.7466464755046
 21
330.64195611041191
 31
0.0
  0
LINE
  5
D64
  8
0
 10
259.62244895629459
 20
341.6963741420368
 30
0.0
 11
255.7466464755046
 21
341.6963741420368
 31
0.0
1001
ACAD
1000
ASC_BOUNDS
1002
{
1070
    19
1002
}
  0
LINE
  5
D65
  8
3
 10
259.4581743701508
 20
340.75079217366181
 30
0.0
 11
255.7466464755046
 21
340.75079217366181
 31
0.0
  0
LINE
  5
D66
  8
0
 10
253.7466464755046
 20
356.69637948389578
 30
0.0
 11
253.7466464755046
 21
323.69637948389578
 31
0.0
210
-1.0
220
0.0
230
0.0
1001
ACAD
1000
ASC_BOUNDS
1002
{
1070
    19
1002
}
  0
ARC
  5
D67
  8
0
 10
216.00545106353431
 20
335.70839222222202
 30
0.0
 40
15.71132218850404
 50
326.10395583125882
 51
33.790554780256358
  0
LINE
  5
D68
  8
0
 10
229.07126229542061
 20
343.82920070383
 30
0.0
 11
229.07126229542061
 21
336.6963741420368
 31
0.0
  0
LINE
  5
D69
  8
0
 10
255.7466464755046
 20
347.1963741420368
 30
0.0
 11
255.7466464755046
 21
335.6963741420368
 31
0.0
1001
ACAD
1000
ASC_BOUNDS
1002
{
1070
    19
1002
}
  0
LINE
  5
D6A
  8
0
 10
253.13908102136449
 20
323.69637948389578
 30
0.0
 11
253.13908102136449
 21
302.70168162728839
 31
0.0
  0
LINE
  5
D6B
  8
0
 10
250.63908102136449
 20
323.69637948389578
 30
0.0
 11
250.63908102136449
 21
302.71819665337279
 31
0.0
  0
LINE
  5
D6C
  8
0
 10
243.7466464755046
 20
321.62648838479828
 30
0.0
 11
243.7466464755046
 21
304.76627058299329
 31
0.0
210
-1.0
220
0.0
230
0.0
  0
LINE
  5
D6D
  8
0
 10
245.7291934045079
 20
302.76634673686499
 30
0.0
 11
253.7466464755046
 21
302.6963794838959
 31
0.0
210
-1.0
220
0.0
230
0.0
  0
ARC
  5
D6E
  8
CONTORNO
 10
-245.7456274313349
 20
304.75987819928793
 30
0.0
 40
1.9935449222299759
210
0.0
220
0.0
230
-1.0
 50
276.9228023690693
 51
283.7700571972498
  0
ARC
  5
D6F
  8
CONTORNO
 10
-245.747631699062
 20
304.76725834150528
 30
0.0
 40
2.0013877628083261
210
0.0
220
0.0
230
-1.0
 50
309.04556039255539
 51
315.45522326304518
  0
ARC
  5
D70
  8
CONTORNO
 10
-245.74819638031749
 20
304.7678254242598
 30
0.0
 40
2.0021878252053451
210
0.0
220
0.0
230
-1.0
 50
310.15378746770011
 51
316.59519209388372
  0
ARC
  5
D71
  8
CONTORNO
 10
-245.74832010550361
 20
304.77123271771381
 30
0.0
 40
2.005214351644637
210
0.0
220
0.0
230
-1.0
 50
283.34099589809392
 51
290.37598155211413
  0
ARC
  5
D72
  8
CONTORNO
 10
-245.74634329829561
 20
304.76566988338078
 30
0.0
 40
1.999342481471104
210
0.0
220
0.0
230
-1.0
 50
302.61256550355529
 51
309.04556039255363
  0
ARC
  5
D73
  8
CONTORNO
 10
-245.7450326163441
 20
304.76362141704692
 30
0.0
 40
1.9969105888954699
210
0.0
220
0.0
230
-1.0
 50
296.17474022989938
 51
303.5582597362968
  0
ARC
  5
D74
  8
CONTORNO
 10
-245.74708996974891
 20
304.76780716852687
 30
0.0
 40
2.0015746234671798
210
0.0
220
0.0
230
-1.0
 50
289.7535250440726
 51
296.99513068047258
  0
ARC
  5
D75
  8
CONTORNO
 10
-245.74600981368849
 20
304.76523373486867
 30
0.0
 40
1.9987969657976521
210
0.0
220
0.0
230
-1.0
 50
303.5582597362968
 51
310.15378746775042
  0
ARC
  5
D76
  8
CONTORNO
 10
-245.74730184313461
 20
304.76693368587638
 30
0.0
 40
2.000924938640579
210
0.0
220
0.0
230
-1.0
 50
315.45522326304462
 51
321.87455734999043
  0
ARC
  5
D77
  8
CONTORNO
 10
-245.7466652859199
 20
304.76842604310832
 30
0.0
 40
2.0021555421913781
210
0.0
220
0.0
230
-1.0
 50
270.0
 51
277.14826659704221
  0
ARC
  5
D78
  8
CONTORNO
 10
-245.74848821715949
 20
304.76680305586189
 30
0.0
 40
2.0018924886112961
210
0.0
220
0.0
230
-1.0
 50
334.67550411893012
 51
341.02313776882261
  0
ARC
  5
D79
  8
CONTORNO
 10
-245.7505652170164
 20
304.76753034577291
 30
0.0
 40
2.004090775988415
210
0.0
220
0.0
230
-1.0
 50
335.80744751611252
 51
341.93311139598927
  0
ARC
  5
D7A
  8
CONTORNO
 10
-245.75173870882739
 20
304.76792082182777
 30
0.0
 40
2.0053297981460041
210
0.0
220
0.0
230
-1.0
 50
341.02313776894158
 51
347.3683124285896
  0
ARC
  5
D7B
  8
CONTORNO
 10
-245.75112377657001
 20
304.76771255396602
 30
0.0
 40
2.0046783035201301
210
0.0
220
0.0
230
-1.0
 50
341.93311139599018
 51
348.1066504752327
  0
ARC
  5
D7C
  8
CONTORNO
 10
-245.7435437461024
 20
304.76446322830628
 30
0.0
 40
1.996422334406444
210
0.0
220
0.0
230
-1.0
 50
328.26444451556267
 51
334.67550411893092
  0
ARC
  5
D7D
  8
CONTORNO
 10
-245.74144664839761
 20
304.76343372312363
 30
0.0
 40
1.994094246051205
210
0.0
220
0.0
230
-1.0
 50
329.41153510650338
 51
335.80744751603078
  0
ARC
  5
D7E
  8
CONTORNO
 10
-245.74889906106159
 20
304.76627058299329
 30
0.0
 40
2.0022525855570432
210
0.0
220
0.0
230
-1.0
 50
353.68425964081911
 51
0.0
  0
ARC
  5
D7F
  8
CONTORNO
 10
-245.73996077411681
 20
304.76528130138729
 30
0.0
 40
1.993259718850348
210
0.0
220
0.0
230
-1.0
 50
347.36831242858688
 51
354.0450986996924
  0
ARC
  5
D80
  8
CONTORNO
 10
-245.74772668279769
 20
304.76714601878359
 30
0.0
 40
2.0013894479767251
210
0.0
220
0.0
230
-1.0
 50
323.106566759526
 51
329.41153510644938
  0
ARC
  5
D81
  8
CONTORNO
 10
-245.74652178432959
 20
304.7662415713495
 30
0.0
 40
1.999882860614757
210
0.0
220
0.0
230
-1.0
 50
316.59519209388321
 51
328.26444451556131
  0
LINE
  5
D82
  8
0
 10
229.07126229542061
 20
327.56354758024361
 30
0.0
 11
229.07126229542061
 21
334.6963741420368
 31
0.0
  0
LINE
  5
D83
  8
0
 10
229.3089062011731
 20
327.32590367449149
 30
0.0
 11
229.07126229542061
 21
327.56354758024372
 31
0.0
  0
LINE
  5
D84
  8
0
 10
229.0466464755045
 20
326.9463794889619
 30
0.0
 11
229.0466464755045
 21
323.78889133308161
 31
0.0
1001
ACAD
1000
ASC_BOUNDS
1002
{
1070
    19
1002
}
  0
LINE
  5
D85
  8
0
 10
234.44664647550459
 20
323.69637948896201
 30
0.0
 11
229.0466464755045
 21
323.78889133308161
 31
0.0
210
-1.0
220
0.0
230
0.0
1001
ACAD
1000
ASC_BOUNDS
1002
{
1070
    19
1002
}
  0
LINE
  5
D86
  8
0
 10
230.8626188888727
 20
334.6963741420368
 30
0.0
 11
230.8626188888727
 21
335.6963741420368
 31
0.0
  0
LINE
  5
D87
  8
0
 10
230.8626188888727
 20
336.6963741420368
 30
0.0
 11
230.8626188888727
 21
335.6963741420368
 31
0.0
  0
LINE
  5
D88
  8
0
 10
229.07126229542061
 20
334.6963741420368
 30
0.0
 11
230.8626188888727
 21
334.6963741420368
 31
0.0
  0
LINE
  5
D89
  8
0
 10
229.07126229542061
 20
336.6963741420368
 30
0.0
 11
230.8626188888727
 21
336.6963741420368
 31
0.0
  0
LINE
  5
D8A
  8
0
 10
255.7466464755046
 20
324.19637414203692
 30
0.0
 11
255.7466464755046
 21
335.6963741420368
 31
0.0
1001
ACAD
1000
ASC_BOUNDS
1002
{
1070
    19
1002
}
  0
LINE
  5
D8B
  8
0
 10
253.7466464755046
 20
323.69637948389578
 30
0.0
 11
245.7291934045079
 21
323.62641223092658
 31
0.0
210
-1.0
220
0.0
230
0.0
  0
ARC
  5
D8C
  8
CONTORNO
 10
-245.7457354340776
 20
321.63202226161928
 30
0.0
 40
1.9944082752158849
210
0.0
220
0.0
230
-1.0
 50
76.229942801997382
 51
83.077197630600949
  0
ARC
  5
D8D
  8
CONTORNO
 10
-245.7481963803171
 20
321.62493354353228
 30
0.0
 40
2.0021878252046581
210
0.0
220
0.0
230
-1.0
 50
43.40480790499312
 51
50.954439606334951
  0
ARC
  5
D8E
  8
CONTORNO
 10
-245.7460098136894
 20
321.6275252329217
 30
0.0
 40
1.9987969657992151
210
0.0
220
0.0
230
-1.0
 50
49.846212531050107
 51
56.441740262458509
  0
ARC
  5
D8F
  8
CONTORNO
 10
-245.74812432818669
 20
321.6222744386219
 30
0.0
 40
2.0044445528252881
210
0.0
220
0.0
230
-1.0
 50
69.624018446932453
 51
76.659004101283486
  0
ARC
  5
D90
  8
CONTORNO
 10
-245.747135239767
 20
321.62493743358237
 30
0.0
 40
2.001603806785671
210
0.0
220
0.0
230
-1.0
 50
63.004869318394569
 51
70.246474955152138
  0
ARC
  5
D91
  8
CONTORNO
 10
-245.7451787595285
 20
321.62877804911523
 30
0.0
 40
1.99729356983226
210
0.0
220
0.0
230
-1.0
 50
56.441740262459881
 51
63.825259769126149
  0
ARC
  5
D92
  8
CONTORNO
 10
-245.7463432982953
 20
321.62708908441141
 30
0.0
 40
1.999342481470533
210
0.0
220
0.0
230
-1.0
 50
50.954439606329103
 51
57.387434495359649
  0
ARC
  5
D93
  8
CONTORNO
 10
-245.74730184313421
 20
321.62582528191552
 30
0.0
 40
2.0009249386402028
210
0.0
220
0.0
230
-1.0
 50
38.125442648965212
 51
44.544776735752592
  0
ARC
  5
D94
  8
CONTORNO
 10
-245.7466627068336
 20
321.62462845870431
 30
0.0
 40
2.0018599969170641
210
0.0
220
0.0
230
-1.0
 50
82.85173340262952
 51
89.499999999998664
  0
ARC
  5
D95
  8
CONTORNO
 10
-245.74144664839781
 20
321.62932524466788
 30
0.0
 40
1.9940942460515709
210
0.0
220
0.0
230
-1.0
 50
24.192552483227178
 51
30.58846489251825
  0
ARC
  5
D96
  8
CONTORNO
 10
-245.7435437461036
 20
321.62829573948471
 30
0.0
 40
1.9964223344077949
210
0.0
220
0.0
230
-1.0
 50
25.32449588017974
 51
31.73555548336741
  0
ARC
  5
D97
  8
CONTORNO
 10
-245.7511237765697
 20
321.62504641382583
 30
0.0
 40
2.0046783035198281
210
0.0
220
0.0
230
-1.0
 50
11.893349524333731
 51
24.192552483231552
  0
ARC
  5
D98
  8
CONTORNO
 10
-245.74848821716051
 20
321.62595591192928
 30
0.0
 40
2.0018924886123188
210
0.0
220
0.0
230
-1.0
 50
18.976862230349571
 51
25.32449588025186
  0
ARC
  5
D99
  8
CONTORNO
 10
-245.73965187811291
 20
321.62746253133321
 30
0.0
 40
1.992954734182248
210
0.0
220
0.0
230
-1.0
 50
5.9549013000889532
 51
12.63168757086045
  0
ARC
  5
D9A
  8
CONTORNO
 10
-245.74899097009509
 20
321.62648838479828
 30
0.0
 40
2.0023444945905071
210
0.0
220
0.0
230
-1.0
 50
0.0
 51
6.3157403589138683
  0
ARC
  5
D9B
  8
CONTORNO
 10
-245.74772668279729
 20
321.62561294900871
 30
0.0
 40
2.0013894479760168
210
0.0
220
0.0
230
-1.0
 50
30.58846489251825
 51
36.893433239450921
  0
ARC
  5
D9C
  8
CONTORNO
 10
-245.74642303954579
 20
321.62651498233191
 30
0.0
 40
1.999807807308849
210
0.0
220
0.0
230
-1.0
 50
31.735555483366721
 51
43.404807904990221
  0
LINE
  5
D9D
  8
0
 10
255.7466464755046
 20
330.73694441437527
 30
0.0
 11
253.7466464755046
 21
330.73694441437527
 31
0.0
  0
LINE
  5
D9E
  8
0
 10
255.7466464755046
 20
330.67444441437527
 30
0.0
 11
253.7466464755046
 21
330.67444441437527
 31
0.0
  0
LINE
  5
D9F
  8
0
 10
255.7466464755046
 20
330.61194441437527
 30
0.0
 11
253.7466464755046
 21
330.61194441437527
 31
0.0
  0
LINE
  5
DA0
  8
0
 10
255.7466464755046
 20
330.54944441437527
 30
0.0
 11
253.7466464755046
 21
330.54944441437527
 31
0.0
  0
LINE
  5
DA1
  8
0
 10
255.7466464755046
 20
330.48694441437527
 30
0.0
 11
253.7466464755046
 21
330.48694441437527
 31
0.0
  0
LINE
  5
DA2
  8
0
 10
255.7466464755046
 20
330.42444441437527
 30
0.0
 11
253.7466464755046
 21
330.42444441437527
 31
0.0
  0
LINE
  5
DA3
  8
0
 10
255.7466464755046
 20
330.36194441437527
 30
0.0
 11
253.7466464755046
 21
330.36194441437527
 31
0.0
  0
LINE
  5
DA4
  8
0
 10
255.7466464755046
 20
330.29944441437527
 30
0.0
 11
253.7466464755046
 21
330.29944441437527
 31
0.0
  0
LINE
  5
DA5
  8
0
 10
255.7466464755046
 20
330.23694441437527
 30
0.0
 11
253.7466464755046
 21
330.23694441437527
 31
0.0
  0
LINE
  5
DA6
  8
0
 10
255.7466464755046
 20
330.17444441437527
 30
0.0
 11
253.7466464755046
 21
330.17444441437527
 31
0.0
  0
LINE
  5
DA7
  8
0
 10
255.7466464755046
 20
330.11194441437527
 30
0.0
 11
253.7466464755046
 21
330.11194441437527
 31
0.0
  0
LINE
  5
DA8
  8
0
 10
255.7466464755046
 20
326.73694441437527
 30
0.0
 11
254.2466464755046
 21
326.73694441437527
 31
0.0
  0
LINE
  5
DA9
  8
0
 10
255.7466464755046
 20
326.67444441437527
 30
0.0
 11
254.2466464755046
 21
326.67444441437527
 31
0.0
  0
LINE
  5
DAA
  8
0
 10
255.7466464755046
 20
326.61194441437527
 30
0.0
 11
254.2466464755046
 21
326.61194441437527
 31
0.0
  0
LINE
  5
DAB
  8
0
 10
255.7466464755046
 20
326.54944441437527
 30
0.0
 11
254.2466464755046
 21
326.54944441437527
 31
0.0
  0
LINE
  5
DAC
  8
0
 10
255.7466464755046
 20
326.48694441437527
 30
0.0
 11
254.2466464755046
 21
326.48694441437527
 31
0.0
  0
LINE
  5
DAD
  8
0
 10
255.7466464755046
 20
326.42444441437527
 30
0.0
 11
254.2466464755046
 21
326.42444441437527
 31
0.0
  0
LINE
  5
DAE
  8
0
 10
255.7466464755046
 20
326.36194441437527
 30
0.0
 11
254.2466464755046
 21
326.36194441437527
 31
0.0
  0
LINE
  5
DAF
  8
0
 10
255.7466464755046
 20
326.29944441437527
 30
0.0
 11
254.2466464755046
 21
326.29944441437527
 31
0.0
  0
LINE
  5
DB0
  8
0
 10
255.7466464755046
 20
326.23694441437527
 30
0.0
 11
254.2466464755046
 21
326.23694441437527
 31
0.0
  0
LINE
  5
DB1
  8
0
 10
255.7466464755046
 20
326.17444441437527
 30
0.0
 11
254.2466464755046
 21
326.17444441437527
 31
0.0
  0
LINE
  5
DB2
  8
0
 10
255.7466464755046
 20
326.11194441437527
 30
0.0
 11
254.2466464755046
 21
326.11194441437527
 31
0.0
  0
LINE
  5
DB3
  8
0
 10
255.7466464755046
 20
326.04944441437527
 30
0.0
 11
254.2466464755046
 21
326.04944441437527
 31
0.0
  0
LINE
  5
DB4
  8
0
 10
255.7466464755046
 20
325.98694441437527
 30
0.0
 11
254.2466464755046
 21
325.98694441437527
 31
0.0
  0
LINE
  5
DB5
  8
0
 10
255.7466464755046
 20
325.92444441437539
 30
0.0
 11
254.2466464755046
 21
325.92444441437527
 31
0.0
  0
LINE
  5
DB6
  8
0
 10
255.7466464755046
 20
325.86194441437527
 30
0.0
 11
254.2466464755046
 21
325.86194441437527
 31
0.0
  0
LINE
  5
DB7
  8
0
 10
255.7466464755046
 20
325.79944441437527
 30
0.0
 11
254.2466464755046
 21
325.79944441437527
 31
0.0
  0
LINE
  5
DB8
  8
0
 10
255.7466464755046
 20
325.73694441437527
 30
0.0
 11
254.2466464755046
 21
325.73694441437527
 31
0.0
  0
LINE
  5
DB9
  8
0
 10
255.7466464755046
 20
325.67444441437527
 30
0.0
 11
254.2466464755046
 21
325.67444441437527
 31
0.0
  0
LINE
  5
DBA
  8
0
 10
255.7466464755046
 20
325.61194441437527
 30
0.0
 11
254.2466464755046
 21
325.61194441437527
 31
0.0
  0
LINE
  5
DBB
  8
0
 10
255.7466464755046
 20
325.54944441437527
 30
0.0
 11
254.2466464755046
 21
325.54944441437527
 31
0.0
  0
LINE
  5
DBC
  8
0
 10
255.7466464755046
 20
325.48694441437539
 30
0.0
 11
254.2466464755046
 21
325.48694441437527
 31
0.0
  0
LINE
  5
DBD
  8
0
 10
255.7466464755046
 20
325.42444441437527
 30
0.0
 11
254.2466464755046
 21
325.42444441437527
 31
0.0
  0
LINE
  5
DBE
  8
0
 10
255.7466464755046
 20
325.36194441437527
 30
0.0
 11
254.2466464755046
 21
325.36194441437527
 31
0.0
  0
LINE
  5
DBF
  8
0
 10
255.7466464755046
 20
325.29944441437527
 30
0.0
 11
254.2466464755046
 21
325.29944441437527
 31
0.0
  0
LINE
  5
DC0
  8
0
 10
255.7466464755046
 20
325.23694441437527
 30
0.0
 11
254.2466464755046
 21
325.23694441437527
 31
0.0
  0
LINE
  5
DC1
  8
0
 10
255.7466464755046
 20
325.17444441437527
 30
0.0
 11
254.2466464755046
 21
325.17444441437527
 31
0.0
  0
LINE
  5
DC2
  8
0
 10
255.7466464755046
 20
325.11194441437527
 30
0.0
 11
254.2466464755046
 21
325.11194441437527
 31
0.0
  0
LINE
  5
DC3
  8
0
 10
255.7466464755046
 20
325.04944441437527
 30
0.0
 11
254.2466464755046
 21
325.04944441437527
 31
0.0
  0
LINE
  5
DC4
  8
0
 10
255.7466464755046
 20
324.98694441437527
 30
0.0
 11
254.2466464755046
 21
324.98694441437527
 31
0.0
  0
LINE
  5
DC5
  8
0
 10
255.7466464755046
 20
324.92444441437527
 30
0.0
 11
254.2466464755046
 21
324.92444441437527
 31
0.0
  0
LINE
  5
DC6
  8
0
 10
255.7466464755046
 20
324.86194441437527
 30
0.0
 11
254.2466464755046
 21
324.86194441437527
 31
0.0
  0
LINE
  5
DC7
  8
0
 10
255.7466464755046
 20
324.79944441437527
 30
0.0
 11
254.2466464755046
 21
324.79944441437527
 31
0.0
  0
LINE
  5
DC8
  8
0
 10
255.7466464755046
 20
324.73694441437527
 30
0.0
 11
254.2466464755046
 21
324.73694441437527
 31
0.0
  0
LINE
  5
DC9
  8
0
 10
255.7466464755046
 20
324.67444441437527
 30
0.0
 11
254.2466464755046
 21
324.67444441437527
 31
0.0
  0
LINE
  5
DCA
  8
0
 10
255.7466464755046
 20
324.61194441437527
 30
0.0
 11
254.2466464755046
 21
324.61194441437527
 31
0.0
  0
LINE
  5
DCB
  8
0
 10
255.7466464755046
 20
324.54944441437527
 30
0.0
 11
254.2466464755046
 21
324.54944441437527
 31
0.0
  0
LINE
  5
DCC
  8
0
 10
255.7466464755046
 20
324.48694441437527
 30
0.0
 11
254.2466464755046
 21
324.48694441437527
 31
0.0
  0
LINE
  5
DCD
  8
0
 10
255.7466464755046
 20
324.42444441437527
 30
0.0
 11
254.2466464755046
 21
324.42444441437527
 31
0.0
  0
LINE
  5
DCE
  8
0
 10
255.7466464755046
 20
324.36194441437527
 30
0.0
 11
254.2466464755046
 21
324.36194441437527
 31
0.0
  0
LINE
  5
DCF
  8
0
 10
255.7466464755046
 20
324.29944441437527
 30
0.0
 11
254.2466464755046
 21
324.29944441437527
 31
0.0
  0
LINE
  5
DD0
  8
0
 10
255.7466464755046
 20
324.23694441437527
 30
0.0
 11
254.2466464755046
 21
324.23694441437527
 31
0.0
  0
LINE
  5
DD1
  8
0
 10
255.7466464755046
 20
330.04944441437527
 30
0.0
 11
253.7466464755046
 21
330.04944441437527
 31
0.0
  0
LINE
  5
DD2
  8
0
 10
255.7466464755046
 20
329.98694441437527
 30
0.0
 11
253.7466464755046
 21
329.98694441437527
 31
0.0
  0
LINE
  5
DD3
  8
0
 10
255.7466464755046
 20
329.92444441437527
 30
0.0
 11
253.7466464755046
 21
329.92444441437527
 31
0.0
  0
LINE
  5
DD4
  8
0
 10
255.7466464755046
 20
329.86194441437527
 30
0.0
 11
253.7466464755046
 21
329.86194441437527
 31
0.0
  0
LINE
  5
DD5
  8
0
 10
255.7466464755046
 20
329.79944441437527
 30
0.0
 11
253.7466464755046
 21
329.79944441437527
 31
0.0
  0
LINE
  5
DD6
  8
0
 10
255.7466464755046
 20
329.73694441437527
 30
0.0
 11
253.7466464755046
 21
329.73694441437527
 31
0.0
  0
LINE
  5
DD7
  8
0
 10
255.7466464755046
 20
329.67444441437527
 30
0.0
 11
253.7466464755046
 21
329.67444441437527
 31
0.0
  0
LINE
  5
DD8
  8
0
 10
255.7466464755046
 20
329.61194441437527
 30
0.0
 11
253.7466464755046
 21
329.61194441437527
 31
0.0
  0
LINE
  5
DD9
  8
0
 10
255.7466464755046
 20
329.54944441437527
 30
0.0
 11
253.7466464755046
 21
329.54944441437527
 31
0.0
  0
LINE
  5
DDA
  8
0
 10
255.7466464755046
 20
329.48694441437527
 30
0.0
 11
253.7466464755046
 21
329.48694441437527
 31
0.0
  0
LINE
  5
DDB
  8
0
 10
255.7466464755046
 20
329.42444441437527
 30
0.0
 11
253.7466464755046
 21
329.42444441437527
 31
0.0
  0
LINE
  5
DDC
  8
0
 10
255.7466464755046
 20
329.36194441437527
 30
0.0
 11
253.7466464755046
 21
329.36194441437527
 31
0.0
  0
LINE
  5
DDD
  8
0
 10
255.7466464755046
 20
329.29944441437527
 30
0.0
 11
253.7466464755046
 21
329.29944441437527
 31
0.0
  0
LINE
  5
DDE
  8
0
 10
255.7466464755046
 20
329.23694441437527
 30
0.0
 11
253.7466464755046
 21
329.23694441437527
 31
0.0
  0
LINE
  5
DDF
  8
0
 10
255.7466464755046
 20
329.17444441437522
 30
0.0
 11
253.7466464755046
 21
329.17444441437527
 31
0.0
  0
LINE
  5
DE0
  8
0
 10
255.7466464755046
 20
329.11194441437522
 30
0.0
 11
253.7466464755046
 21
329.11194441437527
 31
0.0
  0
LINE
  5
DE1
  8
0
 10
255.7466464755046
 20
329.04944441437522
 30
0.0
 11
253.7466464755046
 21
329.04944441437527
 31
0.0
  0
LINE
  5
DE2
  8
0
 10
255.7466464755046
 20
328.98694441437522
 30
0.0
 11
253.7466464755046
 21
328.98694441437527
 31
0.0
  0
LINE
  5
DE3
  8
0
 10
255.7466464755046
 20
328.92444441437522
 30
0.0
 11
253.7466464755046
 21
328.92444441437527
 31
0.0
  0
LINE
  5
DE4
  8
0
 10
255.7466464755046
 20
328.86194441437522
 30
0.0
 11
253.7466464755046
 21
328.86194441437527
 31
0.0
  0
LINE
  5
DE5
  8
0
 10
255.7466464755046
 20
328.79944441437522
 30
0.0
 11
253.7466464755046
 21
328.79944441437527
 31
0.0
  0
LINE
  5
DE6
  8
0
 10
255.7466464755046
 20
328.73694441437522
 30
0.0
 11
253.7466464755046
 21
328.73694441437527
 31
0.0
  0
LINE
  5
DE7
  8
0
 10
255.7466464755046
 20
328.67444441437522
 30
0.0
 11
253.7466464755046
 21
328.67444441437527
 31
0.0
  0
LINE
  5
DE8
  8
0
 10
255.7466464755046
 20
328.61194441437522
 30
0.0
 11
253.7466464755046
 21
328.61194441437527
 31
0.0
  0
LINE
  5
DE9
  8
0
 10
255.7466464755046
 20
328.54944441437522
 30
0.0
 11
253.7466464755046
 21
328.54944441437527
 31
0.0
  0
LINE
  5
DEA
  8
0
 10
255.7466464755046
 20
328.48694441437522
 30
0.0
 11
253.7466464755046
 21
328.48694441437527
 31
0.0
  0
LINE
  5
DEB
  8
0
 10
255.7466464755046
 20
328.42444441437522
 30
0.0
 11
253.7466464755046
 21
328.42444441437527
 31
0.0
  0
LINE
  5
DEC
  8
0
 10
255.7466464755046
 20
328.36194441437522
 30
0.0
 11
253.7466464755046
 21
328.36194441437527
 31
0.0
  0
LINE
  5
DED
  8
0
 10
255.7466464755046
 20
328.29944441437522
 30
0.0
 11
253.7466464755046
 21
328.29944441437527
 31
0.0
  0
LINE
  5
DEE
  8
0
 10
255.7466464755046
 20
328.23694441437522
 30
0.0
 11
253.7466464755046
 21
328.23694441437527
 31
0.0
  0
LINE
  5
DEF
  8
0
 10
255.7466464755046
 20
328.17444441437522
 30
0.0
 11
253.7466464755046
 21
328.17444441437527
 31
0.0
  0
LINE
  5
DF0
  8
0
 10
255.7466464755046
 20
328.11194441437522
 30
0.0
 11
253.7466464755046
 21
328.11194441437527
 31
0.0
  0
LINE
  5
DF1
  8
0
 10
255.7466464755046
 20
328.04944441437522
 30
0.0
 11
253.7466464755046
 21
328.04944441437527
 31
0.0
  0
LINE
  5
DF2
  8
0
 10
255.7466464755046
 20
327.98694441437522
 30
0.0
 11
253.7466464755046
 21
327.98694441437527
 31
0.0
  0
LINE
  5
DF3
  8
0
 10
255.7466464755046
 20
327.92444441437522
 30
0.0
 11
253.7466464755046
 21
327.92444441437527
 31
0.0
  0
LINE
  5
DF4
  8
0
 10
255.7466464755046
 20
327.86194441437522
 30
0.0
 11
253.7466464755046
 21
327.86194441437527
 31
0.0
  0
LINE
  5
DF5
  8
0
 10
255.7466464755046
 20
327.79944441437522
 30
0.0
 11
253.7466464755046
 21
327.79944441437527
 31
0.0
  0
LINE
  5
DF6
  8
0
 10
255.7466464755046
 20
327.73694441437522
 30
0.0
 11
253.7466464755046
 21
327.73694441437527
 31
0.0
  0
LINE
  5
DF7
  8
0
 10
255.7466464755046
 20
327.67444441437522
 30
0.0
 11
253.7466464755046
 21
327.67444441437527
 31
0.0
  0
LINE
  5
DF8
  8
0
 10
255.7466464755046
 20
327.61194441437522
 30
0.0
 11
253.7466464755046
 21
327.61194441437527
 31
0.0
  0
LINE
  5
DF9
  8
0
 10
255.7466464755046
 20
327.54944441437522
 30
0.0
 11
253.7466464755046
 21
327.54944441437527
 31
0.0
  0
LINE
  5
DFA
  8
0
 10
255.7466464755046
 20
327.48694441437522
 30
0.0
 11
253.7466464755046
 21
327.48694441437527
 31
0.0
  0
LINE
  5
DFB
  8
0
 10
255.7466464755046
 20
327.42444441437522
 30
0.0
 11
253.7466464755046
 21
327.42444441437527
 31
0.0
  0
LINE
  5
DFC
  8
0
 10
255.7466464755046
 20
327.36194441437522
 30
0.0
 11
253.7466464755046
 21
327.36194441437527
 31
0.0
  0
LINE
  5
DFD
  8
0
 10
255.7466464755046
 20
327.29944441437522
 30
0.0
 11
253.7466464755046
 21
327.29944441437527
 31
0.0
  0
LINE
  5
DFE
  8
0
 10
255.7466464755046
 20
327.23694441437522
 30
0.0
 11
253.7466464755046
 21
327.23694441437527
 31
0.0
  0
LINE
  5
DFF
  8
0
 10
255.7466464755046
 20
327.17444441437522
 30
0.0
 11
253.7466464755046
 21
327.17444441437527
 31
0.0
  0
LINE
  5
E00
  8
0
 10
255.7466464755046
 20
327.11194441437522
 30
0.0
 11
253.7466464755046
 21
327.11194441437527
 31
0.0
  0
LINE
  5
E01
  8
0
 10
255.7466464755046
 20
327.04944441437522
 30
0.0
 11
253.7466464755046
 21
327.04944441437527
 31
0.0
  0
LINE
  5
E02
  8
0
 10
255.7466464755046
 20
326.98694441437522
 30
0.0
 11
253.7466464755046
 21
326.98694441437527
 31
0.0
  0
LINE
  5
E03
  8
0
 10
255.7466464755046
 20
326.92444441437527
 30
0.0
 11
253.7466464755046
 21
326.92444441437527
 31
0.0
  0
LINE
  5
E04
  8
0
 10
255.7466464755046
 20
326.86194441437527
 30
0.0
 11
253.7466464755046
 21
326.86194441437527
 31
0.0
  0
LINE
  5
E05
  8
0
 10
255.7466464755046
 20
326.79944441437527
 30
0.0
 11
253.7466464755046
 21
326.79944441437527
 31
0.0
  0
LINE
  5
E06
  8
0
 10
254.2466464755046
 20
326.79637414203688
 30
0.0
 11
253.7466464755046
 21
326.79637414203688
 31
0.0
1001
ACAD
1000
ASC_BOUNDS
1002
{
1070
    19
1002
}
  0
LINE
  5
E07
  8
0
 10
254.2466464755046
 20
324.19637414203692
 30
0.0
 11
255.7466464755046
 21
324.19637414203692
 31
0.0
1001
ACAD
1000
ASC_BOUNDS
1002
{
1070
    19
1002
}
  0
LINE
  5
E08
  8
0
 10
254.2466464755046
 20
326.79637414203688
 30
0.0
 11
254.2466464755046
 21
324.19637414203692
 31
0.0
1001
ACAD
1000
ASC_BOUNDS
1002
{
1070
    19
1002
}
  0
LINE
  5
E09
  8
0
 10
255.7466464755046
 20
340.23694441437527
 30
0.0
 11
253.7466464755046
 21
340.23694441437527
 31
0.0
  0
LINE
  5
E0A
  8
0
 10
255.7466464755046
 20
340.29944441437527
 30
0.0
 11
253.7466464755046
 21
340.29944441437527
 31
0.0
  0
LINE
  5
E0B
  8
0
 10
255.7466464755046
 20
340.36194441437527
 30
0.0
 11
253.7466464755046
 21
340.36194441437527
 31
0.0
  0
LINE
  5
E0C
  8
0
 10
255.7466464755046
 20
340.42444441437527
 30
0.0
 11
253.7466464755046
 21
340.42444441437527
 31
0.0
  0
LINE
  5
E0D
  8
0
 10
255.7466464755046
 20
340.48694441437527
 30
0.0
 11
253.7466464755046
 21
340.48694441437527
 31
0.0
  0
LINE
  5
E0E
  8
0
 10
255.7466464755046
 20
340.54944441437527
 30
0.0
 11
253.7466464755046
 21
340.54944441437527
 31
0.0
  0
LINE
  5
E0F
  8
0
 10
255.7466464755046
 20
340.61194441437527
 30
0.0
 11
253.7466464755046
 21
340.61194441437527
 31
0.0
  0
LINE
  5
E10
  8
0
 10
255.7466464755046
 20
340.67444441437527
 30
0.0
 11
253.7466464755046
 21
340.67444441437527
 31
0.0
  0
LINE
  5
E11
  8
0
 10
255.7466464755046
 20
340.73694441437527
 30
0.0
 11
253.7466464755046
 21
340.73694441437527
 31
0.0
  0
LINE
  5
E12
  8
0
 10
255.7466464755046
 20
340.79944441437527
 30
0.0
 11
253.7466464755046
 21
340.79944441437527
 31
0.0
  0
LINE
  5
E13
  8
0
 10
255.7466464755046
 20
340.86194441437527
 30
0.0
 11
253.7466464755046
 21
340.86194441437527
 31
0.0
  0
LINE
  5
E14
  8
0
 10
255.7466464755046
 20
340.92444441437527
 30
0.0
 11
253.7466464755046
 21
340.92444441437527
 31
0.0
  0
LINE
  5
E15
  8
0
 10
255.7466464755046
 20
340.98694441437527
 30
0.0
 11
253.7466464755046
 21
340.98694441437527
 31
0.0
  0
LINE
  5
E16
  8
0
 10
255.7466464755046
 20
341.04944441437527
 30
0.0
 11
253.7466464755046
 21
341.04944441437527
 31
0.0
  0
LINE
  5
E17
  8
0
 10
255.7466464755046
 20
341.11194441437539
 30
0.0
 11
253.7466464755046
 21
341.11194441437527
 31
0.0
  0
LINE
  5
E18
  8
0
 10
255.7466464755046
 20
341.17444441437527
 30
0.0
 11
253.7466464755046
 21
341.17444441437527
 31
0.0
  0
LINE
  5
E19
  8
0
 10
255.7466464755046
 20
341.23694441437527
 30
0.0
 11
253.7466464755046
 21
341.23694441437527
 31
0.0
  0
LINE
  5
E1A
  8
0
 10
255.7466464755046
 20
341.29944441437527
 30
0.0
 11
253.7466464755046
 21
341.29944441437527
 31
0.0
  0
LINE
  5
E1B
  8
0
 10
255.7466464755046
 20
341.36194441437527
 30
0.0
 11
253.7466464755046
 21
341.36194441437527
 31
0.0
  0
LINE
  5
E1C
  8
0
 10
255.7466464755046
 20
341.42444441437527
 30
0.0
 11
253.7466464755046
 21
341.42444441437527
 31
0.0
  0
LINE
  5
E1D
  8
0
 10
255.7466464755046
 20
341.48694441437527
 30
0.0
 11
253.7466464755046
 21
341.48694441437527
 31
0.0
  0
LINE
  5
E1E
  8
0
 10
255.7466464755046
 20
341.54944441437539
 30
0.0
 11
253.7466464755046
 21
341.54944441437527
 31
0.0
  0
LINE
  5
E1F
  8
0
 10
255.7466464755046
 20
335.98694441437527
 30
0.0
 11
253.7466464755046
 21
335.98694441437527
 31
0.0
  0
LINE
  5
E20
  8
0
 10
255.7466464755046
 20
336.04944441437527
 30
0.0
 11
253.7466464755046
 21
336.04944441437527
 31
0.0
  0
LINE
  5
E21
  8
0
 10
255.7466464755046
 20
336.11194441437527
 30
0.0
 11
253.7466464755046
 21
336.11194441437527
 31
0.0
  0
LINE
  5
E22
  8
0
 10
255.7466464755046
 20
336.17444441437527
 30
0.0
 11
253.7466464755046
 21
336.17444441437527
 31
0.0
  0
LINE
  5
E23
  8
0
 10
255.7466464755046
 20
336.23694441437527
 30
0.0
 11
253.7466464755046
 21
336.23694441437527
 31
0.0
  0
LINE
  5
E24
  8
0
 10
255.7466464755046
 20
336.29944441437527
 30
0.0
 11
253.7466464755046
 21
336.29944441437527
 31
0.0
  0
LINE
  5
E25
  8
0
 10
255.7466464755046
 20
336.36194441437527
 30
0.0
 11
253.7466464755046
 21
336.36194441437527
 31
0.0
  0
LINE
  5
E26
  8
0
 10
255.7466464755046
 20
336.42444441437527
 30
0.0
 11
253.7466464755046
 21
336.42444441437527
 31
0.0
  0
LINE
  5
E27
  8
0
 10
255.7466464755046
 20
336.48694441437527
 30
0.0
 11
253.7466464755046
 21
336.48694441437527
 31
0.0
  0
LINE
  5
E28
  8
0
 10
255.7466464755046
 20
336.54944441437527
 30
0.0
 11
253.7466464755046
 21
336.54944441437527
 31
0.0
  0
LINE
  5
E29
  8
0
 10
255.7466464755046
 20
336.61194441437527
 30
0.0
 11
253.7466464755046
 21
336.61194441437527
 31
0.0
  0
LINE
  5
E2A
  8
0
 10
255.7466464755046
 20
336.67444441437527
 30
0.0
 11
253.7466464755046
 21
336.67444441437527
 31
0.0
  0
LINE
  5
E2B
  8
0
 10
255.7466464755046
 20
336.73694441437527
 30
0.0
 11
253.7466464755046
 21
336.73694441437527
 31
0.0
  0
LINE
  5
E2C
  8
0
 10
255.7466464755046
 20
336.79944441437527
 30
0.0
 11
253.7466464755046
 21
336.79944441437527
 31
0.0
  0
LINE
  5
E2D
  8
0
 10
255.7466464755046
 20
336.86194441437527
 30
0.0
 11
253.7466464755046
 21
336.86194441437527
 31
0.0
  0
LINE
  5
E2E
  8
0
 10
255.7466464755046
 20
336.92444441437527
 30
0.0
 11
253.7466464755046
 21
336.92444441437527
 31
0.0
  0
LINE
  5
E2F
  8
0
 10
255.7466464755046
 20
336.98694441437527
 30
0.0
 11
253.7466464755046
 21
336.98694441437527
 31
0.0
  0
LINE
  5
E30
  8
0
 10
255.7466464755046
 20
337.04944441437527
 30
0.0
 11
253.7466464755046
 21
337.04944441437527
 31
0.0
  0
LINE
  5
E31
  8
0
 10
255.7466464755046
 20
337.11194441437527
 30
0.0
 11
253.7466464755046
 21
337.11194441437527
 31
0.0
  0
LINE
  5
E32
  8
0
 10
255.7466464755046
 20
337.17444441437527
 30
0.0
 11
253.7466464755046
 21
337.17444441437527
 31
0.0
  0
LINE
  5
E33
  8
0
 10
255.7466464755046
 20
337.23694441437527
 30
0.0
 11
253.7466464755046
 21
337.23694441437527
 31
0.0
  0
LINE
  5
E34
  8
0
 10
255.7466464755046
 20
337.29944441437527
 30
0.0
 11
253.7466464755046
 21
337.29944441437527
 31
0.0
  0
LINE
  5
E35
  8
0
 10
255.7466464755046
 20
337.36194441437527
 30
0.0
 11
253.7466464755046
 21
337.36194441437527
 31
0.0
  0
LINE
  5
E36
  8
0
 10
255.7466464755046
 20
337.42444441437527
 30
0.0
 11
253.7466464755046
 21
337.42444441437527
 31
0.0
  0
LINE
  5
E37
  8
0
 10
255.7466464755046
 20
337.48694441437527
 30
0.0
 11
253.7466464755046
 21
337.48694441437527
 31
0.0
  0
LINE
  5
E38
  8
0
 10
255.7466464755046
 20
337.54944441437527
 30
0.0
 11
253.7466464755046
 21
337.54944441437527
 31
0.0
  0
LINE
  5
E39
  8
0
 10
255.7466464755046
 20
337.61194441437527
 30
0.0
 11
253.7466464755046
 21
337.61194441437527
 31
0.0
  0
LINE
  5
E3A
  8
0
 10
255.7466464755046
 20
337.67444441437527
 30
0.0
 11
253.7466464755046
 21
337.67444441437527
 31
0.0
  0
LINE
  5
E3B
  8
0
 10
255.7466464755046
 20
337.73694441437527
 30
0.0
 11
253.7466464755046
 21
337.73694441437527
 31
0.0
  0
LINE
  5
E3C
  8
0
 10
255.7466464755046
 20
337.79944441437527
 30
0.0
 11
253.7466464755046
 21
337.79944441437527
 31
0.0
  0
LINE
  5
E3D
  8
0
 10
255.7466464755046
 20
337.86194441437527
 30
0.0
 11
253.7466464755046
 21
337.86194441437527
 31
0.0
  0
LINE
  5
E3E
  8
0
 10
255.7466464755046
 20
337.92444441437527
 30
0.0
 11
253.7466464755046
 21
337.92444441437527
 31
0.0
  0
LINE
  5
E3F
  8
0
 10
255.7466464755046
 20
337.98694441437527
 30
0.0
 11
253.7466464755046
 21
337.98694441437527
 31
0.0
  0
LINE
  5
E40
  8
0
 10
255.7466464755046
 20
338.04944441437527
 30
0.0
 11
253.7466464755046
 21
338.04944441437527
 31
0.0
  0
LINE
  5
E41
  8
0
 10
255.7466464755046
 20
338.11194441437527
 30
0.0
 11
253.7466464755046
 21
338.11194441437527
 31
0.0
  0
LINE
  5
E42
  8
0
 10
255.7466464755046
 20
338.17444441437527
 30
0.0
 11
253.7466464755046
 21
338.17444441437527
 31
0.0
  0
LINE
  5
E43
  8
0
 10
255.7466464755046
 20
338.23694441437527
 30
0.0
 11
253.7466464755046
 21
338.23694441437527
 31
0.0
  0
LINE
  5
E44
  8
0
 10
255.7466464755046
 20
338.29944441437527
 30
0.0
 11
253.7466464755046
 21
338.29944441437527
 31
0.0
  0
LINE
  5
E45
  8
0
 10
255.7466464755046
 20
338.36194441437527
 30
0.0
 11
253.7466464755046
 21
338.36194441437527
 31
0.0
  0
LINE
  5
E46
  8
0
 10
255.7466464755046
 20
338.42444441437527
 30
0.0
 11
253.7466464755046
 21
338.42444441437527
 31
0.0
  0
LINE
  5
E47
  8
0
 10
255.7466464755046
 20
338.48694441437527
 30
0.0
 11
253.7466464755046
 21
338.48694441437527
 31
0.0
  0
LINE
  5
E48
  8
0
 10
255.7466464755046
 20
338.54944441437527
 30
0.0
 11
253.7466464755046
 21
338.54944441437527
 31
0.0
  0
LINE
  5
E49
  8
0
 10
255.7466464755046
 20
338.61194441437527
 30
0.0
 11
253.7466464755046
 21
338.61194441437527
 31
0.0
  0
LINE
  5
E4A
  8
0
 10
255.7466464755046
 20
338.67444441437527
 30
0.0
 11
253.7466464755046
 21
338.67444441437527
 31
0.0
  0
LINE
  5
E4B
  8
0
 10
255.7466464755046
 20
338.73694441437527
 30
0.0
 11
253.7466464755046
 21
338.73694441437527
 31
0.0
  0
LINE
  5
E4C
  8
0
 10
255.7466464755046
 20
338.79944441437527
 30
0.0
 11
253.7466464755046
 21
338.79944441437527
 31
0.0
  0
LINE
  5
E4D
  8
0
 10
255.7466464755046
 20
338.86194441437527
 30
0.0
 11
253.7466464755046
 21
338.86194441437527
 31
0.0
  0
LINE
  5
E4E
  8
0
 10
255.7466464755046
 20
338.92444441437527
 30
0.0
 11
253.7466464755046
 21
338.92444441437527
 31
0.0
  0
LINE
  5
E4F
  8
0
 10
255.7466464755046
 20
338.98694441437527
 30
0.0
 11
253.7466464755046
 21
338.98694441437527
 31
0.0
  0
LINE
  5
E50
  8
0
 10
255.7466464755046
 20
339.04944441437527
 30
0.0
 11
253.7466464755046
 21
339.04944441437527
 31
0.0
  0
LINE
  5
E51
  8
0
 10
255.7466464755046
 20
339.11194441437527
 30
0.0
 11
253.7466464755046
 21
339.11194441437527
 31
0.0
  0
LINE
  5
E52
  8
0
 10
255.7466464755046
 20
339.17444441437527
 30
0.0
 11
253.7466464755046
 21
339.17444441437527
 31
0.0
  0
LINE
  5
E53
  8
0
 10
255.7466464755046
 20
339.23694441437527
 30
0.0
 11
253.7466464755046
 21
339.23694441437527
 31
0.0
  0
LINE
  5
E54
  8
0
 10
255.7466464755046
 20
339.29944441437527
 30
0.0
 11
253.7466464755046
 21
339.29944441437527
 31
0.0
  0
LINE
  5
E55
  8
0
 10
255.7466464755046
 20
339.36194441437527
 30
0.0
 11
253.7466464755046
 21
339.36194441437527
 31
0.0
  0
LINE
  5
E56
  8
0
 10
255.7466464755046
 20
339.42444441437527
 30
0.0
 11
253.7466464755046
 21
339.42444441437527
 31
0.0
  0
LINE
  5
E57
  8
0
 10
255.7466464755046
 20
339.48694441437527
 30
0.0
 11
253.7466464755046
 21
339.48694441437527
 31
0.0
  0
LINE
  5
E58
  8
0
 10
255.7466464755046
 20
339.54944441437527
 30
0.0
 11
253.7466464755046
 21
339.54944441437527
 31
0.0
  0
LINE
  5
E59
  8
0
 10
255.7466464755046
 20
339.61194441437527
 30
0.0
 11
253.7466464755046
 21
339.61194441437527
 31
0.0
  0
LINE
  5
E5A
  8
0
 10
255.7466464755046
 20
339.67444441437527
 30
0.0
 11
253.7466464755046
 21
339.67444441437527
 31
0.0
  0
LINE
  5
E5B
  8
0
 10
255.7466464755046
 20
339.73694441437527
 30
0.0
 11
253.7466464755046
 21
339.73694441437527
 31
0.0
  0
LINE
  5
E5C
  8
0
 10
255.7466464755046
 20
339.79944441437527
 30
0.0
 11
253.7466464755046
 21
339.79944441437527
 31
0.0
  0
LINE
  5
E5D
  8
0
 10
255.7466464755046
 20
339.86194441437527
 30
0.0
 11
253.7466464755046
 21
339.86194441437527
 31
0.0
  0
LINE
  5
E5E
  8
0
 10
255.7466464755046
 20
339.92444441437527
 30
0.0
 11
253.7466464755046
 21
339.92444441437527
 31
0.0
  0
LINE
  5
E5F
  8
0
 10
255.7466464755046
 20
339.98694441437527
 30
0.0
 11
253.7466464755046
 21
339.98694441437527
 31
0.0
  0
LINE
  5
E60
  8
0
 10
255.7466464755046
 20
340.04944441437527
 30
0.0
 11
253.7466464755046
 21
340.04944441437527
 31
0.0
  0
LINE
  5
E61
  8
0
 10
255.7466464755046
 20
340.11194441437527
 30
0.0
 11
253.7466464755046
 21
340.11194441437527
 31
0.0
  0
LINE
  5
E62
  8
0
 10
255.7466464755046
 20
340.17444441437527
 30
0.0
 11
253.7466464755046
 21
340.17444441437527
 31
0.0
  0
LINE
  5
E63
  8
0
 10
255.7466464755046
 20
335.67444441437527
 30
0.0
 11
253.7466464755046
 21
335.67444441437527
 31
0.0
  0
LINE
  5
E64
  8
0
 10
255.7466464755046
 20
335.61194441437527
 30
0.0
 11
253.7466464755046
 21
335.61194441437527
 31
0.0
  0
LINE
  5
E65
  8
0
 10
255.7466464755046
 20
335.54944441437527
 30
0.0
 11
253.7466464755046
 21
335.54944441437527
 31
0.0
  0
LINE
  5
E66
  8
0
 10
255.7466464755046
 20
335.48694441437527
 30
0.0
 11
253.7466464755046
 21
335.48694441437527
 31
0.0
  0
LINE
  5
E67
  8
0
 10
255.7466464755046
 20
335.42444441437527
 30
0.0
 11
253.7466464755046
 21
335.42444441437527
 31
0.0
  0
LINE
  5
E68
  8
0
 10
255.7466464755046
 20
335.36194441437527
 30
0.0
 11
253.7466464755046
 21
335.36194441437527
 31
0.0
  0
LINE
  5
E69
  8
0
 10
255.7466464755046
 20
335.29944441437527
 30
0.0
 11
253.7466464755046
 21
335.29944441437527
 31
0.0
  0
LINE
  5
E6A
  8
0
 10
255.7466464755046
 20
335.23694441437527
 30
0.0
 11
253.7466464755046
 21
335.23694441437527
 31
0.0
  0
LINE
  5
E6B
  8
0
 10
255.7466464755046
 20
335.17444441437527
 30
0.0
 11
253.7466464755046
 21
335.17444441437527
 31
0.0
  0
LINE
  5
E6C
  8
0
 10
255.7466464755046
 20
335.11194441437527
 30
0.0
 11
253.7466464755046
 21
335.11194441437527
 31
0.0
  0
LINE
  5
E6D
  8
0
 10
255.7466464755046
 20
335.04944441437527
 30
0.0
 11
253.7466464755046
 21
335.04944441437527
 31
0.0
  0
LINE
  5
E6E
  8
0
 10
255.7466464755046
 20
334.98694441437527
 30
0.0
 11
253.7466464755046
 21
334.98694441437527
 31
0.0
  0
LINE
  5
E6F
  8
0
 10
255.7466464755046
 20
334.92444441437527
 30
0.0
 11
253.7466464755046
 21
334.92444441437527
 31
0.0
  0
LINE
  5
E70
  8
0
 10
255.7466464755046
 20
334.86194441437527
 30
0.0
 11
253.7466464755046
 21
334.86194441437527
 31
0.0
  0
LINE
  5
E71
  8
0
 10
255.7466464755046
 20
334.79944441437527
 30
0.0
 11
253.7466464755046
 21
334.79944441437527
 31
0.0
  0
LINE
  5
E72
  8
0
 10
255.7466464755046
 20
334.73694441437527
 30
0.0
 11
253.7466464755046
 21
334.73694441437527
 31
0.0
  0
LINE
  5
E73
  8
0
 10
255.7466464755046
 20
334.67444441437527
 30
0.0
 11
253.7466464755046
 21
334.67444441437527
 31
0.0
  0
LINE
  5
E74
  8
0
 10
255.7466464755046
 20
334.61194441437527
 30
0.0
 11
253.7466464755046
 21
334.61194441437527
 31
0.0
  0
LINE
  5
E75
  8
0
 10
255.7466464755046
 20
334.54944441437527
 30
0.0
 11
253.7466464755046
 21
334.54944441437527
 31
0.0
  0
LINE
  5
E76
  8
0
 10
255.7466464755046
 20
334.48694441437527
 30
0.0
 11
253.7466464755046
 21
334.48694441437527
 31
0.0
  0
LINE
  5
E77
  8
0
 10
255.7466464755046
 20
334.42444441437527
 30
0.0
 11
253.7466464755046
 21
334.42444441437527
 31
0.0
  0
LINE
  5
E78
  8
0
 10
255.7466464755046
 20
334.36194441437527
 30
0.0
 11
253.7466464755046
 21
334.36194441437527
 31
0.0
  0
LINE
  5
E79
  8
0
 10
255.7466464755046
 20
335.73694441437527
 30
0.0
 11
253.7466464755046
 21
335.73694441437527
 31
0.0
  0
LINE
  5
E7A
  8
0
 10
255.7466464755046
 20
335.79944441437527
 30
0.0
 11
253.7466464755046
 21
335.79944441437527
 31
0.0
  0
LINE
  5
E7B
  8
0
 10
255.7466464755046
 20
335.86194441437527
 30
0.0
 11
253.7466464755046
 21
335.86194441437527
 31
0.0
  0
LINE
  5
E7C
  8
0
 10
255.7466464755046
 20
335.92444441437527
 30
0.0
 11
253.7466464755046
 21
335.92444441437527
 31
0.0
  0
LINE
  5
E7D
  8
0
 10
255.7466464755046
 20
331.11194441437527
 30
0.0
 11
253.7466464755046
 21
331.11194441437527
 31
0.0
  0
LINE
  5
E7E
  8
0
 10
255.7466464755046
 20
331.04944441437527
 30
0.0
 11
253.7466464755046
 21
331.04944441437527
 31
0.0
  0
LINE
  5
E7F
  8
0
 10
255.7466464755046
 20
330.98694441437527
 30
0.0
 11
253.7466464755046
 21
330.98694441437527
 31
0.0
  0
LINE
  5
E80
  8
0
 10
255.7466464755046
 20
330.92444441437527
 30
0.0
 11
253.7466464755046
 21
330.92444441437527
 31
0.0
  0
LINE
  5
E81
  8
0
 10
255.7466464755046
 20
330.86194441437527
 30
0.0
 11
253.7466464755046
 21
330.86194441437527
 31
0.0
  0
LINE
  5
E82
  8
0
 10
255.7466464755046
 20
330.79944441437527
 30
0.0
 11
253.7466464755046
 21
330.79944441437527
 31
0.0
  0
LINE
  5
E83
  8
0
 10
255.7466464755046
 20
333.92444441437527
 30
0.0
 11
253.7466464755046
 21
333.92444441437527
 31
0.0
  0
LINE
  5
E84
  8
0
 10
255.7466464755046
 20
333.86194441437527
 30
0.0
 11
253.7466464755046
 21
333.86194441437527
 31
0.0
  0
LINE
  5
E85
  8
0
 10
255.7466464755046
 20
333.79944441437527
 30
0.0
 11
253.7466464755046
 21
333.79944441437527
 31
0.0
  0
LINE
  5
E86
  8
0
 10
255.7466464755046
 20
333.73694441437527
 30
0.0
 11
253.7466464755046
 21
333.73694441437527
 31
0.0
  0
LINE
  5
E87
  8
0
 10
255.7466464755046
 20
333.67444441437527
 30
0.0
 11
253.7466464755046
 21
333.67444441437527
 31
0.0
  0
LINE
  5
E88
  8
0
 10
255.7466464755046
 20
333.61194441437527
 30
0.0
 11
253.7466464755046
 21
333.61194441437527
 31
0.0
  0
LINE
  5
E89
  8
0
 10
255.7466464755046
 20
333.54944441437527
 30
0.0
 11
253.7466464755046
 21
333.54944441437527
 31
0.0
  0
LINE
  5
E8A
  8
0
 10
255.7466464755046
 20
333.48694441437527
 30
0.0
 11
253.7466464755046
 21
333.48694441437527
 31
0.0
  0
LINE
  5
E8B
  8
0
 10
255.7466464755046
 20
333.42444441437527
 30
0.0
 11
253.7466464755046
 21
333.42444441437527
 31
0.0
  0
LINE
  5
E8C
  8
0
 10
255.7466464755046
 20
333.36194441437527
 30
0.0
 11
253.7466464755046
 21
333.36194441437527
 31
0.0
  0
LINE
  5
E8D
  8
0
 10
255.7466464755046
 20
333.29944441437527
 30
0.0
 11
253.7466464755046
 21
333.29944441437527
 31
0.0
  0
LINE
  5
E8E
  8
0
 10
255.7466464755046
 20
333.23694441437527
 30
0.0
 11
253.7466464755046
 21
333.23694441437527
 31
0.0
  0
LINE
  5
E8F
  8
0
 10
255.7466464755046
 20
333.17444441437527
 30
0.0
 11
253.7466464755046
 21
333.17444441437527
 31
0.0
  0
LINE
  5
E90
  8
0
 10
255.7466464755046
 20
333.11194441437527
 30
0.0
 11
253.7466464755046
 21
333.11194441437527
 31
0.0
  0
LINE
  5
E91
  8
0
 10
255.7466464755046
 20
333.04944441437527
 30
0.0
 11
253.7466464755046
 21
333.04944441437527
 31
0.0
  0
LINE
  5
E92
  8
0
 10
255.7466464755046
 20
332.98694441437527
 30
0.0
 11
253.7466464755046
 21
332.98694441437527
 31
0.0
  0
LINE
  5
E93
  8
0
 10
255.7466464755046
 20
332.92444441437527
 30
0.0
 11
253.7466464755046
 21
332.92444441437527
 31
0.0
  0
LINE
  5
E94
  8
0
 10
255.7466464755046
 20
332.86194441437527
 30
0.0
 11
253.7466464755046
 21
332.86194441437527
 31
0.0
  0
LINE
  5
E95
  8
0
 10
255.7466464755046
 20
332.79944441437527
 30
0.0
 11
253.7466464755046
 21
332.79944441437527
 31
0.0
  0
LINE
  5
E96
  8
0
 10
255.7466464755046
 20
332.73694441437527
 30
0.0
 11
253.7466464755046
 21
332.73694441437527
 31
0.0
  0
LINE
  5
E97
  8
0
 10
255.7466464755046
 20
332.67444441437527
 30
0.0
 11
253.7466464755046
 21
332.67444441437527
 31
0.0
  0
LINE
  5
E98
  8
0
 10
255.7466464755046
 20
332.61194441437527
 30
0.0
 11
253.7466464755046
 21
332.61194441437527
 31
0.0
  0
LINE
  5
E99
  8
0
 10
255.7466464755046
 20
332.54944441437527
 30
0.0
 11
253.7466464755046
 21
332.54944441437527
 31
0.0
  0
LINE
  5
E9A
  8
0
 10
255.7466464755046
 20
332.48694441437527
 30
0.0
 11
253.7466464755046
 21
332.48694441437527
 31
0.0
  0
LINE
  5
E9B
  8
0
 10
255.7466464755046
 20
332.42444441437527
 30
0.0
 11
253.7466464755046
 21
332.42444441437527
 31
0.0
  0
LINE
  5
E9C
  8
0
 10
255.7466464755046
 20
332.36194441437527
 30
0.0
 11
253.7466464755046
 21
332.36194441437527
 31
0.0
  0
LINE
  5
E9D
  8
0
 10
255.7466464755046
 20
332.29944441437527
 30
0.0
 11
253.7466464755046
 21
332.29944441437527
 31
0.0
  0
LINE
  5
E9E
  8
0
 10
255.7466464755046
 20
332.23694441437527
 30
0.0
 11
253.7466464755046
 21
332.23694441437527
 31
0.0
  0
LINE
  5
E9F
  8
0
 10
255.7466464755046
 20
332.17444441437527
 30
0.0
 11
253.7466464755046
 21
332.17444441437527
 31
0.0
  0
LINE
  5
EA0
  8
0
 10
255.7466464755046
 20
332.11194441437527
 30
0.0
 11
253.7466464755046
 21
332.11194441437527
 31
0.0
  0
LINE
  5
EA1
  8
0
 10
255.7466464755046
 20
332.04944441437527
 30
0.0
 11
253.7466464755046
 21
332.04944441437527
 31
0.0
  0
LINE
  5
EA2
  8
0
 10
255.7466464755046
 20
331.98694441437527
 30
0.0
 11
253.7466464755046
 21
331.98694441437527
 31
0.0
  0
LINE
  5
EA3
  8
0
 10
255.7466464755046
 20
331.92444441437527
 30
0.0
 11
253.7466464755046
 21
331.92444441437527
 31
0.0
  0
LINE
  5
EA4
  8
0
 10
255.7466464755046
 20
331.86194441437527
 30
0.0
 11
253.7466464755046
 21
331.86194441437527
 31
0.0
  0
LINE
  5
EA5
  8
0
 10
255.7466464755046
 20
331.79944441437527
 30
0.0
 11
253.7466464755046
 21
331.79944441437527
 31
0.0
  0
LINE
  5
EA6
  8
0
 10
255.7466464755046
 20
331.73694441437527
 30
0.0
 11
253.7466464755046
 21
331.73694441437527
 31
0.0
  0
LINE
  5
EA7
  8
0
 10
255.7466464755046
 20
331.67444441437527
 30
0.0
 11
253.7466464755046
 21
331.67444441437527
 31
0.0
  0
LINE
  5
EA8
  8
0
 10
255.7466464755046
 20
331.61194441437527
 30
0.0
 11
253.7466464755046
 21
331.61194441437527
 31
0.0
  0
LINE
  5
EA9
  8
0
 10
255.7466464755046
 20
331.54944441437527
 30
0.0
 11
253.7466464755046
 21
331.54944441437527
 31
0.0
  0
LINE
  5
EAA
  8
0
 10
255.7466464755046
 20
331.48694441437527
 30
0.0
 11
253.7466464755046
 21
331.48694441437527
 31
0.0
  0
LINE
  5
EAB
  8
0
 10
255.7466464755046
 20
331.42444441437527
 30
0.0
 11
253.7466464755046
 21
331.42444441437527
 31
0.0
  0
LINE
  5
EAC
  8
0
 10
255.7466464755046
 20
331.36194441437527
 30
0.0
 11
253.7466464755046
 21
331.36194441437527
 31
0.0
  0
LINE
  5
EAD
  8
0
 10
255.7466464755046
 20
331.29944441437527
 30
0.0
 11
253.7466464755046
 21
331.29944441437527
 31
0.0
  0
LINE
  5
EAE
  8
0
 10
255.7466464755046
 20
331.23694441437527
 30
0.0
 11
253.7466464755046
 21
331.23694441437527
 31
0.0
  0
LINE
  5
EAF
  8
0
 10
255.7466464755046
 20
331.17444441437527
 30
0.0
 11
253.7466464755046
 21
331.17444441437527
 31
0.0
  0
LINE
  5
EB0
  8
0
 10
255.7466464755046
 20
334.29944441437527
 30
0.0
 11
253.7466464755046
 21
334.29944441437527
 31
0.0
  0
LINE
  5
EB1
  8
0
 10
255.7466464755046
 20
334.23694441437527
 30
0.0
 11
253.7466464755046
 21
334.23694441437527
 31
0.0
  0
LINE
  5
EB2
  8
0
 10
255.7466464755046
 20
334.17444441437527
 30
0.0
 11
253.7466464755046
 21
334.17444441437527
 31
0.0
  0
LINE
  5
EB3
  8
0
 10
255.7466464755046
 20
334.11194441437527
 30
0.0
 11
253.7466464755046
 21
334.11194441437527
 31
0.0
  0
LINE
  5
EB4
  8
0
 10
255.7466464755046
 20
334.04944441437527
 30
0.0
 11
253.7466464755046
 21
334.04944441437527
 31
0.0
  0
LINE
  5
EB5
  8
0
 10
255.7466464755046
 20
333.98694441437527
 30
0.0
 11
253.7466464755046
 21
333.98694441437527
 31
0.0
  0
LINE
  5
EB6
  8
0
 10
253.7466464755046
 20
356.69637948389578
 30
0.0
 11
230.9784666207556
 21
350.59566407868908
 31
0.0
210
-1.0
220
0.0
230
0.0
1001
ACAD
1000
ASC_BOUNDS
1002
{
1070
    19
1002
}
  0
LINE
  5
EB7
  8
0
 10
253.7466464755046
 20
354.69630469765349
 30
0.0
 11
229.0567683183078
 21
348.08067178420958
 31
0.0
210
-1.0
220
0.0
230
0.0
1001
ACAD
1000
ASC_BOUNDS
1002
{
1070
    19
1002
}
  0
LINE
  5
EB8
  8
0
 10
229.3089062011731
 20
344.06684460958218
 30
0.0
 11
229.07126229542061
 21
343.82920070383
 31
0.0
  0
LINE
  5
EB9
  8
0
 10
229.06275643016059
 20
344.4463794889586
 30
0.0
 11
229.05922042121449
 21
348.08388093515072
 31
0.0
1001
ACAD
1000
ASC_BOUNDS
1002
{
1070
    19
1002
}
  0
LINE
  5
EBA
  8
0
 10
230.97846662075531
 20
350.59566407868869
 30
0.0
 11
229.0567683183078
 21
348.08067178420958
 31
0.0
1001
ACAD
1000
ASC_BOUNDS
1002
{
1070
    19
1002
}
  0
LINE
  5
EBB
  8
0
 10
254.2466464755046
 20
347.1963741420368
 30
0.0
 11
255.7466464755046
 21
347.1963741420368
 31
0.0
1001
ACAD
1000
ASC_BOUNDS
1002
{
1070
    19
1002
}
  0
LINE
  5
EBC
  8
0
 10
255.7466464755046
 20
346.04944441437527
 30
0.0
 11
254.2466464755046
 21
346.04944441437527
 31
0.0
  0
LINE
  5
EBD
  8
0
 10
255.7466464755046
 20
346.11194441437527
 30
0.0
 11
254.2466464755046
 21
346.11194441437527
 31
0.0
  0
LINE
  5
EBE
  8
0
 10
255.7466464755046
 20
346.17444441437527
 30
0.0
 11
254.2466464755046
 21
346.17444441437527
 31
0.0
  0
LINE
  5
EBF
  8
0
 10
255.7466464755046
 20
346.23694441437527
 30
0.0
 11
254.2466464755046
 21
346.23694441437527
 31
0.0
  0
LINE
  5
EC0
  8
0
 10
255.7466464755046
 20
346.29944441437527
 30
0.0
 11
254.2466464755046
 21
346.29944441437527
 31
0.0
  0
LINE
  5
EC1
  8
0
 10
255.7466464755046
 20
346.36194441437527
 30
0.0
 11
254.2466464755046
 21
346.36194441437527
 31
0.0
  0
LINE
  5
EC2
  8
0
 10
255.7466464755046
 20
346.42444441437527
 30
0.0
 11
254.2466464755046
 21
346.42444441437522
 31
0.0
  0
LINE
  5
EC3
  8
0
 10
255.7466464755046
 20
346.48694441437527
 30
0.0
 11
254.2466464755046
 21
346.48694441437522
 31
0.0
  0
LINE
  5
EC4
  8
0
 10
255.7466464755046
 20
346.54944441437527
 30
0.0
 11
254.2466464755046
 21
346.54944441437522
 31
0.0
  0
LINE
  5
EC5
  8
0
 10
255.7466464755046
 20
346.61194441437527
 30
0.0
 11
254.2466464755046
 21
346.61194441437522
 31
0.0
  0
LINE
  5
EC6
  8
0
 10
255.7466464755046
 20
346.67444441437527
 30
0.0
 11
254.2466464755046
 21
346.67444441437522
 31
0.0
  0
LINE
  5
EC7
  8
0
 10
255.7466464755046
 20
346.73694441437527
 30
0.0
 11
254.2466464755046
 21
346.73694441437522
 31
0.0
  0
LINE
  5
EC8
  8
0
 10
255.7466464755046
 20
346.79944441437527
 30
0.0
 11
254.2466464755046
 21
346.79944441437522
 31
0.0
  0
LINE
  5
EC9
  8
0
 10
255.7466464755046
 20
346.86194441437527
 30
0.0
 11
254.2466464755046
 21
346.86194441437522
 31
0.0
  0
LINE
  5
ECA
  8
0
 10
255.7466464755046
 20
346.92444441437527
 30
0.0
 11
254.2466464755046
 21
346.92444441437522
 31
0.0
  0
LINE
  5
ECB
  8
0
 10
255.7466464755046
 20
346.98694441437527
 30
0.0
 11
254.2466464755046
 21
346.98694441437522
 31
0.0
  0
LINE
  5
ECC
  8
0
 10
255.7466464755046
 20
347.04944441437527
 30
0.0
 11
254.2466464755046
 21
347.04944441437522
 31
0.0
  0
LINE
  5
ECD
  8
0
 10
255.7466464755046
 20
347.11194441437527
 30
0.0
 11
254.2466464755046
 21
347.11194441437522
 31
0.0
  0
LINE
  5
ECE
  8
0
 10
255.7466464755046
 20
347.17444441437527
 30
0.0
 11
254.2466464755046
 21
347.17444441437522
 31
0.0
  0
LINE
  5
ECF
  8
0
 10
255.7466464755046
 20
344.61194441437522
 30
0.0
 11
254.2466464755046
 21
344.61194441437527
 31
0.0
  0
LINE
  5
ED0
  8
0
 10
255.7466464755046
 20
344.67444441437522
 30
0.0
 11
254.2466464755046
 21
344.67444441437527
 31
0.0
  0
LINE
  5
ED1
  8
0
 10
255.7466464755046
 20
344.73694441437522
 30
0.0
 11
254.2466464755046
 21
344.73694441437527
 31
0.0
  0
LINE
  5
ED2
  8
0
 10
255.7466464755046
 20
344.79944441437522
 30
0.0
 11
254.2466464755046
 21
344.79944441437527
 31
0.0
  0
LINE
  5
ED3
  8
0
 10
255.7466464755046
 20
344.86194441437522
 30
0.0
 11
254.2466464755046
 21
344.86194441437527
 31
0.0
  0
LINE
  5
ED4
  8
0
 10
255.7466464755046
 20
344.92444441437522
 30
0.0
 11
254.2466464755046
 21
344.92444441437527
 31
0.0
  0
LINE
  5
ED5
  8
0
 10
255.7466464755046
 20
344.98694441437522
 30
0.0
 11
254.2466464755046
 21
344.98694441437527
 31
0.0
  0
LINE
  5
ED6
  8
0
 10
255.7466464755046
 20
345.04944441437522
 30
0.0
 11
254.2466464755046
 21
345.04944441437527
 31
0.0
  0
LINE
  5
ED7
  8
0
 10
255.7466464755046
 20
345.11194441437522
 30
0.0
 11
254.2466464755046
 21
345.11194441437527
 31
0.0
  0
LINE
  5
ED8
  8
0
 10
255.7466464755046
 20
345.17444441437522
 30
0.0
 11
254.2466464755046
 21
345.17444441437527
 31
0.0
  0
LINE
  5
ED9
  8
0
 10
255.7466464755046
 20
345.23694441437527
 30
0.0
 11
254.2466464755046
 21
345.23694441437527
 31
0.0
  0
LINE
  5
EDA
  8
0
 10
255.7466464755046
 20
345.29944441437527
 30
0.0
 11
254.2466464755046
 21
345.29944441437527
 31
0.0
  0
LINE
  5
EDB
  8
0
 10
255.7466464755046
 20
345.36194441437527
 30
0.0
 11
254.2466464755046
 21
345.36194441437527
 31
0.0
  0
LINE
  5
EDC
  8
0
 10
255.7466464755046
 20
345.42444441437527
 30
0.0
 11
254.2466464755046
 21
345.42444441437527
 31
0.0
  0
LINE
  5
EDD
  8
0
 10
255.7466464755046
 20
345.48694441437527
 30
0.0
 11
254.2466464755046
 21
345.48694441437527
 31
0.0
  0
LINE
  5
EDE
  8
0
 10
255.7466464755046
 20
345.54944441437527
 30
0.0
 11
254.2466464755046
 21
345.54944441437527
 31
0.0
  0
LINE
  5
EDF
  8
0
 10
255.7466464755046
 20
345.61194441437527
 30
0.0
 11
254.2466464755046
 21
345.61194441437527
 31
0.0
  0
LINE
  5
EE0
  8
0
 10
255.7466464755046
 20
345.67444441437527
 30
0.0
 11
254.2466464755046
 21
345.67444441437527
 31
0.0
  0
LINE
  5
EE1
  8
0
 10
255.7466464755046
 20
345.73694441437527
 30
0.0
 11
254.2466464755046
 21
345.73694441437527
 31
0.0
  0
LINE
  5
EE2
  8
0
 10
255.7466464755046
 20
345.79944441437527
 30
0.0
 11
254.2466464755046
 21
345.79944441437527
 31
0.0
  0
LINE
  5
EE3
  8
0
 10
255.7466464755046
 20
345.86194441437527
 30
0.0
 11
254.2466464755046
 21
345.86194441437527
 31
0.0
  0
LINE
  5
EE4
  8
0
 10
255.7466464755046
 20
345.92444441437527
 30
0.0
 11
254.2466464755046
 21
345.92444441437527
 31
0.0
  0
LINE
  5
EE5
  8
0
 10
255.7466464755046
 20
345.98694441437527
 30
0.0
 11
254.2466464755046
 21
345.98694441437527
 31
0.0
  0
LINE
  5
EE6
  8
0
 10
254.2466464755046
 20
344.59637414203678
 30
0.0
 11
254.2466464755046
 21
347.1963741420368
 31
0.0
1001
ACAD
1000
ASC_BOUNDS
1002
{
1070
    19
1002
}
  0
LINE
  5
EE7
  8
0
 10
255.7466464755046
 20
341.79944441437527
 30
0.0
 11
253.7466464755046
 21
341.79944441437527
 31
0.0
  0
LINE
  5
EE8
  8
0
 10
255.7466464755046
 20
341.86194441437527
 30
0.0
 11
253.7466464755046
 21
341.86194441437527
 31
0.0
  0
LINE
  5
EE9
  8
0
 10
255.7466464755046
 20
341.92444441437527
 30
0.0
 11
253.7466464755046
 21
341.92444441437527
 31
0.0
  0
LINE
  5
EEA
  8
0
 10
255.7466464755046
 20
341.98694441437527
 30
0.0
 11
253.7466464755046
 21
341.98694441437527
 31
0.0
  0
LINE
  5
EEB
  8
0
 10
255.7466464755046
 20
342.04944441437527
 30
0.0
 11
253.7466464755046
 21
342.04944441437527
 31
0.0
  0
LINE
  5
EEC
  8
0
 10
255.7466464755046
 20
342.11194441437527
 30
0.0
 11
253.7466464755046
 21
342.11194441437527
 31
0.0
  0
LINE
  5
EED
  8
0
 10
255.7466464755046
 20
342.17444441437527
 30
0.0
 11
253.7466464755046
 21
342.17444441437527
 31
0.0
  0
LINE
  5
EEE
  8
0
 10
255.7466464755046
 20
342.23694441437527
 30
0.0
 11
253.7466464755046
 21
342.23694441437527
 31
0.0
  0
LINE
  5
EEF
  8
0
 10
255.7466464755046
 20
342.29944441437527
 30
0.0
 11
253.7466464755046
 21
342.29944441437527
 31
0.0
  0
LINE
  5
EF0
  8
0
 10
255.7466464755046
 20
342.36194441437527
 30
0.0
 11
253.7466464755046
 21
342.36194441437527
 31
0.0
  0
LINE
  5
EF1
  8
0
 10
255.7466464755046
 20
342.42444441437527
 30
0.0
 11
253.7466464755046
 21
342.42444441437527
 31
0.0
  0
LINE
  5
EF2
  8
0
 10
255.7466464755046
 20
342.48694441437527
 30
0.0
 11
253.7466464755046
 21
342.48694441437527
 31
0.0
  0
LINE
  5
EF3
  8
0
 10
255.7466464755046
 20
342.54944441437527
 30
0.0
 11
253.7466464755046
 21
342.54944441437527
 31
0.0
  0
LINE
  5
EF4
  8
0
 10
255.7466464755046
 20
342.61194441437527
 30
0.0
 11
253.7466464755046
 21
342.61194441437527
 31
0.0
  0
LINE
  5
EF5
  8
0
 10
255.7466464755046
 20
342.67444441437539
 30
0.0
 11
253.7466464755046
 21
342.67444441437527
 31
0.0
  0
LINE
  5
EF6
  8
0
 10
255.7466464755046
 20
342.73694441437527
 30
0.0
 11
253.7466464755046
 21
342.73694441437527
 31
0.0
  0
LINE
  5
EF7
  8
0
 10
255.7466464755046
 20
342.79944441437527
 30
0.0
 11
253.7466464755046
 21
342.79944441437527
 31
0.0
  0
LINE
  5
EF8
  8
0
 10
255.7466464755046
 20
342.86194441437527
 30
0.0
 11
253.7466464755046
 21
342.86194441437527
 31
0.0
  0
LINE
  5
EF9
  8
0
 10
255.7466464755046
 20
342.92444441437527
 30
0.0
 11
253.7466464755046
 21
342.92444441437527
 31
0.0
  0
LINE
  5
EFA
  8
0
 10
255.7466464755046
 20
342.98694441437522
 30
0.0
 11
253.7466464755046
 21
342.98694441437527
 31
0.0
  0
LINE
  5
EFB
  8
0
 10
255.7466464755046
 20
343.04944441437522
 30
0.0
 11
253.7466464755046
 21
343.04944441437527
 31
0.0
  0
LINE
  5
EFC
  8
0
 10
255.7466464755046
 20
343.11194441437522
 30
0.0
 11
253.7466464755046
 21
343.11194441437527
 31
0.0
  0
LINE
  5
EFD
  8
0
 10
255.7466464755046
 20
343.17444441437522
 30
0.0
 11
253.7466464755046
 21
343.17444441437527
 31
0.0
  0
LINE
  5
EFE
  8
0
 10
255.7466464755046
 20
343.23694441437522
 30
0.0
 11
253.7466464755046
 21
343.23694441437527
 31
0.0
  0
LINE
  5
EFF
  8
0
 10
255.7466464755046
 20
343.29944441437522
 30
0.0
 11
253.7466464755046
 21
343.29944441437527
 31
0.0
  0
LINE
  5
F00
  8
0
 10
255.7466464755046
 20
343.36194441437522
 30
0.0
 11
253.7466464755046
 21
343.36194441437527
 31
0.0
  0
LINE
  5
F01
  8
0
 10
255.7466464755046
 20
343.42444441437522
 30
0.0
 11
253.7466464755046
 21
343.42444441437527
 31
0.0
  0
LINE
  5
F02
  8
0
 10
255.7466464755046
 20
343.48694441437522
 30
0.0
 11
253.7466464755046
 21
343.48694441437527
 31
0.0
  0
LINE
  5
F03
  8
0
 10
255.7466464755046
 20
343.54944441437522
 30
0.0
 11
253.7466464755046
 21
343.54944441437527
 31
0.0
  0
LINE
  5
F04
  8
0
 10
255.7466464755046
 20
343.61194441437522
 30
0.0
 11
253.7466464755046
 21
343.61194441437527
 31
0.0
  0
LINE
  5
F05
  8
0
 10
255.7466464755046
 20
343.67444441437522
 30
0.0
 11
253.7466464755046
 21
343.67444441437527
 31
0.0
  0
LINE
  5
F06
  8
0
 10
255.7466464755046
 20
343.73694441437522
 30
0.0
 11
253.7466464755046
 21
343.73694441437527
 31
0.0
  0
LINE
  5
F07
  8
0
 10
255.7466464755046
 20
343.79944441437522
 30
0.0
 11
253.7466464755046
 21
343.79944441437527
 31
0.0
  0
LINE
  5
F08
  8
0
 10
255.7466464755046
 20
343.86194441437522
 30
0.0
 11
253.7466464755046
 21
343.86194441437527
 31
0.0
  0
LINE
  5
F09
  8
0
 10
255.7466464755046
 20
343.92444441437522
 30
0.0
 11
253.7466464755046
 21
343.92444441437527
 31
0.0
  0
LINE
  5
F0A
  8
0
 10
255.7466464755046
 20
343.98694441437522
 30
0.0
 11
253.7466464755046
 21
343.98694441437527
 31
0.0
  0
LINE
  5
F0B
  8
0
 10
255.7466464755046
 20
344.04944441437522
 30
0.0
 11
253.7466464755046
 21
344.04944441437527
 31
0.0
  0
LINE
  5
F0C
  8
0
 10
255.7466464755046
 20
344.11194441437522
 30
0.0
 11
253.7466464755046
 21
344.11194441437527
 31
0.0
  0
LINE
  5
F0D
  8
0
 10
255.7466464755046
 20
344.17444441437522
 30
0.0
 11
253.7466464755046
 21
344.17444441437527
 31
0.0
  0
LINE
  5
F0E
  8
0
 10
255.7466464755046
 20
344.23694441437522
 30
0.0
 11
253.7466464755046
 21
344.23694441437527
 31
0.0
  0
LINE
  5
F0F
  8
0
 10
255.7466464755046
 20
344.29944441437522
 30
0.0
 11
253.7466464755046
 21
344.29944441437527
 31
0.0
  0
LINE
  5
F10
  8
0
 10
255.7466464755046
 20
344.36194441437522
 30
0.0
 11
253.7466464755046
 21
344.36194441437527
 31
0.0
  0
LINE
  5
F11
  8
0
 10
255.7466464755046
 20
344.42444441437522
 30
0.0
 11
253.7466464755046
 21
344.42444441437527
 31
0.0
  0
LINE
  5
F12
  8
0
 10
255.7466464755046
 20
344.48694441437522
 30
0.0
 11
253.7466464755046
 21
344.48694441437527
 31
0.0
  0
LINE
  5
F13
  8
0
 10
255.7466464755046
 20
344.54944441437522
 30
0.0
 11
253.7466464755046
 21
344.54944441437527
 31
0.0
  0
LINE
  5
F14
  8
0
 10
254.2466464755046
 20
344.59637414203678
 30
0.0
 11
253.7466464755046
 21
344.59637414203678
 31
0.0
1001
ACAD
1000
ASC_BOUNDS
1002
{
1070
    19
1002
}
  0
LINE
  5
F15
  8
0
 10
255.7466464755046
 20
341.61194441437527
 30
0.0
 11
253.7466464755046
 21
341.61194441437527
 31
0.0
  0
LINE
  5
F16
  8
0
 10
255.7466464755046
 20
341.67444441437527
 30
0.0
 11
253.7466464755046
 21
341.67444441437527
 31
0.0
  0
LINE
  5
F17
  8
0
 10
255.7466464755046
 20
341.73694441437527
 30
0.0
 11
253.7466464755046
 21
341.73694441437527
 31
0.0
  0
LINE
  5
F18
  8
0
 10
253.74671410812999
 20
353.29639760600321
 30
0.0
 11
253.74669699675539
 21
353.29639302102419
 31
0.0
210
-1.0
220
0.0
230
0.0
  0
LINE
  5
F19
  8
0
 10
276.74646263807551
 20
340.55281540659922
 30
0.0
 11
273.74646263807551
 21
341.6963741420368
 31
0.0
  0
LINE
  5
F1A
  8
0
 10
261.15921788824983
 20
341.77533250659138
 30
0.0
 11
261.15921776972073
 21
339.64998838634813
 31
0.0
  0
LINE
  5
F1B
  8
0
 10
273.74646263807551
 20
329.69637414203692
 30
0.0
 11
273.74646263807551
 21
341.6963741420368
 31
0.0
  0
ARC
  5
F1C
  8
0
 10
276.17553066370402
 20
340.68051698335199
 30
0.0
 40
13.659786472529619
 50
158.59996093118119
 51
201.40003906881881
  0
LINE
  5
F1D
  8
0
 10
259.4290576192941
 20
341.16009459146699
 30
0.0
 11
260.38446134717839
 21
343.80945567324682
 31
0.0
  0
LINE
  5
F1E
  8
0
 10
259.28228274254502
 20
341.0560534766251
 30
0.0
 11
262.22581624655197
 21
343.14257205606242
 31
0.0
  0
LINE
  5
F1F
  8
0
 10
262.4838728531488
 20
342.7143118627709
 30
0.0
 11
259.54033934118058
 21
340.62779327853622
 31
0.0
  0
ARC
  5
F20
  8
0
 10
258.85739491830782
 20
340.68051698335199
 30
0.0
 40
13.659786472529619
 50
338.59996093118122
 51
21.400039068818781
  0
ARC
  5
F21
  8
0
 10
258.85739491830782
 20
330.71222201518469
 30
0.0
 40
13.659786472529619
 50
338.59996093118122
 51
21.400039068818781
  0
LINE
  5
F22
  8
0
 10
261.15921737972542
 20
332.65698856329072
 30
0.0
 11
261.15921725832152
 21
330.48009565268569
 31
0.0
  0
LINE
  5
F23
  8
0
 10
260.1576301928269
 20
331.6172941853572
 30
0.0
 11
261.3958928554581
 21
330.21137498819689
 31
0.0
  0
LINE
  5
F24
  8
0
 10
262.5164635013752
 20
340.82069804519011
 30
0.0
 11
262.51646340611512
 21
330.57205023568241
 31
0.0
  0
ARC
  5
F25
  8
0
 10
276.17553066370402
 20
330.71222201518469
 30
0.0
 40
13.659786472529619
 50
158.59996093118119
 51
201.40003906881881
  0
LINE
  5
F26
  8
0
 10
260.96781218554298
 20
330.00305488846192
 30
0.0
 11
259.86477113228511
 21
331.30719303287202
 31
0.0
  0
LINE
  5
F27
  8
0
 10
263.45751042360018
 20
325.72807438019078
 30
0.0
 11
271.57541515841149
 21
325.72807407837053
 31
0.0
  0
LINE
  5
F28
  8
0
 10
262.4243552169732
 20
330.71186332318092
 30
0.0
 11
262.60915017942648
 21
330.24726583371472
 31
0.0
  0
LINE
  5
F29
  8
3
 10
262.51592491618209
 20
330.64195611041202
 30
0.0
 11
261.17363316939179
 21
330.64195611041202
 31
0.0
  0
LINE
  5
F2A
  8
0
 10
261.15921720598641
 20
329.54167410132158
 30
0.0
 11
261.15921698278919
 21
325.53952931864308
 31
0.0
  0
LINE
  5
F2B
  8
0
 10
261.15921708597313
 20
327.3897179840643
 30
0.0
 11
259.6539127895478
 21
328.79665675335548
 31
0.0
  0
LINE
  5
F2C
  8
0
 10
260.06418980913418
 20
329.00879272534348
 30
0.0
 11
261.1592171214391
 21
328.0256570644957
 31
0.0
  0
LINE
  5
F2D
  8
0
 10
260.38436997510541
 20
328.11393198062422
 30
0.0
 11
260.38436985546139
 21
325.53952940856192
 31
0.0
  0
LINE
  5
F2E
  8
0
 10
261.15921698278919
 20
325.5395293388886
 30
0.0
 11
260.38436985546139
 21
325.53952940856192
 31
0.0
  0
LINE
  5
F2F
  8
0
 10
259.36486715476428
 20
328.66847610917068
 30
0.0
 11
259.18007220094802
 21
329.13307360207227
 31
0.0
  0
LINE
  5
F30
  8
0
 10
262.55356973387723
 20
329.6963741420368
 30
0.0
 11
261.6114022477326
 21
329.6963741420368
 31
0.0
  0
LINE
  5
F31
  8
0
 10
262.55356973387762
 20
329.6963741420368
 30
0.0
 11
262.34129840248858
 21
329.6963741420368
 31
0.0
  0
LINE
  5
F32
  8
0
 10
262.60915017942648
 20
330.24726583371472
 30
0.0
 11
261.15921711090039
 21
327.8366896308118
 31
0.0
  0
LINE
  5
F33
  8
0
 10
262.60915017942648
 20
330.24726583371472
 30
0.0
 11
259.36486715476428
 21
328.66847610917068
 31
0.0
  0
LINE
  5
F34
  8
0
 10
259.18007220094802
 20
329.13307360207227
 30
0.0
 11
262.4243552169732
 21
330.71186332318092
 31
0.0
  0
LINE
  5
F35
  8
0
 10
260.38437009495999
 20
330.69286519346952
 30
0.0
 11
260.38437004970621
 21
329.71913007599301
 31
0.0
  0
LINE
  5
F36
  8
0
 10
263.45751042360018
 20
335.6963696501785
 30
0.0
 11
271.57541515841149
 21
335.69636934835819
 31
0.0
  0
LINE
  5
F37
  8
0
 10
261.83010600887508
 20
340.47303991424872
 30
0.0
 11
262.19313403429459
 21
340.1292221454724
 31
0.0
  0
LINE
  5
F38
  8
0
 10
259.93641935014051
 20
340.90243882132859
 30
0.0
 11
261.10168224796712
 21
339.579403307755
 31
0.0
  0
LINE
  5
F39
  8
0
 10
260.80588087379368
 20
339.21651160872108
 30
0.0
 11
259.58527613849333
 21
340.6596466487552
 31
0.0
  0
LINE
  5
F3A
  8
0
 10
259.55048706525042
 20
337.6763835636371
 30
0.0
 11
261.83010600887508
 21
340.47303991424872
 31
0.0
  0
LINE
  5
F3B
  8
0
 10
262.19313403429459
 20
340.1292221454724
 30
0.0
 11
259.91351508427852
 21
337.33256578811211
 31
0.0
  0
LINE
  5
F3C
  8
0
 10
260.89651631784392
 20
336.188372923168
 30
0.0
 11
259.93398398972067
 21
337.32638598317669
 31
0.0
  0
LINE
  5
F3D
  8
0
 10
259.91351508427852
 20
337.33256578811211
 30
0.0
 11
259.55048706525042
 21
337.6763835636371
 31
0.0
  0
LINE
  5
F3E
  8
0
 10
260.19503154797781
 20
337.67793263457582
 30
0.0
 11
261.2059321530927
 21
336.53015954083492
 31
0.0
  0
LINE
  5
F3F
  8
0
 10
261.1592177257084
 20
338.86080462448018
 30
0.0
 11
261.15921759868769
 21
336.58319908632609
 31
0.0
  0
LINE
  5
F40
  8
0
 10
261.94021374380299
 20
337.30203406473112
 30
0.0
 11
262.28494025297192
 21
336.93986885485748
 31
0.0
  0
LINE
  5
F41
  8
0
 10
260.38437051425291
 20
339.71486816264769
 30
0.0
 11
260.38437046705951
 21
338.69939897498938
 31
0.0
  0
LINE
  5
F42
  8
0
 10
260.38437043038249
 20
337.91021522249213
 30
0.0
 11
260.3843704095965
 21
337.46295793788852
 31
0.0
  0
LINE
  5
F43
  8
0
 10
259.54033934118058
 20
340.62779327853622
 30
0.0
 11
259.28228274254502
 21
341.0560534766251
 31
0.0
  0
LINE
  5
F44
  8
0
 10
260.38437058448579
 20
341.22608334986393
 30
0.0
 11
260.38437054580749
 21
340.39383656400048
 31
0.0
  0
LINE
  5
F45
  8
3
 10
262.51592496395068
 20
340.75079217366181
 30
0.0
 11
261.14480192906842
 21
340.75079217366181
 31
0.0
  0
LINE
  5
F46
  8
0
 10
261.15921754923011
 20
335.6963741420368
 30
0.0
 11
261.15921742449149
 21
333.45968791807297
 31
0.0
  0
LINE
  5
F47
  8
0
 10
259.8634825690466
 20
334.26508063456879
 30
0.0
 11
259.51875606661031
 21
334.62724585085061
 31
0.0
  0
LINE
  5
F48
  8
0
 10
260.16070380718878
 20
334.59339686816662
 30
0.0
 11
261.19700697043089
 21
333.41678179670498
 31
0.0
  0
LINE
  5
F49
  8
0
 10
260.87857894999831
 20
333.08473809867218
 30
0.0
 11
259.90561317194857
 21
334.23508674672343
 31
0.0
  0
LINE
  5
F4A
  8
0
 10
259.4796759691007
 20
331.62601936426199
 30
0.0
 11
261.97699496944227
 21
334.23012133655141
 31
0.0
  0
LINE
  5
F4B
  8
0
 10
262.31117214167273
 20
333.85819980863658
 30
0.0
 11
259.81385313441717
 21
331.25409783013492
 31
0.0
  0
LINE
  5
F4C
  8
0
 10
259.81385313441717
 20
331.25409783013492
 30
0.0
 11
259.4796759691007
 21
331.62601936426199
 31
0.0
  0
LINE
  5
F4D
  8
0
 10
261.97699496944227
 20
334.23012133655141
 30
0.0
 11
262.31117214167273
 21
333.85819980863658
 31
0.0
  0
LINE
  5
F4E
  8
0
 10
260.38437023327651
 20
333.66904675778619
 30
0.0
 11
260.38437018217093
 21
332.5693974366078
 31
0.0
  0
LINE
  5
F4F
  8
0
 10
260.38437014869118
 20
331.84900960605268
 30
0.0
 11
260.38437012595801
 21
331.35985443983958
 31
0.0
  0
LINE
  5
F50
  8
0
 10
260.3843702877175
 20
334.8404631172952
 30
0.0
 11
260.38437026443302
 21
334.33944673667168
 31
0.0
  0
LINE
  5
F51
  8
0
 10
262.28494025297192
 20
336.93986885485748
 30
0.0
 11
259.8634825690466
 21
334.26508063456879
 31
0.0
  0
LINE
  5
F52
  8
0
 10
259.51875606661031
 20
334.62724585085061
 30
0.0
 11
261.94021374380299
 21
337.30203406473112
 31
0.0
  0
LINE
  5
F53
  8
0
 10
260.3843703785019
 20
336.79388896722452
 30
0.0
 11
260.38437032224601
 21
335.58341982430011
 31
0.0
  0
LINE
  5
F54
  8
0
 10
272.51718139083738
 20
340.68051698335199
 30
0.0
 11
272.51718139083738
 21
330.71222201518469
 31
0.0
  0
LINE
  5
F55
  8
0
 10
276.74646263807551
 20
330.83993287747461
 30
0.0
 11
273.74646263807551
 21
329.69637414203692
 31
0.0
  0
LINE
  5
F56
  8
3
 10
276.22709246251537
 20
330.64195611041202
 30
0.0
 11
272.51700066582953
 21
330.64195611041202
 31
0.0
  0
LINE
  5
F57
  8
0
 10
273.74646263807551
 20
329.6963741420368
 30
0.0
 11
272.47935584813439
 21
329.6963741420368
 31
0.0
  0
LINE
  5
F58
  8
3
 10
276.22709246251537
 20
340.75079217366169
 30
0.0
 11
272.5170006180611
 21
340.75079217366169
 31
0.0
  0
LINE
  5
F59
  8
0
 10
276.7464626380754
 20
340.55281540659922
 30
0.0
 11
276.74646263807551
 21
330.83993287747461
 31
0.0
  0
LINE
  5
F5A
  8
0
 10
263.45751123929472
 20
345.66738518192221
 30
0.0
 11
271.57541597410608
 21
345.66738488010202
 31
0.0
  0
LINE
  5
F5B
  8
0
 10
260.38437080818818
 20
346.03952940856192
 30
0.0
 11
260.38437061289028
 21
341.83726653722641
 31
0.0
  0
LINE
  5
F5C
  8
0
 10
261.15921812606138
 20
346.0395293857955
 30
0.0
 11
261.1592180095297
 21
343.95000134352227
 31
0.0
  0
LINE
  5
F5D
  8
0
 10
260.38437075196481
 20
344.8297602728295
 30
0.0
 11
262.00698266253562
 21
342.98745225252242
 31
0.0
  0
LINE
  5
F5E
  8
0
 10
261.62411501510559
 20
342.71605718983989
 30
0.0
 11
260.38437072185218
 21
344.18182114973172
 31
0.0
  0
LINE
  5
F5F
  8
0
 10
262.22581624655197
 20
343.14257205606242
 30
0.0
 11
262.4838728531488
 21
342.7143118627709
 31
0.0
  0
LINE
  5
F60
  8
0
 10
261.15921812606138
 20
346.03952935698698
 30
0.0
 11
260.38437080818818
 21
346.0395293857955
 31
0.0
  0
LINE
  5
F61
  8
0
 10
262.55357042634228
 20
341.6963741420368
 30
0.0
 11
261.17363316939179
 21
341.6963741420368
 31
0.0
  0
LINE
  5
F62
  8
0
 10
262.55357042634262
 20
341.6963741420368
 30
0.0
 11
261.97100620960629
 21
341.6963741420368
 31
0.0
  0
LINE
  5
F63
  8
0
 10
262.55357042634341
 20
341.6963741420368
 30
0.0
 11
261.1592178838464
 21
341.6963741420368
 31
0.0
  0
LINE
  5
F64
  8
0
 10
273.74646263807563
 20
341.6963741420368
 30
0.0
 11
272.47935515566911
 21
341.6963741420368
 31
0.0
  0
TEXT
  5
108E
  8
0
 62
     3
 10
0.0
 20
0.0
 30
0.0
 40
10.0
  1
LT-127NP
  7
STANDARD1
  0
ENDSEC
  0
EOF
