  0
SECTION
  2
HEADER
  9
$ACADVER
  1
AC1009
  9
$INSBASE
 10
0.0
 20
0.0
 30
0.0
  9
$EXTMIN
 10
0.0
 20
-2.960436562073669
 30
0.0
  9
$EXTMAX
 10
173.0
 20
302.00000000000011
 30
0.0
  9
$LIMMIN
 10
0.0
 20
0.0
  9
$LIMMAX
 10
750.0
 20
540.0
  9
$ORTHOMODE
 70
     1
  9
$REGENMODE
 70
     1
  9
$FILLMODE
 70
     1
  9
$QTEXTMODE
 70
     0
  9
$MIRRTEXT
 70
     0
  9
$DRAGMODE
 70
     2
  9
$LTSCALE
 40
10.0
  9
$OSMODE
 70
    37
  9
$ATTMODE
 70
     1
  9
$TEXTSIZE
 40
0.2
  9
$TRACEWID
 40
0.05
  9
$TEXTSTYLE
  7
STANDARD
  9
$CLAYER
  8
0
  9
$CELTYPE
  6
BYLAYER
  9
$CECOLOR
 62
   256
  9
$DIMSCALE
 40
2.0
  9
$DIMASZ
 40
3.0
  9
$DIMEXO
 40
2.0
  9
$DIMDLI
 40
0.38
  9
$DIMRND
 40
0.0
  9
$DIMDLE
 40
0.0
  9
$DIMEXE
 40
2.0
  9
$DIMTP
 40
0.0
  9
$DIMTM
 40
0.0
  9
$DIMTXT
 40
3.2000000000000002
  9
$DIMCEN
 40
0.0
  9
$DIMTSZ
 40
0.0
  9
$DIMTOL
 70
     0
  9
$DIMLIM
 70
     0
  9
$DIMTIH
 70
     0
  9
$DIMTOH
 70
     0
  9
$DIMSE1
 70
     0
  9
$DIMSE2
 70
     0
  9
$DIMTAD
 70
     1
  9
$DIMZIN
 70
     0
  9
$DIMBLK
  1

  9
$DIMASO
 70
     1
  9
$DIMSHO
 70
     0
  9
$DIMPOST
  1

  9
$DIMAPOST
  1

  9
$DIMALT
 70
     0
  9
$DIMALTD
 70
     2
  9
$DIMALTF
 40
25.399999999999999
  9
$DIMLFAC
 40
1.0
  9
$DIMTOFL
 70
     1
  9
$DIMTVP
 40
1.6000000000000001
  9
$DIMTIX
 70
     1
  9
$DIMSOXD
 70
     0
  9
$DIMSAH
 70
     0
  9
$DIMBLK1
  1

  9
$DIMBLK2
  1

  9
$DIMSTYLE
  2
STANDARD
  9
$DIMCLRD
 70
     0
  9
$DIMCLRE
 70
     0
  9
$DIMCLRT
 70
     0
  9
$DIMTFAC
 40
1.0
  9
$DIMGAP
 40
0.09
  9
$LUNITS
 70
     2
  9
$LUPREC
 70
     1
  9
$SKETCHINC
 40
0.1
  9
$FILLETRAD
 40
0.0
  9
$AUNITS
 70
     0
  9
$AUPREC
 70
     1
  9
$MENU
  1
E:\r13\win\SUPPORT\ACAD
  9
$ELEVATION
 40
0.0
  9
$PELEVATION
 40
0.0
  9
$THICKNESS
 40
0.0
  9
$LIMCHECK
 70
     0
  9
$BLIPMODE
 70
     0
  9
$CHAMFERA
 40
0.0
  9
$CHAMFERB
 40
0.0
  9
$SKPOLY
 70
     0
  9
$TDCREATE
 40
2451614.4625386568
  9
$TDUPDATE
 40
2459548.4494865509
  9
$TDINDWG
 40
0.0958732407
  9
$TDUSRTIMER
 40
0.0958732407
  9
$USRTIMER
 70
     1
  9
$ANGBASE
 50
0.0
  9
$ANGDIR
 70
     0
  9
$PDMODE
 70
     0
  9
$PDSIZE
 40
0.0
  9
$PLINEWID
 40
0.0
  9
$COORDS
 70
     1
  9
$SPLFRAME
 70
     0
  9
$SPLINETYPE
 70
     6
  9
$SPLINESEGS
 70
     8
  9
$ATTDIA
 70
     0
  9
$ATTREQ
 70
     1
  9
$HANDLING
 70
     1
  9
$HANDSEED
  5
20A6
  9
$SURFTAB1
 70
     6
  9
$SURFTAB2
 70
     6
  9
$SURFTYPE
 70
     6
  9
$SURFU
 70
     6
  9
$SURFV
 70
     6
  9
$UCSNAME
  2

  9
$UCSORG
 10
0.0
 20
0.0
 30
0.0
  9
$UCSXDIR
 10
1.0
 20
0.0
 30
0.0
  9
$UCSYDIR
 10
0.0
 20
1.0
 30
0.0
  9
$PUCSNAME
  2

  9
$PUCSORG
 10
0.0
 20
0.0
 30
0.0
  9
$PUCSXDIR
 10
1.0
 20
0.0
 30
0.0
  9
$PUCSYDIR
 10
0.0
 20
1.0
 30
0.0
  9
$USERI1
 70
     0
  9
$USERI2
 70
     1
  9
$USERI3
 70
     1
  9
$USERI4
 70
     0
  9
$USERI5
 70
     0
  9
$USERR1
 40
0.0
  9
$USERR2
 40
0.0
  9
$USERR3
 40
0.0
  9
$USERR4
 40
0.0
  9
$USERR5
 40
0.0
  9
$WORLDVIEW
 70
     1
  9
$SHADEDGE
 70
     3
  9
$SHADEDIF
 70
    70
  9
$TILEMODE
 70
     1
  9
$MAXACTVP
 70
    16
  9
$PLIMCHECK
 70
     0
  9
$PEXTMIN
 10
1.0000000000000000E+020
 20
1.0000000000000000E+020
 30
1.0000000000000000E+020
  9
$PEXTMAX
 10
-1.0000000000000000E+020
 20
-1.0000000000000000E+020
 30
-1.0000000000000000E+020
  9
$PLIMMIN
 10
0.0
 20
0.0
  9
$PLIMMAX
 10
12.0
 20
9.0
  9
$UNITMODE
 70
     0
  9
$VISRETAIN
 70
     0
  9
$PLINEGEN
 70
     0
  9
$PSLTSCALE
 70
     0
  0
ENDSEC
  0
SECTION
  2
TABLES
  0
TABLE
  2
VPORT
 70
     1
  0
VPORT
  2
*ACTIVE
 70
     0
 10
0.0
 20
0.0
 11
1.0
 21
1.0
 12
520.3915171288744
 22
200.0
 13
0.0
 23
0.0
 14
20.0
 24
20.0
 15
20.0
 25
20.0
 16
0.0
 26
0.0
 36
1.0
 17
0.0
 27
0.0
 37
0.0
 40
400.0
 41
2.6019575856443722
 42
50.0
 43
0.0
 44
0.0
 50
0.0
 51
0.0
 71
     0
 72
   500
 73
     1
 74
     0
 75
     0
 76
     0
 77
     0
 78
     2
  0
ENDTAB
  0
TABLE
  2
LTYPE
 70
     3
  0
LTYPE
  2
CONTINUOUS
 70
     0
  3
Solid Line
 72
    65
 73
     0
 40
0.0
  0
LTYPE
  2
CENTER
 70
     0
  3
____ _ ____ _ ____ _ ____ _ ____ _ ____ _ ____
 72
    65
 73
     4
 40
2.0
 49
1.25
 49
-0.25
 49
0.25
 49
-0.25
  0
LTYPE
  2
PHANTOM2
 70
     0
  3
___ _ _ ___ _ _ ___ _ _ ___ _ _
 72
    65
 73
     6
 40
1.25
 49
0.625
 49
-0.125
 49
0.125
 49
-0.125
 49
0.125
 49
-0.125
  0
ENDTAB
  0
TABLE
  2
LAYER
 70
     4
  0
LAYER
  2
0
 70
     0
 62
     7
  6
CONTINUOUS
  0
LAYER
  2
1
 70
     0
 62
     1
  6
CENTER
  0
LAYER
  2
3
 70
     0
 62
     3
  6
CONTINUOUS
  0
LAYER
  2
DEFPOINTS
 70
     0
 62
     7
  6
CONTINUOUS
  0
ENDTAB
  0
TABLE
  2
STYLE
 70
     4
  0
STYLE
  2
STANDARD
 70
     0
 40
0.0
 41
1.0
 50
0.0
 71
     0
 42
0.2
  3
TXT
  4
BIGFONT
  0
STYLE
  2
SIMPLEX
 70
     0
 40
0.0
 41
0.8
 50
0.0
 71
     0
 42
2.8165380840108591
  3
SIMPLEX
  4

  0
STYLE
  2
STANDARD1
 70
     0
 40
0.0
 41
1.0
 50
0.0
 71
     0
 42
3.0
  3
txt
  4

  0
STYLE
  2
SIM110
 70
     0
 40
0.0
 41
1.1000000000000001
 50
0.0
 71
     0
 42
1.3
  3
SIMPLEX
  4

  0
ENDTAB
  0
TABLE
  2
VIEW
 70
     1
  0
VIEW
  2
ALL
 70
     0
 40
540.0
 10
441.98319327731087
 20
270.0
 41
0.0
 11
0.0
 21
0.0
 31
1.0
 12
0.0
 22
0.0
 32
0.0
 42
0.0
 43
0.0
 44
0.0
 50
0.0
 71
     0
  0
ENDTAB
  0
TABLE
  2
UCS
 70
     0
  0
ENDTAB
  0
TABLE
  2
APPID
 70
     8
  0
APPID
  2
ACAD
 70
     0
  0
APPID
  2
ACAD_MLEADERVER
 70
     0
  0
APPID
  2
ACAD_EXEMPT_FROM_CAD_STANDARDS
 70
     0
  0
APPID
  2
ACAD_NAV_VCDISPLAY
 70
     0
  0
APPID
  2
GRADIENTCOLOR1ACI
 70
     0
  0
APPID
  2
GRADIENTCOLOR2ACI
 70
     0
  0
APPID
  2
ACAD_DSTYLE_DIMJAG
 70
     0
  0
APPID
  2
ACAD_DSTYLE_DIMTALN
 70
     0
  0
ENDTAB
  0
TABLE
  2
DIMSTYLE
 70
     1
  0
DIMSTYLE
  2
STANDARD
 70
     0
  3

  4

  5

  6

  7

 40
1.0
 41
0.18
 42
0.0625
 43
0.38
 44
0.18
 45
0.0
 46
0.0
 47
0.0
 48
0.0
140
0.18
141
0.09
142
0.0
143
25.399999999999999
144
1.0
145
0.0
146
1.0
147
0.09
 71
     0
 72
     0
 73
     1
 74
     1
 75
     0
 76
     0
 77
     0
 78
     0
170
     0
171
     2
172
     0
173
     0
174
     0
175
     0
176
     0
177
     0
178
     0
  0
ENDTAB
  0
ENDSEC
  0
SECTION
  2
BLOCKS
  0
BLOCK
  8
0
  2
$MODEL_SPACE
 70
     0
 10
0.0
 20
0.0
 30
0.0
  3
$MODEL_SPACE
  1

  0
ENDBLK
  5
F98
  8
0
  0
BLOCK
 67
     1
  8
0
  2
$PAPER_SPACE
 70
     0
 10
0.0
 20
0.0
 30
0.0
  3
$PAPER_SPACE
  1

  0
ENDBLK
  5
F96
 67
     1
  8
0
  0
BLOCK
  8
0
  2
*U0
 70
     1
 10
0.0
 20
0.0
 30
0.0
  3
*U0
  1

  0
SOLID
  5
2084
  8
0
  6
CONTINUOUS
 10
63.49750000000013
 20
259.24999999999972
 30
0.0
 11
63.497500000000102
 21
257.75
 31
0.0
 12
70.997500000000215
 22
257.75
 32
0.0
 13
70.997500000000215
 23
257.75
 33
0.0
210
0.0
220
0.0
230
1.0
  0
SOLID
  5
2085
  8
0
  6
CONTINUOUS
 10
-63.49750000000013
 20
259.24999999999972
 30
0.0
 11
-70.997500000000215
 21
259.24999999999972
 31
0.0
 12
-70.997500000000215
 22
257.75
 32
0.0
 13
-70.997500000000215
 23
257.75
 33
0.0
210
0.0
220
0.0
230
-1.0
  0
SOLID
  5
2086
  8
0
  6
CONTINUOUS
 10
55.997500000000208
 20
259.24999999999972
 30
0.0
 11
55.997500000000208
 21
257.75
 31
0.0
 12
63.497500000000102
 22
257.75
 32
0.0
 13
63.497500000000102
 23
257.75
 33
0.0
210
0.0
220
0.0
230
1.0
  0
SOLID
  5
2087
  8
0
  6
CONTINUOUS
 10
-55.997500000000208
 20
259.24999999999972
 30
0.0
 11
-63.49750000000013
 21
259.24999999999972
 31
0.0
 12
-63.497500000000102
 22
257.75
 32
0.0
 13
-63.497500000000102
 23
257.75
 33
0.0
210
0.0
220
0.0
230
-1.0
  0
SOLID
  5
2088
  8
0
  6
CONTINUOUS
 10
65.31473927838131
 20
179.49999999999989
 30
0.0
 11
65.596652692861511
 21
178.50720329846391
 31
0.0
 12
65.979351084458401
 22
178.50720329846391
 32
0.0
 13
65.979351084458401
 23
178.50720329846391
 33
0.0
210
0.0
220
0.0
230
1.0
  0
SOLID
  5
2089
  8
0
  6
CONTINUOUS
 10
-65.31473927838131
 20
179.49999999999989
 30
0.0
 11
-65.979351084458401
 21
179.49999999999989
 31
0.0
 12
-65.979351084458401
 22
178.50720329846391
 32
0.0
 13
-65.979351084458401
 23
178.50720329846391
 33
0.0
210
0.0
220
0.0
230
-1.0
  0
SOLID
  5
208A
  8
0
  6
CONTINUOUS
 10
60.979351084458401
 20
179.49999999999989
 30
0.0
 11
60.979351084458401
 21
178.50720329846391
 31
0.0
 12
61.398347307138927
 22
178.50720329846391
 32
0.0
 13
61.398347307138927
 23
178.50720329846391
 33
0.0
210
0.0
220
0.0
230
1.0
  0
SOLID
  5
208B
  8
0
  6
CONTINUOUS
 10
-60.979351084458401
 20
179.49999999999989
 30
0.0
 11
-61.680260721619142
 21
179.49999999999989
 31
0.0
 12
-61.398347307138927
 22
178.50720329846391
 32
0.0
 13
-61.398347307138927
 23
178.50720329846391
 33
0.0
210
0.0
220
0.0
230
-1.0
  0
SOLID
  5
208C
  8
0
  6
CONTINUOUS
 10
55.997500000000208
 20
179.49999999999989
 30
0.0
 11
55.997500000000208
 21
178.50720329846391
 31
0.0
 12
60.979351084458401
 22
178.50720329846391
 32
0.0
 13
60.979351084458401
 23
178.50720329846391
 33
0.0
  0
SOLID
  5
208D
  8
0
  6
CONTINUOUS
 10
-55.997500000000208
 20
179.49999999999989
 30
0.0
 11
-60.979351084458401
 21
179.49999999999989
 31
0.0
 12
-60.979351084458401
 22
178.50720329846391
 32
0.0
 13
-60.979351084458401
 23
178.50720329846391
 33
0.0
210
0.0
220
0.0
230
-1.0
  0
SOLID
  5
208E
  8
0
  6
CONTINUOUS
 10
65.979351084458401
 20
179.49999999999989
 30
0.0
 11
65.979351084458401
 21
177.49999999999989
 31
0.0
 12
70.997500000000215
 22
177.49999999999989
 32
0.0
 13
70.997500000000215
 23
177.49999999999989
 33
0.0
210
0.0
220
0.0
230
1.0
  0
SOLID
  5
208F
  8
0
  6
CONTINUOUS
 10
-65.979351084458401
 20
179.49999999999989
 30
0.0
 11
-70.997500000000215
 21
179.49999999999989
 31
0.0
 12
-70.997500000000215
 22
177.49999999999989
 32
0.0
 13
-70.997500000000215
 23
177.49999999999989
 33
0.0
210
0.0
220
0.0
230
-1.0
  0
SOLID
  5
2090
  8
0
  6
CONTINUOUS
 10
65.596652692861511
 20
178.50720329846391
 30
0.0
 11
65.371570531400394
 21
177.49999999999989
 31
0.0
 12
65.979351084458401
 22
177.49999999999989
 32
0.0
 13
65.979351084458401
 23
177.49999999999989
 33
0.0
210
0.0
220
0.0
230
1.0
  0
SOLID
  5
2091
  8
0
  6
CONTINUOUS
 10
-65.596652692861511
 20
178.50720329846391
 30
0.0
 11
-65.979351084458401
 21
178.50720329846391
 31
0.0
 12
-65.979351084458401
 22
177.49999999999989
 32
0.0
 13
-65.979351084458401
 23
177.49999999999989
 33
0.0
210
0.0
220
0.0
230
-1.0
  0
SOLID
  5
2092
  8
0
  6
CONTINUOUS
 10
60.979351084458401
 20
178.50720329846391
 30
0.0
 11
60.979351084458401
 21
177.49999999999989
 31
0.0
 12
61.623429468600058
 22
177.49999999999989
 32
0.0
 13
61.623429468600058
 23
177.49999999999989
 33
0.0
210
0.0
220
0.0
230
1.0
  0
SOLID
  5
2093
  8
0
  6
CONTINUOUS
 10
-60.979351084458401
 20
178.50720329846391
 30
0.0
 11
-61.398347307138927
 21
178.50720329846391
 31
0.0
 12
-61.623429468600058
 22
177.49999999999989
 32
0.0
 13
-61.623429468600058
 23
177.49999999999989
 33
0.0
210
0.0
220
0.0
230
-1.0
  0
SOLID
  5
2094
  8
0
  6
CONTINUOUS
 10
55.997500000000208
 20
178.50720329846391
 30
0.0
 11
55.997500000000208
 21
177.49999999999989
 31
0.0
 12
60.979351084458401
 22
177.49999999999989
 32
0.0
 13
60.979351084458401
 23
177.49999999999989
 33
0.0
210
0.0
220
0.0
230
1.0
  0
SOLID
  5
2095
  8
0
  6
CONTINUOUS
 10
-55.997500000000208
 20
178.50720329846391
 30
0.0
 11
-60.979351084458401
 21
178.50720329846391
 31
0.0
 12
-60.979351084458401
 22
177.49999999999989
 32
0.0
 13
-60.979351084458401
 23
177.49999999999989
 33
0.0
210
0.0
220
0.0
230
-1.0
  0
LINE
  5
2096
  8
0
  6
CONTINUOUS
 10
63.49750000000013
 20
259.24999999999972
 30
0.0
 11
63.497500000000102
 21
257.75
 31
0.0
  0
LINE
  5
2097
  8
0
  6
CONTINUOUS
 10
70.997500000000215
 20
259.24999999999972
 30
0.0
 11
70.997500000000215
 21
257.75
 31
0.0
  0
LINE
  5
2098
  8
0
  6
CONTINUOUS
 10
55.997500000000208
 20
259.24999999999972
 30
0.0
 11
55.997500000000208
 21
257.75
 31
0.0
  0
LINE
  5
2099
  8
0
  6
CONTINUOUS
 10
63.49750000000013
 20
259.24999999999972
 30
0.0
 11
63.497500000000102
 21
257.75
 31
0.0
  0
LINE
  5
209A
  8
0
  6
CONTINUOUS
 10
65.31473927838131
 20
179.49999999999989
 30
0.0
 11
65.596652692861511
 21
178.50720329846391
 31
0.0
  0
LINE
  5
209B
  8
0
  6
CONTINUOUS
 10
65.979351084458401
 20
179.49999999999989
 30
0.0
 11
65.979351084458401
 21
178.50720329846391
 31
0.0
  0
LINE
  5
209C
  8
0
  6
CONTINUOUS
 10
61.680260721619142
 20
179.49999999999989
 30
0.0
 11
61.398347307138927
 21
178.50720329846391
 31
0.0
  0
LINE
  5
209D
  8
0
  6
CONTINUOUS
 10
55.997500000000208
 20
179.49999999999989
 30
0.0
 11
55.997500000000208
 21
178.50720329846391
 31
0.0
  0
LINE
  5
209E
  8
0
  6
CONTINUOUS
 10
65.979351084458401
 20
179.49999999999989
 30
0.0
 11
65.979351084458401
 21
177.49999999999989
 31
0.0
  0
LINE
  5
209F
  8
0
  6
CONTINUOUS
 10
70.997500000000215
 20
179.49999999999989
 30
0.0
 11
70.997500000000215
 21
177.49999999999989
 31
0.0
  0
LINE
  5
20A0
  8
0
  6
CONTINUOUS
 10
65.596652692861511
 20
178.50720329846391
 30
0.0
 11
65.371570531400394
 21
177.49999999999989
 31
0.0
  0
LINE
  5
20A1
  8
0
  6
CONTINUOUS
 10
65.979351084458401
 20
178.50720329846391
 30
0.0
 11
65.979351084458401
 21
177.49999999999989
 31
0.0
  0
LINE
  5
20A2
  8
0
  6
CONTINUOUS
 10
61.398347307138927
 20
178.50720329846391
 30
0.0
 11
61.623429468600058
 21
177.49999999999989
 31
0.0
  0
LINE
  5
20A3
  8
0
  6
CONTINUOUS
 10
55.997500000000208
 20
178.50720329846391
 30
0.0
 11
55.997500000000208
 21
177.49999999999989
 31
0.0
  0
ENDBLK
  5
20A5
  8
0
  0
ENDSEC
  0
SECTION
  2
ENTITIES
  0
TEXT
  5
17A6
  8
0
 62
     3
 10
0.0
 20
0.0
 30
0.0
 40
10.0
  1
LT-127NCP-J
  7
STANDARD1
  0
LINE
  5
17A7
  8
1
 10
122.0
 20
155.50000000000011
 30
0.0
 11
173.0
 21
155.50000000000011
 31
0.0
  0
LINE
  5
17A8
  8
1
 10
122.0
 20
282.50000000000011
 30
0.0
 11
173.0
 21
282.50000000000011
 31
0.0
  0
LINE
  5
17A9
  8
0
 10
160.92907797847849
 20
165.00000000000011
 30
0.0
 11
160.92907797847849
 21
146.00000000000011
 31
0.0
  0
LINE
  5
17AA
  8
0
 10
160.0805722024466
 20
144.5303448853972
 30
0.0
 11
160.92907797847849
 21
146.00000000000011
 31
0.0
  0
LINE
  5
17AB
  8
0
 10
150.92907797847849
 20
165.00000000000011
 30
0.0
 11
150.92907797847849
 21
146.00000000000011
 31
0.0
  0
LINE
  5
17AC
  8
0
 10
150.92907797847849
 20
146.00000000000011
 30
0.0
 11
151.77758375451029
 21
144.5303448853972
 31
0.0
  0
LINE
  5
17AD
  8
0
 10
160.92907797847849
 20
165.00000000000011
 30
0.0
 11
160.0805722024466
 21
166.469655114603
 31
0.0
  0
LINE
  5
17AE
  8
0
 10
151.77758375451029
 20
166.469655114603
 30
0.0
 11
150.92907797847849
 21
165.00000000000011
 31
0.0
  0
LINE
  5
17AF
  8
0
 10
168.0
 20
160.4265
 30
0.0
 11
166.9265
 21
161.50000000000011
 31
0.0
  0
LINE
  5
17B0
  8
0
 10
166.9265
 20
149.50000000000011
 30
0.0
 11
168.0
 21
150.57350000000011
 31
0.0
  0
LINE
  5
17B1
  8
0
 10
168.0
 20
160.4265
 30
0.0
 11
168.0
 21
150.57350000000011
 31
0.0
  0
LINE
  5
17B2
  8
0
 10
160.92907797847849
 20
149.50000000000011
 30
0.0
 11
166.9265
 21
149.50000000000011
 31
0.0
  0
LINE
  5
17B3
  8
0
 10
166.9265
 20
161.50000000000011
 30
0.0
 11
160.92907797847849
 21
161.50000000000011
 31
0.0
  0
LINE
  5
17B4
  8
0
 10
166.9265
 20
161.50000000000011
 30
0.0
 11
166.9265
 21
149.50000000000011
 31
0.0
  0
LINE
  5
17B5
  8
0
 10
147.49999999999989
 20
149.50000000000011
 30
0.0
 11
147.97597007809421
 21
149.5
 31
0.0
  0
LINE
  5
17B6
  8
0
 10
149.49917375756101
 20
149.5
 30
0.0
 11
150.92907797847849
 21
149.50000000000011
 31
0.0
  0
LINE
  5
17B7
  8
0
 10
150.92907797847849
 20
161.50000000000011
 30
0.0
 11
150.6537549074296
 21
161.50000000000011
 31
0.0
  0
LINE
  5
17B8
  8
0
 10
148.70429784726761
 20
161.50000000000011
 30
0.0
 11
147.49999999999989
 21
161.50000000000011
 31
0.0
  0
LINE
  5
17B9
  8
0
 10
127.0
 20
156.50000000000011
 30
0.0
 11
128.5
 21
156.50000000000011
 31
0.0
  0
LINE
  5
17BA
  8
0
 10
127.59999999999999
 20
164.00000000000011
 30
0.0
 11
127.0
 21
163.40000000000009
 31
0.0
  0
LINE
  5
17BB
  8
0
 10
127.0
 20
163.40000000000009
 30
0.0
 11
127.0
 21
156.50000000000011
 31
0.0
  0
LINE
  5
17BC
  8
0
 10
127.0
 20
154.50000000000011
 30
0.0
 11
128.5
 21
154.50000000000011
 31
0.0
  0
LINE
  5
17BD
  8
0
 10
127.0
 20
154.50000000000011
 30
0.0
 11
127.0
 21
147.60000000000011
 31
0.0
  0
LINE
  5
17BE
  8
0
 10
127.0
 20
147.60000000000011
 30
0.0
 11
127.59999999999999
 21
147.00000000000011
 31
0.0
  0
LINE
  5
17BF
  8
0
 10
127.59999999999999
 20
154.50000000000011
 30
0.0
 11
127.59999999999999
 21
147.00000000000011
 31
0.0
  0
LINE
  5
17C0
  8
0
 10
127.59999999999999
 20
147.00000000000011
 30
0.0
 11
128.5
 21
147.00000000000011
 31
0.0
  0
LINE
  5
17C1
  8
0
 10
128.5
 20
164.00000000000011
 30
0.0
 11
127.59999999999999
 21
164.00000000000011
 31
0.0
  0
LINE
  5
17C2
  8
0
 10
127.59999999999999
 20
164.00000000000011
 30
0.0
 11
127.59999999999999
 21
156.50000000000011
 31
0.0
  0
POLYLINE
  5
17C3
  8
0
 66
     1
 10
0.0
 20
0.0
 30
0.0
 70
     8
  0
VERTEX
  5
17C4
  8
0
 10
151.77758375451029
 20
160.98482755730149
 30
0.0
 70
    32
  0
VERTEX
  5
17C5
  8
0
 10
151.5060093938414
 20
159.97043570924609
 30
0.0
 70
    32
  0
VERTEX
  5
17C6
  8
0
 10
151.2786405912031
 20
158.9453339414768
 30
0.0
 70
    32
  0
VERTEX
  5
17C7
  8
0
 10
151.10152392399979
 20
157.9002303884441
 30
0.0
 70
    32
  0
VERTEX
  5
17C8
  8
0
 10
150.98392839920501
 20
156.8468839225211
 30
0.0
 70
    32
  0
VERTEX
  5
17C9
  8
0
 10
150.9428869676002
 20
156.17454548325529
 30
0.0
 70
    32
  0
VERTEX
  5
17CA
  8
0
 10
150.92907797847849
 20
155.50000000000011
 30
0.0
 70
    32
  0
SEQEND
  5
17CB
  8
0
  0
POLYLINE
  5
17CC
  8
0
 66
     1
 10
0.0
 20
0.0
 30
0.0
 70
     8
  0
VERTEX
  5
17CD
  8
0
 10
150.92907797847849
 20
155.50000000000011
 30
0.0
 70
    32
  0
VERTEX
  5
17CE
  8
0
 10
150.96373666973349
 20
154.43033400352701
 30
0.0
 70
    32
  0
VERTEX
  5
17CF
  8
0
 10
151.06643094051421
 20
153.3606680070541
 30
0.0
 70
    32
  0
VERTEX
  5
17D0
  8
0
 10
151.2342177702858
 20
152.28734288925321
 30
0.0
 70
    32
  0
VERTEX
  5
17D1
  8
0
 10
151.45970178978251
 20
151.22133601410789
 30
0.0
 70
    32
  0
VERTEX
  5
17D2
  8
0
 10
151.77758375451029
 20
150.01517244269871
 30
0.0
 70
    32
  0
SEQEND
  5
17D3
  8
0
  0
POLYLINE
  5
17D4
  8
0
 66
     1
 10
0.0
 20
0.0
 30
0.0
 70
     8
  0
VERTEX
  5
17D5
  8
0
 10
160.0805722024466
 20
150.01517244269871
 30
0.0
 70
    32
  0
VERTEX
  5
17D6
  8
0
 10
160.39845416717461
 20
151.22133601410789
 30
0.0
 70
    32
  0
VERTEX
  5
17D7
  8
0
 10
160.62067923334189
 20
152.2697658020229
 30
0.0
 70
    32
  0
VERTEX
  5
17D8
  8
0
 10
160.78796556753409
 20
153.3312211779629
 30
0.0
 70
    32
  0
VERTEX
  5
17D9
  8
0
 10
160.89316959276499
 20
154.41115838732591
 30
0.0
 70
    32
  0
VERTEX
  5
17DA
  8
0
 10
160.92907797847849
 20
155.50000000000011
 30
0.0
 70
    32
  0
SEQEND
  5
17DB
  8
0
  0
POLYLINE
  5
17DC
  8
0
 66
     1
 10
0.0
 20
0.0
 30
0.0
 70
     8
  0
VERTEX
  5
17DD
  8
0
 10
160.92907797847849
 20
155.50000000000011
 30
0.0
 70
    32
  0
VERTEX
  5
17DE
  8
0
 10
160.9153140775006
 20
156.17344196126049
 30
0.0
 70
    32
  0
VERTEX
  5
17DF
  8
0
 10
160.87422755775191
 20
156.8468839225211
 30
0.0
 70
    32
  0
VERTEX
  5
17E0
  8
0
 10
160.75812096375279
 20
157.889702655186
 30
0.0
 70
    32
  0
VERTEX
  5
17E1
  8
0
 10
160.58361247129099
 20
158.9244637030464
 30
0.0
 70
    32
  0
VERTEX
  5
17E2
  8
0
 10
160.35468301277541
 20
159.96010665041851
 30
0.0
 70
    32
  0
VERTEX
  5
17E3
  8
0
 10
160.0805722024466
 20
160.98482755730149
 30
0.0
 70
    32
  0
SEQEND
  5
17E4
  8
0
  0
POLYLINE
  5
17E5
  8
0
 66
     1
 10
0.0
 20
0.0
 30
0.0
 70
     8
  0
VERTEX
  5
17E6
  8
0
 10
151.77758375451029
 20
166.469655114603
 30
0.0
 70
    32
  0
VERTEX
  5
17E7
  8
0
 10
151.4301963087637
 20
165.80357491388139
 30
0.0
 70
    32
  0
VERTEX
  5
17E8
  8
0
 10
151.16196781210789
 20
165.12606910301841
 30
0.0
 70
    32
  0
VERTEX
  5
17E9
  8
0
 10
150.98899559644289
 20
164.43126498184461
 30
0.0
 70
    32
  0
VERTEX
  5
17EA
  8
0
 10
150.92907797847849
 20
163.72724133595219
 30
0.0
 70
    32
  0
SEQEND
  5
17EB
  8
0
  0
POLYLINE
  5
17EC
  8
0
 66
     1
 10
0.0
 20
0.0
 30
0.0
 70
     8
  0
VERTEX
  5
17ED
  8
0
 10
150.92907797847849
 20
163.72724133595219
 30
0.0
 70
    32
  0
VERTEX
  5
17EE
  8
0
 10
150.9336989975354
 20
163.5322176082617
 30
0.0
 70
    32
  0
VERTEX
  5
17EF
  8
0
 10
151.01286593835471
 20
162.89380922497179
 30
0.0
 70
    32
  0
VERTEX
  5
17F0
  8
0
 10
151.18597384303911
 20
162.25651332239221
 30
0.0
 70
    32
  0
VERTEX
  5
17F1
  8
0
 10
151.44570867495159
 20
161.61759068268111
 30
0.0
 70
    32
  0
VERTEX
  5
17F2
  8
0
 10
151.77758375451029
 20
160.98482755730149
 30
0.0
 70
    32
  0
SEQEND
  5
17F3
  8
0
  0
LINE
  5
17F4
  8
0
 10
160.0805722024466
 20
160.98482755730149
 30
0.0
 11
151.77758375451029
 21
160.98482755730149
 31
0.0
  0
POLYLINE
  5
17F5
  8
0
 66
     1
 10
0.0
 20
0.0
 30
0.0
 70
     8
  0
VERTEX
  5
17F6
  8
0
 10
160.0805722024466
 20
160.98482755730149
 30
0.0
 70
    32
  0
VERTEX
  5
17F7
  8
0
 10
160.42795964819331
 20
161.6509077580231
 30
0.0
 70
    32
  0
VERTEX
  5
17F8
  8
0
 10
160.69618814484909
 20
162.32841356888611
 30
0.0
 70
    32
  0
VERTEX
  5
17F9
  8
0
 10
160.86916036051409
 20
163.02321769005991
 30
0.0
 70
    32
  0
VERTEX
  5
17FA
  8
0
 10
160.92907797847849
 20
163.72724133595219
 30
0.0
 70
    32
  0
SEQEND
  5
17FB
  8
0
  0
POLYLINE
  5
17FC
  8
0
 66
     1
 10
0.0
 20
0.0
 30
0.0
 70
     8
  0
VERTEX
  5
17FD
  8
0
 10
160.92907797847849
 20
163.72724133595219
 30
0.0
 70
    32
  0
VERTEX
  5
17FE
  8
0
 10
160.9244569594216
 20
163.9222650636429
 30
0.0
 70
    32
  0
VERTEX
  5
17FF
  8
0
 10
160.8452900186023
 20
164.5606734469327
 30
0.0
 70
    32
  0
VERTEX
  5
1800
  8
0
 10
160.67218211391781
 20
165.19796934951219
 30
0.0
 70
    32
  0
VERTEX
  5
1801
  8
0
 10
160.41244728200559
 20
165.83689198922349
 30
0.0
 70
    32
  0
VERTEX
  5
1802
  8
0
 10
160.0805722024466
 20
166.469655114603
 30
0.0
 70
    32
  0
SEQEND
  5
1803
  8
0
  0
LINE
  5
1804
  8
0
 10
160.0805722024466
 20
166.469655114603
 30
0.0
 11
151.77758375451029
 21
166.469655114603
 31
0.0
  0
POLYLINE
  5
1805
  8
0
 66
     1
 10
0.0
 20
0.0
 30
0.0
 70
     8
  0
VERTEX
  5
1806
  8
0
 10
151.77758375451029
 20
150.01517244269871
 30
0.0
 70
    32
  0
VERTEX
  5
1807
  8
0
 10
151.4301963087637
 20
149.3490922419771
 30
0.0
 70
    32
  0
VERTEX
  5
1808
  8
0
 10
151.16196781210789
 20
148.67158643111401
 30
0.0
 70
    32
  0
VERTEX
  5
1809
  8
0
 10
150.98899559644289
 20
147.97678230994029
 30
0.0
 70
    32
  0
VERTEX
  5
180A
  8
0
 10
150.92907797847849
 20
147.2727586640479
 30
0.0
 70
    32
  0
SEQEND
  5
180B
  8
0
  0
POLYLINE
  5
180C
  8
0
 66
     1
 10
0.0
 20
0.0
 30
0.0
 70
     8
  0
VERTEX
  5
180D
  8
0
 10
150.92907797847849
 20
147.2727586640479
 30
0.0
 70
    32
  0
VERTEX
  5
180E
  8
0
 10
150.9336989975354
 20
147.07773493635719
 30
0.0
 70
    32
  0
VERTEX
  5
180F
  8
0
 10
151.01286593835471
 20
146.4393265530675
 30
0.0
 70
    32
  0
VERTEX
  5
1810
  8
0
 10
151.18597384303911
 20
145.80203065048789
 30
0.0
 70
    32
  0
VERTEX
  5
1811
  8
0
 10
151.44570867495159
 20
145.1631080107766
 30
0.0
 70
    32
  0
VERTEX
  5
1812
  8
0
 10
151.77758375451029
 20
144.5303448853972
 30
0.0
 70
    32
  0
SEQEND
  5
1813
  8
0
  0
LINE
  5
1814
  8
0
 10
160.0805722024466
 20
144.5303448853972
 30
0.0
 11
151.77758375451029
 21
144.5303448853972
 31
0.0
  0
POLYLINE
  5
1815
  8
0
 66
     1
 10
0.0
 20
0.0
 30
0.0
 70
     8
  0
VERTEX
  5
1816
  8
0
 10
160.0805722024466
 20
144.5303448853972
 30
0.0
 70
    32
  0
VERTEX
  5
1817
  8
0
 10
160.42795964819331
 20
145.19642508611881
 30
0.0
 70
    32
  0
VERTEX
  5
1818
  8
0
 10
160.69618814484909
 20
145.87393089698179
 30
0.0
 70
    32
  0
VERTEX
  5
1819
  8
0
 10
160.86916036051409
 20
146.56873501815559
 30
0.0
 70
    32
  0
VERTEX
  5
181A
  8
0
 10
160.92907797847849
 20
147.2727586640479
 30
0.0
 70
    32
  0
SEQEND
  5
181B
  8
0
  0
POLYLINE
  5
181C
  8
0
 66
     1
 10
0.0
 20
0.0
 30
0.0
 70
     8
  0
VERTEX
  5
181D
  8
0
 10
160.92907797847849
 20
147.2727586640479
 30
0.0
 70
    32
  0
VERTEX
  5
181E
  8
0
 10
160.9244569594216
 20
147.4677823917385
 30
0.0
 70
    32
  0
VERTEX
  5
181F
  8
0
 10
160.8452900186023
 20
148.10619077502841
 30
0.0
 70
    32
  0
VERTEX
  5
1820
  8
0
 10
160.67218211391781
 20
148.7434866776079
 30
0.0
 70
    32
  0
VERTEX
  5
1821
  8
0
 10
160.41244728200559
 20
149.3824093173192
 30
0.0
 70
    32
  0
VERTEX
  5
1822
  8
0
 10
160.0805722024466
 20
150.01517244269871
 30
0.0
 70
    32
  0
SEQEND
  5
1823
  8
0
  0
LINE
  5
1824
  8
0
 10
160.0805722024466
 20
150.01517244269871
 30
0.0
 11
151.77758375451029
 21
150.01517244269871
 31
0.0
  0
LINE
  5
1825
  8
3
 10
168.0
 20
160.4265
 30
0.0
 11
160.92907797847849
 21
160.4265
 31
0.0
  0
LINE
  5
1826
  8
3
 10
150.92907797847849
 20
160.4265
 30
0.0
 11
149.47914507353431
 21
160.42650000000009
 31
0.0
  0
LINE
  5
1827
  8
3
 10
148.56037289469799
 20
160.4265
 30
0.0
 11
147.49999999999989
 21
160.4265
 31
0.0
  0
LINE
  5
1828
  8
3
 10
168.0
 20
150.57350000000011
 30
0.0
 11
160.92907797847849
 21
150.57350000000011
 31
0.0
  0
LINE
  5
1829
  8
3
 10
150.92907797847849
 20
150.57350000000011
 30
0.0
 11
149.47914562302989
 21
150.57350000000011
 31
0.0
  0
LINE
  5
182A
  8
3
 10
148.70429835550399
 20
150.57350000000011
 30
0.0
 11
148.42052717756431
 21
150.57349999999991
 31
0.0
  0
LINE
  5
182B
  8
3
 10
147.80709874297929
 20
150.57350000000011
 30
0.0
 11
147.49999999999989
 21
150.57349999999991
 31
0.0
  0
LINE
  5
182C
  8
0
 10
160.92907797847849
 20
292.00000000000011
 30
0.0
 11
160.92907797847849
 21
273.00000000000011
 31
0.0
  0
LINE
  5
182D
  8
0
 10
160.0805722024466
 20
271.5303448853972
 30
0.0
 11
160.92907797847849
 21
273.00000000000011
 31
0.0
  0
LINE
  5
182E
  8
0
 10
150.92907797847849
 20
292.00000000000011
 30
0.0
 11
150.92907797847849
 21
273.00000000000011
 31
0.0
  0
LINE
  5
182F
  8
0
 10
150.92907797847849
 20
273.00000000000011
 30
0.0
 11
151.77758375451029
 21
271.5303448853972
 31
0.0
  0
LINE
  5
1830
  8
0
 10
151.77758375451029
 20
293.46965511460297
 30
0.0
 11
150.92907797847849
 21
292.00000000000011
 31
0.0
  0
LINE
  5
1831
  8
0
 10
160.92907797847849
 20
292.00000000000011
 30
0.0
 11
160.0805722024466
 21
293.46965511460297
 31
0.0
  0
LINE
  5
1832
  8
0
 10
168.0
 20
287.4265000000002
 30
0.0
 11
166.9265
 21
288.50000000000011
 31
0.0
  0
LINE
  5
1833
  8
0
 10
166.9265
 20
276.50000000000011
 30
0.0
 11
168.0
 21
277.57350000000008
 31
0.0
  0
LINE
  5
1834
  8
0
 10
168.0
 20
287.4265000000002
 30
0.0
 11
168.0
 21
277.57350000000008
 31
0.0
  0
LINE
  5
1835
  8
0
 10
160.92907797847849
 20
276.50000000000011
 30
0.0
 11
166.9265
 21
276.50000000000011
 31
0.0
  0
LINE
  5
1836
  8
0
 10
166.9265
 20
288.50000000000011
 30
0.0
 11
160.92907797847849
 21
288.50000000000011
 31
0.0
  0
LINE
  5
1837
  8
0
 10
166.9265
 20
288.50000000000011
 30
0.0
 11
166.9265
 21
276.50000000000011
 31
0.0
  0
LINE
  5
1838
  8
0
 10
147.5
 20
276.50000000000011
 30
0.0
 11
148.7042978520299
 21
276.50000000000011
 31
0.0
  0
LINE
  5
1839
  8
0
 10
150.65375491219191
 20
276.50000000000011
 30
0.0
 11
150.92907797847849
 21
276.50000000000011
 31
0.0
  0
LINE
  5
183A
  8
0
 10
150.92907797847849
 20
288.50000000000011
 30
0.0
 11
149.4991737623231
 21
288.50000000000011
 31
0.0
  0
LINE
  5
183B
  8
0
 10
147.97597008285649
 20
288.50000000000011
 30
0.0
 11
147.5
 21
288.50000000000011
 31
0.0
  0
LINE
  5
183C
  8
0
 10
127.0
 20
281.50000000000011
 30
0.0
 11
128.5
 21
281.50000000000011
 31
0.0
  0
LINE
  5
183D
  8
0
 10
127.0
 20
281.50000000000011
 30
0.0
 11
127.0
 21
274.60000000000008
 31
0.0
  0
LINE
  5
183E
  8
0
 10
127.0
 20
274.60000000000008
 30
0.0
 11
127.59999999999999
 21
274.00000000000011
 31
0.0
  0
LINE
  5
183F
  8
0
 10
127.0
 20
283.50000000000011
 30
0.0
 11
128.5
 21
283.50000000000011
 31
0.0
  0
LINE
  5
1840
  8
0
 10
127.59999999999999
 20
291.00000000000011
 30
0.0
 11
127.0
 21
290.40000000000009
 31
0.0
  0
LINE
  5
1841
  8
0
 10
127.0
 20
290.40000000000009
 30
0.0
 11
127.0
 21
283.50000000000011
 31
0.0
  0
LINE
  5
1842
  8
0
 10
127.59999999999999
 20
281.50000000000011
 30
0.0
 11
127.59999999999999
 21
274.00000000000011
 31
0.0
  0
LINE
  5
1843
  8
0
 10
127.59999999999999
 20
274.00000000000011
 30
0.0
 11
128.5
 21
274.00000000000011
 31
0.0
  0
LINE
  5
1844
  8
0
 10
128.5
 20
291.00000000000011
 30
0.0
 11
127.59999999999999
 21
291.00000000000011
 31
0.0
  0
LINE
  5
1845
  8
0
 10
127.59999999999999
 20
291.00000000000011
 30
0.0
 11
127.59999999999999
 21
283.50000000000011
 31
0.0
  0
POLYLINE
  5
1846
  8
0
 66
     1
 10
0.0
 20
0.0
 30
0.0
 70
     8
  0
VERTEX
  5
1847
  8
0
 10
151.77758375451029
 20
287.98482755730151
 30
0.0
 70
    32
  0
VERTEX
  5
1848
  8
0
 10
151.5060093938414
 20
286.97043570924609
 30
0.0
 70
    32
  0
VERTEX
  5
1849
  8
0
 10
151.2786405912031
 20
285.9453339414768
 30
0.0
 70
    32
  0
VERTEX
  5
184A
  8
0
 10
151.10152392399979
 20
284.90023038844407
 30
0.0
 70
    32
  0
VERTEX
  5
184B
  8
0
 10
150.98392839920501
 20
283.8468839225211
 30
0.0
 70
    32
  0
VERTEX
  5
184C
  8
0
 10
150.9428869676002
 20
283.17454548325532
 30
0.0
 70
    32
  0
VERTEX
  5
184D
  8
0
 10
150.92907797847849
 20
282.50000000000011
 30
0.0
 70
    32
  0
SEQEND
  5
184E
  8
0
  0
POLYLINE
  5
184F
  8
0
 66
     1
 10
0.0
 20
0.0
 30
0.0
 70
     8
  0
VERTEX
  5
1850
  8
0
 10
150.92907797847849
 20
282.50000000000011
 30
0.0
 70
    32
  0
VERTEX
  5
1851
  8
0
 10
150.96373666973349
 20
281.43033400352698
 30
0.0
 70
    32
  0
VERTEX
  5
1852
  8
0
 10
151.06643094051421
 20
280.36066800705402
 30
0.0
 70
    32
  0
VERTEX
  5
1853
  8
0
 10
151.23421777028571
 20
279.28734288925318
 30
0.0
 70
    32
  0
VERTEX
  5
1854
  8
0
 10
151.45970178978251
 20
278.22133601410792
 30
0.0
 70
    32
  0
VERTEX
  5
1855
  8
0
 10
151.77758375451029
 20
277.01517244269871
 30
0.0
 70
    32
  0
SEQEND
  5
1856
  8
0
  0
POLYLINE
  5
1857
  8
0
 66
     1
 10
0.0
 20
0.0
 30
0.0
 70
     8
  0
VERTEX
  5
1858
  8
0
 10
160.0805722024466
 20
277.01517244269871
 30
0.0
 70
    32
  0
VERTEX
  5
1859
  8
0
 10
160.39845416717441
 20
278.22133601410792
 30
0.0
 70
    32
  0
VERTEX
  5
185A
  8
0
 10
160.62067923334189
 20
279.2697658020229
 30
0.0
 70
    32
  0
VERTEX
  5
185B
  8
0
 10
160.78796556753409
 20
280.3312211779629
 30
0.0
 70
    32
  0
VERTEX
  5
185C
  8
0
 10
160.89316959276499
 20
281.41115838732588
 30
0.0
 70
    32
  0
VERTEX
  5
185D
  8
0
 10
160.92907797847849
 20
282.50000000000011
 30
0.0
 70
    32
  0
SEQEND
  5
185E
  8
0
  0
POLYLINE
  5
185F
  8
0
 66
     1
 10
0.0
 20
0.0
 30
0.0
 70
     8
  0
VERTEX
  5
1860
  8
0
 10
160.92907797847849
 20
282.50000000000011
 30
0.0
 70
    32
  0
VERTEX
  5
1861
  8
0
 10
160.9153140775006
 20
283.17344196126049
 30
0.0
 70
    32
  0
VERTEX
  5
1862
  8
0
 10
160.87422755775191
 20
283.8468839225211
 30
0.0
 70
    32
  0
VERTEX
  5
1863
  8
0
 10
160.75812096375279
 20
284.88970265518611
 30
0.0
 70
    32
  0
VERTEX
  5
1864
  8
0
 10
160.58361247129099
 20
285.9244637030464
 30
0.0
 70
    32
  0
VERTEX
  5
1865
  8
0
 10
160.35468301277541
 20
286.9601066504186
 30
0.0
 70
    32
  0
VERTEX
  5
1866
  8
0
 10
160.0805722024466
 20
287.98482755730151
 30
0.0
 70
    32
  0
SEQEND
  5
1867
  8
0
  0
POLYLINE
  5
1868
  8
0
 66
     1
 10
0.0
 20
0.0
 30
0.0
 70
     8
  0
VERTEX
  5
1869
  8
0
 10
151.77758375451029
 20
293.46965511460297
 30
0.0
 70
    32
  0
VERTEX
  5
186A
  8
0
 10
151.4301963087637
 20
292.80357491388139
 30
0.0
 70
    32
  0
VERTEX
  5
186B
  8
0
 10
151.16196781210789
 20
292.12606910301838
 30
0.0
 70
    32
  0
VERTEX
  5
186C
  8
0
 10
150.98899559644289
 20
291.43126498184461
 30
0.0
 70
    32
  0
VERTEX
  5
186D
  8
0
 10
150.92907797847849
 20
290.72724133595227
 30
0.0
 70
    32
  0
SEQEND
  5
186E
  8
0
  0
POLYLINE
  5
186F
  8
0
 66
     1
 10
0.0
 20
0.0
 30
0.0
 70
     8
  0
VERTEX
  5
1870
  8
0
 10
150.92907797847849
 20
290.72724133595227
 30
0.0
 70
    32
  0
VERTEX
  5
1871
  8
0
 10
150.9336989975354
 20
290.5322176082617
 30
0.0
 70
    32
  0
VERTEX
  5
1872
  8
0
 10
151.01286593835471
 20
289.89380922497179
 30
0.0
 70
    32
  0
VERTEX
  5
1873
  8
0
 10
151.18597384303911
 20
289.25651332239232
 30
0.0
 70
    32
  0
VERTEX
  5
1874
  8
0
 10
151.44570867495139
 20
288.617590682681
 30
0.0
 70
    32
  0
VERTEX
  5
1875
  8
0
 10
151.77758375451029
 20
287.98482755730151
 30
0.0
 70
    32
  0
SEQEND
  5
1876
  8
0
  0
LINE
  5
1877
  8
0
 10
160.0805722024466
 20
287.98482755730151
 30
0.0
 11
151.77758375451029
 21
287.98482755730151
 31
0.0
  0
POLYLINE
  5
1878
  8
0
 66
     1
 10
0.0
 20
0.0
 30
0.0
 70
     8
  0
VERTEX
  5
1879
  8
0
 10
160.0805722024466
 20
287.98482755730151
 30
0.0
 70
    32
  0
VERTEX
  5
187A
  8
0
 10
160.42795964819331
 20
288.6509077580231
 30
0.0
 70
    32
  0
VERTEX
  5
187B
  8
0
 10
160.69618814484909
 20
289.32841356888622
 30
0.0
 70
    32
  0
VERTEX
  5
187C
  8
0
 10
160.86916036051409
 20
290.02321769005988
 30
0.0
 70
    32
  0
VERTEX
  5
187D
  8
0
 10
160.92907797847849
 20
290.72724133595227
 30
0.0
 70
    32
  0
SEQEND
  5
187E
  8
0
  0
POLYLINE
  5
187F
  8
0
 66
     1
 10
0.0
 20
0.0
 30
0.0
 70
     8
  0
VERTEX
  5
1880
  8
0
 10
160.92907797847849
 20
290.72724133595227
 30
0.0
 70
    32
  0
VERTEX
  5
1881
  8
0
 10
160.9244569594216
 20
290.9222650636429
 30
0.0
 70
    32
  0
VERTEX
  5
1882
  8
0
 10
160.8452900186023
 20
291.5606734469327
 30
0.0
 70
    32
  0
VERTEX
  5
1883
  8
0
 10
160.67218211391781
 20
292.19796934951228
 30
0.0
 70
    32
  0
VERTEX
  5
1884
  8
0
 10
160.41244728200559
 20
292.8368919892236
 30
0.0
 70
    32
  0
VERTEX
  5
1885
  8
0
 10
160.0805722024466
 20
293.46965511460297
 30
0.0
 70
    32
  0
SEQEND
  5
1886
  8
0
  0
LINE
  5
1887
  8
0
 10
160.0805722024466
 20
293.46965511460297
 30
0.0
 11
151.77758375451029
 21
293.46965511460297
 31
0.0
  0
POLYLINE
  5
1888
  8
0
 66
     1
 10
0.0
 20
0.0
 30
0.0
 70
     8
  0
VERTEX
  5
1889
  8
0
 10
151.77758375451029
 20
277.01517244269871
 30
0.0
 70
    32
  0
VERTEX
  5
188A
  8
0
 10
151.4301963087637
 20
276.34909224197708
 30
0.0
 70
    32
  0
VERTEX
  5
188B
  8
0
 10
151.16196781210789
 20
275.67158643111412
 30
0.0
 70
    32
  0
VERTEX
  5
188C
  8
0
 10
150.98899559644289
 20
274.97678230994029
 30
0.0
 70
    32
  0
VERTEX
  5
188D
  8
0
 10
150.92907797847849
 20
274.27275866404801
 30
0.0
 70
    32
  0
SEQEND
  5
188E
  8
0
  0
POLYLINE
  5
188F
  8
0
 66
     1
 10
0.0
 20
0.0
 30
0.0
 70
     8
  0
VERTEX
  5
1890
  8
0
 10
150.92907797847849
 20
274.27275866404801
 30
0.0
 70
    32
  0
VERTEX
  5
1891
  8
0
 10
150.9336989975354
 20
274.07773493635727
 30
0.0
 70
    32
  0
VERTEX
  5
1892
  8
0
 10
151.01286593835471
 20
273.43932655306747
 30
0.0
 70
    32
  0
VERTEX
  5
1893
  8
0
 10
151.18597384303911
 20
272.80203065048801
 30
0.0
 70
    32
  0
VERTEX
  5
1894
  8
0
 10
151.44570867495139
 20
272.16310801077668
 30
0.0
 70
    32
  0
VERTEX
  5
1895
  8
0
 10
151.77758375451029
 20
271.5303448853972
 30
0.0
 70
    32
  0
SEQEND
  5
1896
  8
0
  0
LINE
  5
1897
  8
0
 10
160.0805722024466
 20
271.5303448853972
 30
0.0
 11
151.77758375451029
 21
271.5303448853972
 31
0.0
  0
POLYLINE
  5
1898
  8
0
 66
     1
 10
0.0
 20
0.0
 30
0.0
 70
     8
  0
VERTEX
  5
1899
  8
0
 10
160.0805722024466
 20
271.5303448853972
 30
0.0
 70
    32
  0
VERTEX
  5
189A
  8
0
 10
160.42795964819331
 20
272.19642508611878
 30
0.0
 70
    32
  0
VERTEX
  5
189B
  8
0
 10
160.69618814484909
 20
272.8739308969819
 30
0.0
 70
    32
  0
VERTEX
  5
189C
  8
0
 10
160.86916036051409
 20
273.56873501815562
 30
0.0
 70
    32
  0
VERTEX
  5
189D
  8
0
 10
160.92907797847849
 20
274.27275866404801
 30
0.0
 70
    32
  0
SEQEND
  5
189E
  8
0
  0
POLYLINE
  5
189F
  8
0
 66
     1
 10
0.0
 20
0.0
 30
0.0
 70
     8
  0
VERTEX
  5
18A0
  8
0
 10
160.92907797847849
 20
274.27275866404801
 30
0.0
 70
    32
  0
VERTEX
  5
18A1
  8
0
 10
160.9244569594216
 20
274.46778239173852
 30
0.0
 70
    32
  0
VERTEX
  5
18A2
  8
0
 10
160.8452900186023
 20
275.10619077502838
 30
0.0
 70
    32
  0
VERTEX
  5
18A3
  8
0
 10
160.67218211391781
 20
275.74348667760802
 30
0.0
 70
    32
  0
VERTEX
  5
18A4
  8
0
 10
160.41244728200559
 20
276.38240931731917
 30
0.0
 70
    32
  0
VERTEX
  5
18A5
  8
0
 10
160.0805722024466
 20
277.01517244269871
 30
0.0
 70
    32
  0
SEQEND
  5
18A6
  8
0
  0
LINE
  5
18A7
  8
0
 10
160.0805722024466
 20
277.01517244269871
 30
0.0
 11
151.77758375451029
 21
277.01517244269871
 31
0.0
  0
LINE
  5
18A8
  8
3
 10
168.0
 20
287.4265000000002
 30
0.0
 11
160.92907797847849
 21
287.4265000000002
 31
0.0
  0
LINE
  5
18A9
  8
3
 10
150.92907797847849
 20
287.4265000000002
 30
0.0
 11
149.47914562302989
 21
287.4265000000002
 31
0.0
  0
LINE
  5
18AA
  8
3
 10
148.70429835550391
 20
287.4265000000002
 30
0.0
 11
148.42052718232671
 21
287.4265000000002
 31
0.0
  0
LINE
  5
18AB
  8
3
 10
147.80709874774161
 20
287.4265000000002
 30
0.0
 11
147.5
 21
287.4265000000002
 31
0.0
  0
LINE
  5
18AC
  8
3
 10
168.0
 20
277.57350000000008
 30
0.0
 11
160.92907797847849
 21
277.57350000000008
 31
0.0
  0
LINE
  5
18AD
  8
3
 10
150.92907797847849
 20
277.57350000000008
 30
0.0
 11
149.47914507353431
 21
277.57350000000031
 31
0.0
  0
LINE
  5
18AE
  8
3
 10
148.56037289946011
 20
277.57350000000031
 30
0.0
 11
147.5
 21
277.57350000000019
 31
0.0
  0
ARC
  5
18AF
  8
0
 10
132.0
 20
270.00000000000011
 30
0.0
 40
1.0000000000000031
 50
0.0
 51
90.0
  0
LINE
  5
18B0
  8
0
 10
137.33974596215549
 20
167.00000000000011
 30
0.0
 11
128.5
 21
167.00000000000011
 31
0.0
  0
LINE
  5
18B1
  8
0
 10
128.5
 20
297.00000000000011
 30
0.0
 11
146.0
 21
297.00000000000011
 31
0.0
  0
LINE
  5
18B2
  8
0
 10
128.5
 20
141.00000000000011
 30
0.0
 11
146.0
 21
141.00000000000011
 31
0.0
  0
LINE
  5
18B3
  8
0
 10
128.5
 20
271.00000000000011
 30
0.0
 11
137.33974596215549
 21
271.00000000000011
 31
0.0
  0
POLYLINE
  5
18B4
  8
0
 66
     1
 10
0.0
 20
0.0
 30
0.0
 70
     8
  0
VERTEX
  5
18B5
  8
0
 10
137.33974596215549
 20
271.00000000000011
 30
0.0
 70
    32
  0
VERTEX
  5
18B6
  8
0
 10
137.6937470884113
 20
270.97635467958531
 30
0.0
 70
    32
  0
VERTEX
  5
18B7
  8
0
 10
138.10974386353519
 20
270.88690332051431
 30
0.0
 70
    32
  0
VERTEX
  5
18B8
  8
0
 10
138.5026505381179
 20
270.72574290849337
 30
0.0
 70
    32
  0
VERTEX
  5
18B9
  8
0
 10
138.8000413589173
 20
270.5216494735385
 30
0.0
 70
    32
  0
VERTEX
  5
18BA
  8
0
 10
138.98171972648291
 20
270.30680670786683
 30
0.0
 70
    32
  0
VERTEX
  5
18BB
  8
0
 10
139.0373839374779
 20
270.19080734419219
 30
0.0
 70
    32
  0
VERTEX
  5
18BC
  8
0
 10
139.0717967697245
 20
270.00000000000011
 30
0.0
 70
    32
  0
SEQEND
  5
18BD
  8
0
  0
LINE
  5
18BE
  8
0
 10
146.0
 20
297.00000000000011
 30
0.0
 11
146.0
 21
141.00000000000011
 31
0.0
  0
POLYLINE
  5
18BF
  8
0
 66
     1
 10
0.0
 20
0.0
 30
0.0
 70
     8
  0
VERTEX
  5
18C0
  8
0
 10
139.0717967697245
 20
168.00000000000011
 30
0.0
 70
    32
  0
VERTEX
  5
18C1
  8
0
 10
139.06201404971691
 20
167.8979939216178
 30
0.0
 70
    32
  0
VERTEX
  5
18C2
  8
0
 10
139.0373839374779
 20
167.80919265580789
 30
0.0
 70
    32
  0
VERTEX
  5
18C3
  8
0
 10
138.9703745171299
 20
167.67486050782369
 30
0.0
 70
    32
  0
VERTEX
  5
18C4
  8
0
 10
138.8741581403049
 20
167.55114333342911
 30
0.0
 70
    32
  0
VERTEX
  5
18C5
  8
0
 10
138.71818124376821
 20
167.41102442471129
 30
0.0
 70
    32
  0
VERTEX
  5
18C6
  8
0
 10
138.53775588255621
 20
167.29349266378469
 30
0.0
 70
    32
  0
VERTEX
  5
18C7
  8
0
 10
138.21405272181039
 20
167.14786213424389
 30
0.0
 70
    32
  0
VERTEX
  5
18C8
  8
0
 10
137.8625569503028
 20
167.05165400244621
 30
0.0
 70
    32
  0
VERTEX
  5
18C9
  8
0
 10
137.33974596215549
 20
167.00000000000011
 30
0.0
 70
    32
  0
SEQEND
  5
18CA
  8
0
  0
ARC
  5
18CB
  8
0
 10
132.0
 20
168.00000000000011
 30
0.0
 40
1.0000000000000071
 50
270.0
 51
0.0
  0
LINE
  5
18CC
  8
0
 10
128.5
 20
297.00000000000011
 30
0.0
 11
128.5
 21
271.00000000000011
 31
0.0
  0
LINE
  5
18CD
  8
0
 10
128.5
 20
167.00000000000011
 30
0.0
 11
128.5
 21
141.00000000000011
 31
0.0
  0
LINE
  5
18CE
  8
0
 10
139.0717967697245
 20
270.00000000000011
 30
0.0
 11
139.0717967697245
 21
168.00000000000011
 31
0.0
  0
LINE
  5
18CF
  8
0
 10
133.0
 20
270.00000000000011
 30
0.0
 11
133.0
 21
168.00000000000011
 31
0.0
  0
LINE
  5
18D0
  8
1
 10
50.0
 20
155.50000000000011
 30
0.0
 11
77.0
 21
155.50000000000011
 31
0.0
  0
LINE
  5
18D1
  8
1
 10
63.5
 20
136.0
 30
0.0
 11
63.50000000000005
 21
302.00000000000011
 31
0.0
  0
LINE
  5
18D2
  8
1
 10
50.0
 20
282.50000000000011
 30
0.0
 11
77.0
 21
282.50000000000011
 31
0.0
  0
LINE
  5
18D3
  8
0
 10
55.059028491932899
 20
154.50000000000011
 30
0.0
 11
71.940971508067094
 21
154.50000000000011
 31
0.0
  0
ARC
  5
18D4
  8
0
 10
63.5
 20
155.50000000000011
 30
0.0
 40
7.9000000000000021
 50
187.27213955493909
 51
352.72786044506103
  0
LINE
  5
18D5
  8
0
 10
55.059028491932899
 20
156.50000000000011
 30
0.0
 11
71.940971508067094
 21
156.50000000000011
 31
0.0
  0
ARC
  5
18D6
  8
0
 10
63.5
 20
155.50000000000011
 30
0.0
 40
7.9000000000000021
 50
7.2721395549390762
 51
172.72786044506091
  0
LINE
  5
18D7
  8
0
 10
55.059028491932899
 20
281.50000000000011
 30
0.0
 11
71.940971508067094
 21
281.50000000000011
 31
0.0
  0
ARC
  5
18D8
  8
0
 10
63.5
 20
282.50000000000011
 30
0.0
 40
7.9000000000000083
 50
187.27213955493909
 51
352.72786044506103
  0
LINE
  5
18D9
  8
0
 10
55.059028491932899
 20
283.50000000000011
 30
0.0
 11
71.940971508067094
 21
283.50000000000011
 31
0.0
  0
ARC
  5
18DA
  8
0
 10
63.5
 20
282.50000000000011
 30
0.0
 40
7.9000000000000039
 50
7.2721395549390762
 51
172.72786044506091
  0
LINE
  5
18DB
  8
0
 10
77.0
 20
167.00000000000011
 30
0.0
 11
50.0
 21
167.00000000000011
 31
0.0
  0
LINE
  5
18DC
  8
0
 10
50.0
 20
141.00000000000011
 30
0.0
 11
77.0
 21
141.00000000000011
 31
0.0
  0
LINE
  5
18DD
  8
0
 10
50.0
 20
271.00000000000011
 30
0.0
 11
77.0
 21
271.00000000000011
 31
0.0
  0
LINE
  5
18DE
  8
0
 10
50.0
 20
297.00000000000011
 30
0.0
 11
77.0
 21
297.00000000000011
 31
0.0
  0
LINE
  5
18DF
  8
3
 10
68.426500000000033
 20
50.0
 30
0.0
 11
68.426500000000033
 21
57.070922021521469
 31
0.0
  0
LINE
  5
18E0
  8
3
 10
68.426500000000033
 20
67.070922021521483
 30
0.0
 11
68.426500000000033
 21
68.520854926383095
 31
0.0
  0
LINE
  5
18E1
  8
3
 10
68.426500000000033
 20
69.43962710053961
 30
0.0
 11
68.426500000000033
 21
70.5
 31
0.0
  0
LINE
  5
18E2
  8
3
 10
58.57349999999996
 20
50.0
 30
0.0
 11
58.57349999999996
 21
57.070922021521469
 31
0.0
  0
LINE
  5
18E3
  8
3
 10
58.57349999999996
 20
67.070922021521483
 30
0.0
 11
58.57349999999996
 21
68.520854376887314
 31
0.0
  0
LINE
  5
18E4
  8
3
 10
58.57349999999996
 20
69.295701644427353
 30
0.0
 11
58.57349999999996
 21
69.579472817673292
 31
0.0
  0
LINE
  5
18E5
  8
3
 10
58.573500000000003
 20
70.192901252258281
 30
0.0
 11
58.57349999999996
 21
70.5
 31
0.0
  0
LINE
  5
18E6
  8
1
 10
63.5
 20
96.000000000000114
 30
0.0
 11
63.499999999999943
 21
44.999999999999993
 31
0.0
  0
LINE
  5
18EB
  8
0
 10
68.426500000000033
 20
50.0
 30
0.0
 11
58.57349999999996
 21
50.0
 31
0.0
  0
LINE
  5
18EC
  8
0
 10
68.426500000000033
 20
50.0
 30
0.0
 11
69.5
 21
51.07349999999996
 31
0.0
  0
LINE
  5
18ED
  8
0
 10
57.5
 20
51.07349999999996
 30
0.0
 11
58.57349999999996
 21
50.0
 31
0.0
  0
LINE
  5
18EE
  8
0
 10
57.5
 20
70.5
 30
0.0
 11
57.5
 21
70.024029917143451
 31
0.0
  0
LINE
  5
18EF
  8
0
 10
57.5
 20
68.500826237676876
 30
0.0
 11
57.5
 21
67.070922021521483
 31
0.0
  0
LINE
  5
18F0
  8
0
 10
69.5
 20
67.070922021521483
 30
0.0
 11
69.5
 21
67.346245087808086
 31
0.0
  0
LINE
  5
18F1
  8
0
 10
69.5
 20
69.295702147970019
 30
0.0
 11
69.5
 21
70.5
 31
0.0
  0
LINE
  5
18F2
  8
0
 10
69.5
 20
51.07349999999996
 30
0.0
 11
57.5
 21
51.07349999999996
 31
0.0
  0
LINE
  5
18F3
  8
0
 10
57.5
 20
57.070922021521469
 30
0.0
 11
57.5
 21
51.07349999999996
 31
0.0
  0
LINE
  5
18F4
  8
0
 10
69.5
 20
51.07349999999996
 30
0.0
 11
69.5
 21
57.070922021521469
 31
0.0
  0
LINE
  5
18F5
  8
0
 10
73.0
 20
57.070922021521469
 30
0.0
 11
54.0
 21
57.070922021521469
 31
0.0
  0
LINE
  5
18F6
  8
0
 10
73.0
 20
67.070922021521483
 30
0.0
 11
73.0
 21
57.070922021521469
 31
0.0
  0
LINE
  5
18F7
  8
0
 10
73.0
 20
67.070922021521483
 30
0.0
 11
54.0
 21
67.070922021521483
 31
0.0
  0
LINE
  5
18F8
  8
0
 10
54.0
 20
57.070922021521469
 30
0.0
 11
54.0
 21
67.070922021521483
 31
0.0
  0
LINE
  5
18F9
  8
0
 10
55.059028491932899
 20
90.399999999999963
 30
0.0
 11
55.059028491932899
 21
89.500000000000114
 31
0.0
  0
LINE
  5
18FA
  8
0
 10
71.940971508067094
 20
89.500000000000114
 30
0.0
 11
71.940971508067094
 21
90.399999999999963
 31
0.0
  0
LINE
  5
18FB
  8
0
 10
71.336453279386035
 20
91.000000000000114
 30
0.0
 11
55.663546720613972
 21
91.000000000000114
 31
0.0
  0
LINE
  5
18FC
  8
0
 10
55.663546720613972
 20
91.000000000000114
 30
0.0
 11
55.059028491932899
 21
90.399999999999963
 31
0.0
  0
LINE
  5
18FD
  8
0
 10
71.940971508067094
 20
90.399999999999963
 30
0.0
 11
55.059028491932899
 21
90.399999999999963
 31
0.0
  0
LINE
  5
18FE
  8
0
 10
71.940971508067094
 20
90.399999999999963
 30
0.0
 11
71.336453279386035
 21
91.000000000000114
 31
0.0
  0
POLYLINE
  5
18FF
  8
0
 66
     1
 10
0.0
 20
0.0
 30
0.0
 70
     8
  0
VERTEX
  5
1900
  8
0
 10
58.75
 20
67.070922021521483
 30
0.0
 70
    32
  0
VERTEX
  5
1901
  8
0
 10
58.412208994958412
 20
67.06630100246457
 30
0.0
 70
    32
  0
VERTEX
  5
1902
  8
0
 10
57.858685704120262
 20
67.038807624337778
 30
0.0
 70
    32
  0
VERTEX
  5
1903
  8
0
 10
57.306453239122391
 20
66.987134061645293
 30
0.0
 70
    32
  0
VERTEX
  5
1904
  8
0
 10
56.753239899883063
 20
66.911681469434825
 30
0.0
 70
    32
  0
VERTEX
  5
1905
  8
0
 10
56.202624356399333
 20
66.814026156960836
 30
0.0
 70
    32
  0
VERTEX
  5
1906
  8
0
 10
55.647591823049709
 20
66.693912259041099
 30
0.0
 70
    32
  0
VERTEX
  5
1907
  8
0
 10
55.095977882313321
 20
66.554291325048553
 30
0.0
 70
    32
  0
VERTEX
  5
1908
  8
0
 10
54.546168563555632
 20
66.396397177154199
 30
0.0
 70
    32
  0
VERTEX
  5
1909
  8
0
 10
54.0
 20
66.222416245489512
 30
0.0
 70
    32
  0
SEQEND
  5
190A
  8
0
  0
POLYLINE
  5
190B
  8
0
 66
     1
 10
0.0
 20
0.0
 30
0.0
 70
     8
  0
VERTEX
  5
190C
  8
0
 10
54.0
 20
57.919427797553332
 30
0.0
 70
    32
  0
VERTEX
  5
190D
  8
0
 10
54.574827367272569
 20
57.736776831075183
 30
0.0
 70
    32
  0
VERTEX
  5
190E
  8
0
 10
55.153684749565279
 20
57.572040351806663
 30
0.0
 70
    32
  0
VERTEX
  5
190F
  8
0
 10
55.738527503085322
 20
57.426818982564782
 30
0.0
 70
    32
  0
VERTEX
  5
1910
  8
0
 10
56.327159236403361
 20
57.303811855150897
 30
0.0
 70
    32
  0
VERTEX
  5
1911
  8
0
 10
56.927440556984777
 20
57.20391305878649
 30
0.0
 70
    32
  0
VERTEX
  5
1912
  8
0
 10
57.530595275584567
 20
57.13083963948587
 30
0.0
 70
    32
  0
VERTEX
  5
1913
  8
0
 10
58.139753982886297
 20
57.086022016351301
 30
0.0
 70
    32
  0
VERTEX
  5
1914
  8
0
 10
58.75
 20
57.070922021521469
 30
0.0
 70
    32
  0
SEQEND
  5
1915
  8
0
  0
POLYLINE
  5
1916
  8
0
 66
     1
 10
0.0
 20
0.0
 30
0.0
 70
     8
  0
VERTEX
  5
1917
  8
0
 10
73.0
 20
66.222416245489512
 30
0.0
 70
    32
  0
VERTEX
  5
1918
  8
0
 10
72.425172632727424
 20
66.405067211967776
 30
0.0
 70
    32
  0
VERTEX
  5
1919
  8
0
 10
71.846315250434714
 20
66.569803691236302
 30
0.0
 70
    32
  0
VERTEX
  5
191A
  8
0
 10
71.261472496914664
 20
66.715025060478183
 30
0.0
 70
    32
  0
VERTEX
  5
191B
  8
0
 10
70.672840763596639
 20
66.838032187892054
 30
0.0
 70
    32
  0
VERTEX
  5
191C
  8
0
 10
70.072559443015223
 20
66.937930984256468
 30
0.0
 70
    32
  0
VERTEX
  5
191D
  8
0
 10
69.469404724415426
 20
67.011004403557081
 30
0.0
 70
    32
  0
VERTEX
  5
191E
  8
0
 10
68.860246017113695
 20
67.055822026691658
 30
0.0
 70
    32
  0
VERTEX
  5
191F
  8
0
 10
68.25
 20
67.070922021521483
 30
0.0
 70
    32
  0
SEQEND
  5
1920
  8
0
  0
LINE
  5
1921
  8
0
 10
63.5
 20
57.919427797553332
 30
0.0
 11
63.5
 21
66.222416245489512
 31
0.0
  0
POLYLINE
  5
1922
  8
0
 66
     1
 10
0.0
 20
0.0
 30
0.0
 70
     8
  0
VERTEX
  5
1923
  8
0
 10
68.25
 20
57.070922021521469
 30
0.0
 70
    32
  0
VERTEX
  5
1924
  8
0
 10
68.587791005041595
 20
57.075543040578388
 30
0.0
 70
    32
  0
VERTEX
  5
1925
  8
0
 10
69.141314295879738
 20
57.10303641870518
 30
0.0
 70
    32
  0
VERTEX
  5
1926
  8
0
 10
69.693546760877553
 20
57.154709981397673
 30
0.0
 70
    32
  0
VERTEX
  5
1927
  8
0
 10
70.246760100116944
 20
57.230162573608133
 30
0.0
 70
    32
  0
VERTEX
  5
1928
  8
0
 10
70.797375643600674
 20
57.327817886082123
 30
0.0
 70
    32
  0
VERTEX
  5
1929
  8
0
 10
71.352408176950291
 20
57.44793178400186
 30
0.0
 70
    32
  0
VERTEX
  5
192A
  8
0
 10
71.904022117686679
 20
57.587552717994399
 30
0.0
 70
    32
  0
VERTEX
  5
192B
  8
0
 10
72.453831436444375
 20
57.745446865888638
 30
0.0
 70
    32
  0
VERTEX
  5
192C
  8
0
 10
73.0
 20
57.919427797553332
 30
0.0
 70
    32
  0
SEQEND
  5
192D
  8
0
  0
POLYLINE
  5
192E
  8
0
 66
     1
 10
0.0
 20
0.0
 30
0.0
 70
     8
  0
VERTEX
  5
192F
  8
0
 10
63.5
 20
66.222416245489512
 30
0.0
 70
    32
  0
VERTEX
  5
1930
  8
0
 10
62.925172632727417
 20
66.405067211967776
 30
0.0
 70
    32
  0
VERTEX
  5
1931
  8
0
 10
62.346315250434721
 20
66.569803691236302
 30
0.0
 70
    32
  0
VERTEX
  5
1932
  8
0
 10
61.761472496914671
 20
66.715025060478183
 30
0.0
 70
    32
  0
VERTEX
  5
1933
  8
0
 10
61.172840763596639
 20
66.838032187892054
 30
0.0
 70
    32
  0
VERTEX
  5
1934
  8
0
 10
60.572559443015223
 20
66.937930984256468
 30
0.0
 70
    32
  0
VERTEX
  5
1935
  8
0
 10
59.969404724415362
 20
67.011004403557081
 30
0.0
 70
    32
  0
VERTEX
  5
1936
  8
0
 10
59.360246017113703
 20
67.055822026691658
 30
0.0
 70
    32
  0
VERTEX
  5
1937
  8
0
 10
58.75
 20
67.070922021521483
 30
0.0
 70
    32
  0
SEQEND
  5
1938
  8
0
  0
POLYLINE
  5
1939
  8
0
 66
     1
 10
0.0
 20
0.0
 30
0.0
 70
     8
  0
VERTEX
  5
193A
  8
0
 10
68.25
 20
67.070922021521483
 30
0.0
 70
    32
  0
VERTEX
  5
193B
  8
0
 10
67.912208994958405
 20
67.06630100246457
 30
0.0
 70
    32
  0
VERTEX
  5
193C
  8
0
 10
67.358685704120262
 20
67.038807624337778
 30
0.0
 70
    32
  0
VERTEX
  5
193D
  8
0
 10
66.806453239122433
 20
66.987134061645293
 30
0.0
 70
    32
  0
VERTEX
  5
193E
  8
0
 10
66.253239899883056
 20
66.911681469434825
 30
0.0
 70
    32
  0
VERTEX
  5
193F
  8
0
 10
65.702624356399326
 20
66.814026156960836
 30
0.0
 70
    32
  0
VERTEX
  5
1940
  8
0
 10
65.147591823049694
 20
66.693912259041099
 30
0.0
 70
    32
  0
VERTEX
  5
1941
  8
0
 10
64.595977882313321
 20
66.554291325048553
 30
0.0
 70
    32
  0
VERTEX
  5
1942
  8
0
 10
64.046168563555625
 20
66.396397177154199
 30
0.0
 70
    32
  0
VERTEX
  5
1943
  8
0
 10
63.5
 20
66.222416245489512
 30
0.0
 70
    32
  0
SEQEND
  5
1944
  8
0
  0
POLYLINE
  5
1945
  8
0
 66
     1
 10
0.0
 20
0.0
 30
0.0
 70
     8
  0
VERTEX
  5
1946
  8
0
 10
63.5
 20
57.919427797553332
 30
0.0
 70
    32
  0
VERTEX
  5
1947
  8
0
 10
64.074827367272576
 20
57.736776831075183
 30
0.0
 70
    32
  0
VERTEX
  5
1948
  8
0
 10
64.653684749565286
 20
57.572040351806663
 30
0.0
 70
    32
  0
VERTEX
  5
1949
  8
0
 10
65.238527503085322
 20
57.426818982564782
 30
0.0
 70
    32
  0
VERTEX
  5
194A
  8
0
 10
65.827159236403361
 20
57.303811855150897
 30
0.0
 70
    32
  0
VERTEX
  5
194B
  8
0
 10
66.427440556984777
 20
57.20391305878649
 30
0.0
 70
    32
  0
VERTEX
  5
194C
  8
0
 10
67.030595275584631
 20
57.13083963948587
 30
0.0
 70
    32
  0
VERTEX
  5
194D
  8
0
 10
67.639753982886305
 20
57.086022016351301
 30
0.0
 70
    32
  0
VERTEX
  5
194E
  8
0
 10
68.25
 20
57.070922021521469
 30
0.0
 70
    32
  0
SEQEND
  5
194F
  8
0
  0
POLYLINE
  5
1950
  8
0
 66
     1
 10
0.0
 20
0.0
 30
0.0
 70
     8
  0
VERTEX
  5
1951
  8
0
 10
58.75
 20
57.070922021521469
 30
0.0
 70
    32
  0
VERTEX
  5
1952
  8
0
 10
59.087791005041588
 20
57.075543040578388
 30
0.0
 70
    32
  0
VERTEX
  5
1953
  8
0
 10
59.641314295879738
 20
57.10303641870518
 30
0.0
 70
    32
  0
VERTEX
  5
1954
  8
0
 10
60.193546760877553
 20
57.154709981397673
 30
0.0
 70
    32
  0
VERTEX
  5
1955
  8
0
 10
60.746760100116937
 20
57.230162573608133
 30
0.0
 70
    32
  0
VERTEX
  5
1956
  8
0
 10
61.297375643600667
 20
57.327817886082123
 30
0.0
 70
    32
  0
VERTEX
  5
1957
  8
0
 10
61.852408176950291
 20
57.44793178400186
 30
0.0
 70
    32
  0
VERTEX
  5
1958
  8
0
 10
62.404022117686672
 20
57.587552717994399
 30
0.0
 70
    32
  0
VERTEX
  5
1959
  8
0
 10
62.953831436444368
 20
57.745446865888638
 30
0.0
 70
    32
  0
VERTEX
  5
195A
  8
0
 10
63.5
 20
57.919427797553332
 30
0.0
 70
    32
  0
SEQEND
  5
195B
  8
0
  0
LINE
  5
1963
  8
0
 10
77.0
 20
72.0
 30
0.0
 11
77.0
 21
87.5
 31
0.0
  0
LINE
  5
1964
  8
0
 10
75.0
 20
89.500000000000114
 30
0.0
 11
52.0
 21
89.500000000000114
 31
0.0
  0
ARC
  5
1965
  8
0
 10
75.0
 20
87.5
 30
0.0
 40
2.0
 50
0.0
 51
90.0
  0
ARC
  5
1966
  8
0
 10
52.0
 20
87.5
 30
0.0
 40
2.0000000000000031
 50
90.0
 51
180.0
  0
LINE
  5
1967
  8
0
 10
50.0
 20
72.0
 30
0.0
 11
77.0
 21
72.0
 31
0.0
  0
LINE
  5
1968
  8
0
 10
50.0
 20
87.5
 30
0.0
 11
50.0
 21
72.0
 31
0.0
  0
LINE
  5
196A
  8
0
 10
53.5
 20
70.5
 30
0.0
 11
73.5
 21
70.5
 31
0.0
  0
LINE
  5
196B
  8
0
 10
60.073017763837129
 20
68.874191327154222
 30
0.0
 11
58.629882723802901
 21
70.094796062454634
 31
0.0
  0
LINE
  5
196C
  8
0
 10
59.57466120991058
 20
69.295701686695111
 30
0.0
 11
60.590130397568842
 21
69.29570173388845
 31
0.0
  0
LINE
  5
196D
  8
0
 10
59.16030722708593
 20
67.486938166653317
 30
0.0
 11
61.956963584446157
 21
69.766557116669446
 31
0.0
  0
LINE
  5
196E
  8
0
 10
61.613145808921217
 20
70.129585135697539
 30
0.0
 11
58.816489458309441
 21
67.849966192072884
 31
0.0
  0
LINE
  5
196F
  8
0
 10
53.5
 20
72.0
 30
0.0
 11
53.5
 21
70.5
 31
0.0
  0
LINE
  5
1970
  8
0
 10
53.250000015571239
 20
68.520854074886529
 30
0.0
 11
53.249999986762759
 21
69.295701392759725
 31
0.0
  0
LINE
  5
1971
  8
0
 10
53.249999963996409
 20
69.295701392759725
 30
0.0
 11
57.452262835331801
 21
69.295701588057682
 31
0.0
  0
LINE
  5
1972
  8
0
 10
56.1469573164959
 20
67.454255954395975
 30
0.0
 11
56.575217509787429
 21
67.196199347799165
 31
0.0
  0
LINE
  5
1973
  8
0
 10
56.575217509787429
 20
67.196199347799165
 30
0.0
 11
58.66173609402211
 21
70.139732859767378
 31
0.0
  0
LINE
  5
1974
  8
0
 10
58.66173609402211
 20
70.139732859767378
 30
0.0
 11
58.233475895933232
 21
70.39778945840294
 31
0.0
  0
LINE
  5
1975
  8
0
 10
58.233475895933232
 20
70.39778945840294
 30
0.0
 11
56.1469573164959
 21
67.454255954395975
 31
0.0
  0
LINE
  5
1976
  8
0
 10
58.816489458309441
 20
67.849966192072884
 30
0.0
 11
59.16030722708593
 21
67.486938166653317
 31
0.0
  0
LINE
  5
1977
  8
0
 10
53.249999986762759
 20
68.520854074886529
 30
0.0
 11
55.339528029035769
 21
68.52085419141838
 31
0.0
  0
LINE
  5
1978
  8
0
 10
56.023819052245933
 20
68.520854229580777
 30
0.0
 11
56.903013674354959
 21
68.520854278613001
 31
0.0
  0
LINE
  5
1979
  8
0
 10
57.514196865966831
 20
68.520854312698134
 30
0.0
 11
59.639540986210029
 21
68.520854431227235
 31
0.0
  0
LINE
  5
197A
  8
0
 10
58.063446022694293
 20
69.295701616462225
 30
0.0
 11
58.895692808557669
 21
69.295701655140419
 31
0.0
  0
LINE
  5
197B
  8
0
 10
56.573472182718326
 20
68.055957185842317
 30
0.0
 11
55.107708222826552
 21
69.295701479095783
 31
0.0
  0
LINE
  5
197C
  8
0
 10
54.459769099728767
 20
69.295701448983095
 30
0.0
 11
56.302077120035847
 21
67.673089538412341
 31
0.0
  0
LINE
  5
197D
  8
0
 10
58.383325845022291
 20
69.746968614004913
 30
0.0
 11
59.710126064803269
 21
68.578389952980842
 31
0.0
  0
LINE
  5
197E
  8
0
 10
58.129434781091277
 20
70.251014581653862
 30
0.0
 11
55.480073699311447
 21
69.295610853769517
 31
0.0
  0
LINE
  5
197F
  8
0
 10
65.431329563921622
 20
67.368900059275234
 30
0.0
 11
68.035431542423325
 21
69.866219066530789
 31
0.0
  0
LINE
  5
1980
  8
0
 10
67.663510008296271
 20
70.200396231847321
 30
0.0
 11
65.059408036006857
 21
67.703077231505631
 31
0.0
  0
LINE
  5
1981
  8
0
 10
66.632540809267539
 20
68.520854821222542
 30
0.0
 11
68.809433719872573
 21
68.520854942626443
 31
0.0
  0
LINE
  5
1982
  8
0
 10
61.956963584446157
 20
69.766557116669446
 30
0.0
 11
61.613145808921217
 21
70.129585135697539
 31
0.0
  0
LINE
  5
1983
  8
0
 10
61.98749530782721
 20
67.739858457144905
 30
0.0
 11
62.34966051770062
 21
67.395131947976097
 31
0.0
  0
LINE
  5
1984
  8
0
 10
62.34966051770062
 20
67.395131947976097
 30
0.0
 11
65.024448737989474
 21
69.816589631901365
 31
0.0
  0
LINE
  5
1985
  8
0
 10
65.024448737989474
 20
69.816589631901365
 30
0.0
 11
64.66228352170765
 21
70.161316134337653
 31
0.0
  0
LINE
  5
1986
  8
0
 10
64.66228352170765
 20
70.161316134337653
 30
0.0
 11
61.98749530782721
 21
67.739858457144905
 31
0.0
  0
LINE
  5
1987
  8
0
 10
65.059408036006857
 20
67.703077231505631
 30
0.0
 11
65.431329563921622
 21
67.368900059275234
 31
0.0
  0
LINE
  5
1988
  8
0
 10
63.593155230521461
 20
68.520854651717855
 30
0.0
 11
65.82984145448529
 21
68.520854776456531
 31
0.0
  0
LINE
  5
1989
  8
0
 10
64.449066255263006
 20
69.295701913230459
 30
0.0
 11
64.950082635886474
 21
69.295701936515002
 31
0.0
  0
LINE
  5
198A
  8
0
 10
61.3793141500662
 20
69.295701770565415
 30
0.0
 11
61.826571434669638
 21
69.295701791351462
 31
0.0
  0
LINE
  5
198B
  8
0
 10
63.12143620975138
 20
68.766403246073764
 30
0.0
 11
61.947786750584683
 21
69.759076868223133
 31
0.0
  0
LINE
  5
198C
  8
0
 10
61.611596737982502
 20
69.485040652970156
 30
0.0
 11
62.779252762994247
 21
68.456628165617417
 31
0.0
  0
LINE
  5
198D
  8
0
 10
66.20479127388603
 20
68.801493250949648
 30
0.0
 11
65.014876559113304
 21
69.807924038896431
 31
0.0
  0
LINE
  5
198E
  8
0
 10
64.696132504391699
 20
69.519368393759123
 30
0.0
 11
65.872747575853282
 21
68.483065230517013
 31
0.0
  0
LINE
  5
198F
  8
0
 10
62.495640405333809
 20
69.295701822446063
 30
0.0
 11
63.706109548258162
 21
69.295701878702062
 31
0.0
  0
LINE
  5
1990
  8
0
 10
65.620482614772072
 20
69.295701967671434
 30
0.0
 11
66.720131935950462
 21
69.295702018777206
 31
0.0
  0
LINE
  5
1991
  8
0
 10
60.428724748078032
 20
68.520854475239503
 30
0.0
 11
62.706330286232181
 21
68.520854602260215
 31
0.0
  0
LINE
  5
1992
  8
0
 10
73.5
 20
72.0
 30
0.0
 11
73.5
 21
70.5
 31
0.0
  0
LINE
  5
1993
  8
0
 10
70.621053263387466
 20
70.315205046183664
 30
0.0
 11
70.156455770485991
 21
70.5
 31
0.0
  0
LINE
  5
1994
  8
0
 10
73.750000033669721
 20
68.520855218158772
 30
0.0
 11
73.749999963996288
 21
69.295702345486575
 31
0.0
  0
LINE
  5
1995
  8
0
 10
69.747855271236631
 20
68.520854994961724
 30
0.0
 11
73.750000053915187
 21
68.520855218158772
 31
0.0
  0
LINE
  5
1996
  8
0
 10
71.175597391933934
 20
69.295702225842547
 30
0.0
 11
73.749999963996288
 21
69.295702345486575
 31
0.0
  0
LINE
  5
1997
  8
0
 10
70.280736647214781
 20
69.615882391813784
 30
0.0
 11
71.26387230806256
 21
68.520855079509033
 31
0.0
  0
LINE
  5
1998
  8
0
 10
71.899811388493845
 20
68.520855114974893
 30
0.0
 11
70.484665793524186
 21
70.034940013814207
 31
0.0
  0
LINE
  5
1999
  8
0
 10
68.035431542423325
 20
69.866219066530789
 30
0.0
 11
67.663510008296271
 21
70.200396231847321
 31
0.0
  0
LINE
  5
199A
  8
0
 10
68.577666049377285
 20
67.255716983974693
 30
0.0
 11
69.042263538843599
 21
67.070922021521483
 31
0.0
  0
LINE
  5
199B
  8
0
 10
67.440519766505531
 20
69.295702052256843
 30
0.0
 11
67.929674932718626
 21
69.295702074990004
 31
0.0
  0
LINE
  5
199C
  8
0
 10
67.674695412015524
 20
69.52027516628857
 30
0.0
 11
69.078154384361369
 21
68.284179345489861
 31
0.0
  0
LINE
  5
199D
  8
0
 10
69.286474484096289
 20
68.712260015404922
 30
0.0
 11
67.982336339686299
 21
69.815301068662833
 31
0.0
  0
LINE
  5
199E
  8
0
 10
69.042263538843599
 20
67.070922021521483
 30
0.0
 11
70.621053263387466
 21
70.315205046183664
 31
0.0
  0
LINE
  5
199F
  8
0
 10
70.156455770485991
 20
70.5
 30
0.0
 11
68.577666049377285
 21
67.255716983974693
 31
0.0
  0
LINE
  5
19A0
  8
0
 10
69.042263538843599
 20
67.070922021521483
 30
0.0
 11
71.452839741746402
 21
68.520855090047576
 31
0.0
  0
LINE
  5
19A1
  8
0
 10
68.596664179088748
 20
69.295702105987971
 30
0.0
 11
69.570399296565256
 21
69.295702151241812
 31
0.0
  0
LINE
  5
19B1
  8
0
 10
148.70429860247799
 20
145.24999996399649
 30
0.0
 11
148.70429840718
 21
149.45226283533191
 31
0.0
  0
LINE
  5
19B2
  8
0
 10
147.5
 20
145.50000000000011
 30
0.0
 11
147.49999999999989
 21
165.50000000000011
 31
0.0
  0
LINE
  5
19B3
  8
0
 10
150.80380064743849
 20
148.57521750978751
 30
0.0
 11
147.86026713547031
 21
150.66173609402219
 31
0.0
  0
LINE
  5
19B4
  8
0
 10
147.6022105368348
 20
150.23347589593331
 30
0.0
 11
150.5457440408417
 21
148.1469573164959
 31
0.0
  0
LINE
  5
19B5
  8
0
 10
147.7489854135838
 20
150.12943478109139
 30
0.0
 11
148.7043891414682
 21
147.4800736993115
 31
0.0
  0
LINE
  5
19B6
  8
0
 10
146.0
 20
145.50000000000011
 30
0.0
 11
147.5
 21
145.50000000000011
 31
0.0
  0
LINE
  5
19B7
  8
0
 10
149.94404280939551
 20
148.5734721827184
 30
0.0
 11
148.7042985161419
 21
147.1077082228266
 31
0.0
  0
LINE
  5
19B8
  8
0
 10
148.70429854625459
 20
146.4597690997289
 30
0.0
 11
150.3269104568254
 21
148.3020771200359
 31
0.0
  0
LINE
  5
19B9
  8
0
 10
149.47914592035119
 20
145.25000001557129
 30
0.0
 11
148.70429860247799
 21
145.24999998676279
 31
0.0
  0
LINE
  5
19BA
  8
0
 10
149.47914592035119
 20
145.24999998676279
 30
0.0
 11
149.47914580381951
 21
147.33952802903599
 31
0.0
  0
LINE
  5
19BB
  8
0
 10
149.47914576565699
 20
148.02381905224601
 30
0.0
 11
149.479145716625
 21
148.90301367435481
 31
0.0
  0
LINE
  5
19BC
  8
0
 10
150.5457440408417
 20
148.1469573164959
 30
0.0
 11
150.80380064743849
 21
148.57521750978751
 31
0.0
  0
LINE
  5
19BD
  8
0
 10
149.47914517401509
 20
158.6325408092676
 30
0.0
 11
149.4791450526113
 21
160.80943371987269
 31
0.0
  0
LINE
  5
19BE
  8
0
 10
148.70429794298099
 20
159.4405197665055
 30
0.0
 11
148.70429792024771
 21
159.92967493271871
 31
0.0
  0
LINE
  5
19BF
  8
0
 10
150.63109993596251
 20
157.43132956392171
 30
0.0
 11
148.1337809287069
 21
160.0354315424234
 31
0.0
  0
LINE
  5
19C0
  8
0
 10
147.79960376339039
 20
159.6635100082963
 30
0.0
 11
150.296922763732
 21
157.05940803600689
 31
0.0
  0
LINE
  5
19C1
  8
0
 10
150.51306182858451
 20
151.16030722708589
 30
0.0
 11
148.23344287856841
 21
153.9569635844463
 31
0.0
  0
LINE
  5
19C2
  8
0
 10
150.60486804726159
 20
154.3496605177007
 30
0.0
 11
148.18341036333629
 21
157.02444873798959
 31
0.0
  0
LINE
  5
19C3
  8
0
 10
149.47914551999821
 20
152.42872474807811
 30
0.0
 11
149.4791453929775
 21
154.70633028623229
 31
0.0
  0
LINE
  5
19C4
  8
0
 10
148.7042982246723
 20
153.37931415006619
 30
0.0
 11
148.7042982038862
 21
153.82657143466969
 31
0.0
  0
LINE
  5
19C5
  8
0
 10
148.2530313812328
 20
150.38332584502231
 30
0.0
 11
149.42161004225699
 21
151.7101260648034
 31
0.0
  0
LINE
  5
19C6
  8
0
 10
149.23359674916401
 20
155.12143620975149
 30
0.0
 11
148.2409231270145
 21
153.94778675058481
 31
0.0
  0
LINE
  5
19C7
  8
0
 10
148.5149593422675
 20
153.61159673798261
 30
0.0
 11
149.54337182962021
 21
154.7792527629943
 31
0.0
  0
LINE
  5
19C8
  8
0
 10
148.7042983085426
 20
151.57466120991049
 30
0.0
 11
148.70429826134921
 21
152.59013039756891
 31
0.0
  0
LINE
  5
19C9
  8
0
 10
148.7042980820072
 20
156.44906625526309
 30
0.0
 11
148.70429805872271
 21
156.95008263588659
 31
0.0
  0
LINE
  5
19CA
  8
0
 10
148.7042981727916
 20
154.49564040533389
 30
0.0
 11
148.70429811653571
 21
155.70610954825821
 31
0.0
  0
LINE
  5
19CB
  8
0
 10
150.1500338031648
 20
150.81648945830949
 30
0.0
 11
150.51306182858451
 21
151.16030722708589
 31
0.0
  0
LINE
  5
19CC
  8
0
 10
150.2601415380928
 20
153.98749530782729
 30
0.0
 11
150.60486804726159
 21
154.3496605177007
 31
0.0
  0
LINE
  5
19CD
  8
0
 10
150.296922763732
 20
157.05940803600689
 30
0.0
 11
150.63109993596251
 21
157.43132956392171
 31
0.0
  0
LINE
  5
19CE
  8
0
 10
149.47914568253961
 20
149.51419686596691
 30
0.0
 11
149.47914556401039
 21
151.63954098621019
 31
0.0
  0
LINE
  5
19CF
  8
0
 10
148.7042983787756
 20
150.06344602269439
 30
0.0
 11
148.7042983400973
 21
150.89569280855781
 31
0.0
  0
LINE
  5
19D0
  8
0
 10
147.86026713547031
 20
150.66173609402219
 30
0.0
 11
147.6022105368348
 21
150.23347589593331
 31
0.0
  0
LINE
  5
19D1
  8
0
 10
147.8704148595402
 20
153.6131458089213
 30
0.0
 11
150.1500338031648
 21
150.81648945830949
 31
0.0
  0
LINE
  5
19D2
  8
0
 10
147.83868386090001
 20
156.66228352170759
 30
0.0
 11
150.2601415380928
 21
153.98749530782729
 31
0.0
  0
LINE
  5
19D3
  8
0
 10
148.23344287856841
 20
153.9569635844463
 30
0.0
 11
147.8704148595402
 21
153.6131458089213
 31
0.0
  0
LINE
  5
19D4
  8
0
 10
149.12580866808349
 20
152.07301776383721
 30
0.0
 11
147.90520393278311
 21
150.62988272380301
 31
0.0
  0
LINE
  5
19D5
  8
0
 10
148.18341036333629
 20
157.02444873798959
 30
0.0
 11
147.83868386090001
 21
156.66228352170759
 31
0.0
  0
LINE
  5
19D6
  8
0
 10
148.70429802756621
 20
157.6204826147721
 30
0.0
 11
148.70429797646059
 21
158.7201319359506
 31
0.0
  0
LINE
  5
19D7
  8
0
 10
149.4791453435198
 20
155.5931552305214
 30
0.0
 11
149.4791452187813
 21
157.8298414544854
 31
0.0
  0
LINE
  5
19D8
  8
0
 10
149.19850674428801
 20
158.20479127388609
 30
0.0
 11
148.19207595634131
 21
157.01487655911339
 31
0.0
  0
LINE
  5
19D9
  8
0
 10
148.48063160147859
 20
156.69613250439181
 30
0.0
 11
149.5169347647207
 21
157.8727475758534
 31
0.0
  0
LINE
  5
19DA
  8
0
 10
146.0
 20
165.50000000000011
 30
0.0
 11
147.5
 21
165.50000000000011
 31
0.0
  0
LINE
  5
19DB
  8
0
 10
150.9290779737162
 20
161.04226353884371
 30
0.0
 11
149.47914490519011
 21
163.45283974174649
 31
0.0
  0
LINE
  5
19DC
  8
0
 10
148.3841176034239
 20
162.28073664721481
 30
0.0
 11
149.4791449157288
 21
163.26387230806259
 31
0.0
  0
LINE
  5
19DD
  8
0
 10
148.47972482894909
 20
159.6746954120155
 30
0.0
 11
149.7158206497478
 21
161.07815438436131
 31
0.0
  0
LINE
  5
19DE
  8
0
 10
149.28773997983279
 20
161.2864744840964
 30
0.0
 11
148.18469892657481
 21
159.98233633968641
 31
0.0
  0
LINE
  5
19DF
  8
0
 10
148.70429788924969
 20
160.5966641790888
 30
0.0
 11
148.7042978439959
 21
161.5703992965654
 31
0.0
  0
LINE
  5
19E0
  8
0
 10
149.47914488026279
 20
163.8998113884939
 30
0.0
 11
147.96505998142359
 21
162.4846657935243
 31
0.0
  0
LINE
  5
19E1
  8
0
 10
150.74428301126309
 20
160.5776660493774
 30
0.0
 11
150.9290779737162
 21
161.04226353884371
 31
0.0
  0
LINE
  5
19E2
  8
0
 10
149.47914477707889
 20
165.75000003366981
 30
0.0
 11
148.70429764975111
 21
165.7499999639964
 31
0.0
  0
LINE
  5
19E3
  8
0
 10
149.47914500027611
 20
161.74785527123669
 30
0.0
 11
149.47914477707889
 21
165.7500000539153
 31
0.0
  0
LINE
  5
19E4
  8
0
 10
148.7042978182246
 20
162.12492495344861
 30
0.0
 11
148.70429779762361
 21
162.56820031435589
 31
0.0
  0
LINE
  5
19E5
  8
0
 10
148.7042977693952
 20
163.17559739193399
 30
0.0
 11
148.70429764975111
 21
165.7499999639964
 31
0.0
  0
LINE
  5
19E6
  8
0
 10
147.68479494905401
 20
162.62105326338761
 30
0.0
 11
147.49999999523769
 21
162.1564557704861
 31
0.0
  0
LINE
  5
19E7
  8
0
 10
150.9290779737162
 20
161.04226353884371
 30
0.0
 11
147.68479494905401
 21
162.62105326338761
 31
0.0
  0
LINE
  5
19E8
  8
0
 10
147.49999999523769
 20
162.1564557704861
 30
0.0
 11
150.74428301126309
 21
160.5776660493774
 31
0.0
  0
LINE
  5
19E9
  8
0
 10
148.1337809287069
 20
160.0354315424234
 30
0.0
 11
147.79960376339039
 21
159.6635100082963
 31
0.0
  0
LINE
  5
19EA
  8
0
 10
147.5
 20
272.50000000000023
 30
0.0
 11
147.5
 21
292.50000000000023
 31
0.0
  0
LINE
  5
19EB
  8
0
 10
150.63109994072471
 20
280.56867043607849
 30
0.0
 11
148.13378093346921
 21
277.96456845757677
 31
0.0
  0
LINE
  5
19EC
  8
0
 10
147.79960376815271
 20
278.33648999170379
 30
0.0
 11
150.2969227684944
 21
280.94059196399331
 31
0.0
  0
LINE
  5
19ED
  8
0
 10
149.4791451787774
 20
279.36745919073257
 30
0.0
 11
149.4791450573735
 21
277.19056628012748
 31
0.0
  0
LINE
  5
19EE
  8
0
 10
146.0
 20
272.50000000000023
 30
0.0
 11
147.5
 21
272.50000000000023
 31
0.0
  0
LINE
  5
19EF
  8
0
 10
148.13378093346921
 20
277.96456845757677
 30
0.0
 11
147.79960376815271
 21
278.33648999170379
 31
0.0
  0
LINE
  5
19F0
  8
0
 10
150.74428301602541
 20
277.42233395062271
 30
0.0
 11
150.92907797847849
 21
276.95773646115651
 31
0.0
  0
LINE
  5
19F1
  8
0
 10
150.92907797847849
 20
276.95773646115651
 30
0.0
 11
147.68479495381629
 21
275.37894673661248
 31
0.0
  0
LINE
  5
19F2
  8
0
 10
147.68479495381629
 20
275.37894673661248
 30
0.0
 11
147.5
 21
275.84354422951412
 31
0.0
  0
LINE
  5
19F3
  8
0
 10
147.5
 20
275.84354422951412
 30
0.0
 11
150.74428301602541
 21
277.42233395062271
 31
0.0
  0
LINE
  5
19F4
  8
0
 10
148.70429794774321
 20
278.55948023349458
 30
0.0
 11
148.70429792501
 21
278.07032506728149
 31
0.0
  0
LINE
  5
19F5
  8
0
 10
148.38411760818619
 20
275.71926335278539
 30
0.0
 11
149.479144920491
 21
274.73612769193761
 31
0.0
  0
LINE
  5
19F6
  8
0
 10
150.92907797847849
 20
276.95773646115651
 30
0.0
 11
149.4791449099524
 21
274.5471602582536
 31
0.0
  0
LINE
  5
19F7
  8
0
 10
148.47972483371129
 20
278.32530458798459
 30
0.0
 11
149.71582065451011
 21
276.92184561563869
 31
0.0
  0
LINE
  5
19F8
  8
0
 10
149.28773998459511
 20
276.71352551590371
 30
0.0
 11
148.1846989313371
 21
278.01766366031381
 31
0.0
  0
LINE
  5
19F9
  8
0
 10
148.704297894012
 20
277.40333582091142
 30
0.0
 11
148.70429784875819
 21
276.4296007034348
 31
0.0
  0
LINE
  5
19FA
  8
0
 10
149.4791447818412
 20
272.24999996633039
 30
0.0
 11
148.7042976545134
 21
272.25000003600371
 31
0.0
  0
LINE
  5
19FB
  8
0
 10
149.47914500503839
 20
276.25214472876348
 30
0.0
 11
149.4791447818412
 21
272.24999994608493
 31
0.0
  0
LINE
  5
19FC
  8
0
 10
148.7042977741574
 20
274.82440260806612
 30
0.0
 11
148.7042976545134
 21
272.25000003600371
 31
0.0
  0
LINE
  5
19FD
  8
0
 10
149.47914488502511
 20
274.10018861150621
 30
0.0
 11
147.96505998618591
 21
275.51533420647581
 31
0.0
  0
LINE
  5
19FE
  8
0
 10
150.54574404560401
 20
289.85304268350421
 30
0.0
 11
150.80380065220081
 21
289.42478249021269
 31
0.0
  0
LINE
  5
19FF
  8
0
 10
147.602210541597
 20
287.76652410406689
 30
0.0
 11
150.54574404560401
 21
289.85304268350421
 31
0.0
  0
LINE
  5
1A00
  8
0
 10
149.9440428141578
 20
289.42652781728179
 30
0.0
 11
148.70429852090419
 21
290.89229177717363
 31
0.0
  0
LINE
  5
1A01
  8
0
 10
147.74898541834611
 20
287.87056521890878
 30
0.0
 11
148.7043891462304
 21
290.51992630068872
 31
0.0
  0
LINE
  5
1A02
  8
0
 10
148.7042986072403
 20
292.75000003600371
 30
0.0
 11
148.70429841194229
 21
288.54773716466821
 31
0.0
  0
LINE
  5
1A03
  8
0
 10
150.80380065220081
 20
289.42478249021269
 30
0.0
 11
147.86026714023259
 21
287.33826390597801
 31
0.0
  0
LINE
  5
1A04
  8
0
 10
147.86026714023259
 20
287.33826390597801
 30
0.0
 11
147.602210541597
 21
287.76652410406689
 31
0.0
  0
LINE
  5
1A05
  8
0
 10
150.15003380792709
 20
287.18351054169062
 30
0.0
 11
150.5130618333468
 21
286.83969277291419
 31
0.0
  0
LINE
  5
1A06
  8
0
 10
150.5130618333468
 20
286.83969277291419
 30
0.0
 11
148.23344288333061
 21
284.0430364155539
 31
0.0
  0
LINE
  5
1A07
  8
0
 10
148.23344288333061
 20
284.0430364155539
 30
0.0
 11
147.8704148643024
 21
284.3868541910789
 31
0.0
  0
LINE
  5
1A08
  8
0
 10
147.8704148643024
 20
284.3868541910789
 30
0.0
 11
150.15003380792709
 21
287.18351054169062
 31
0.0
  0
LINE
  5
1A09
  8
0
 10
150.260141542855
 20
284.01250469217291
 30
0.0
 11
150.6048680520239
 21
283.65033948229939
 31
0.0
  0
LINE
  5
1A0A
  8
0
 10
149.4791455247605
 20
285.57127525192209
 30
0.0
 11
149.47914539773981
 21
283.29366971376788
 31
0.0
  0
LINE
  5
1A0B
  8
0
 10
148.70429822943461
 20
284.62068584993392
 30
0.0
 11
148.70429820864851
 21
284.17342856533043
 31
0.0
  0
LINE
  5
1A0C
  8
0
 10
149.47914577041919
 20
289.97618094775407
 30
0.0
 11
149.47914572138711
 21
289.09698632564528
 31
0.0
  0
LINE
  5
1A0D
  8
0
 10
149.47914568730181
 20
288.48580313403318
 30
0.0
 11
149.47914556877271
 21
286.36045901378992
 31
0.0
  0
LINE
  5
1A0E
  8
0
 10
148.70429838353789
 20
287.93655397730572
 30
0.0
 11
148.70429834485961
 21
287.10430719144227
 31
0.0
  0
LINE
  5
1A0F
  8
0
 10
149.12580867284569
 20
285.92698223616298
 30
0.0
 11
147.90520393754531
 21
287.37011727619711
 31
0.0
  0
LINE
  5
1A10
  8
0
 10
148.2530313859952
 20
287.61667415497772
 30
0.0
 11
149.42161004701919
 21
286.28987393519691
 31
0.0
  0
LINE
  5
1A11
  8
0
 10
149.23359675392621
 20
282.87856379024879
 30
0.0
 11
148.2409231317769
 21
284.05221324941539
 31
0.0
  0
LINE
  5
1A12
  8
0
 10
148.51495934702979
 20
284.38840326201762
 30
0.0
 11
149.54337183438241
 21
283.22074723700581
 31
0.0
  0
LINE
  5
1A13
  8
0
 10
148.70429831330489
 20
286.4253387900896
 30
0.0
 11
148.70429826611149
 21
285.40986960243129
 31
0.0
  0
LINE
  5
1A14
  8
0
 10
148.18341036809861
 20
280.97555126201058
 30
0.0
 11
147.83868386566229
 21
281.33771647829252
 31
0.0
  0
LINE
  5
1A15
  8
0
 10
150.2969227684944
 20
280.94059196399331
 30
0.0
 11
150.63109994072471
 21
280.56867043607849
 31
0.0
  0
LINE
  5
1A16
  8
0
 10
149.47914534828209
 20
282.4068447694786
 30
0.0
 11
149.47914522354361
 21
280.17015854551482
 31
0.0
  0
LINE
  5
1A17
  8
0
 10
148.70429808676951
 20
281.55093374473711
 30
0.0
 11
148.704298063485
 21
281.04991736411353
 31
0.0
  0
LINE
  5
1A18
  8
0
 10
149.1985067490503
 20
279.79520872611408
 30
0.0
 11
148.1920759611036
 21
280.98512344088681
 31
0.0
  0
LINE
  5
1A19
  8
0
 10
148.48063160624079
 20
281.30386749560842
 30
0.0
 11
149.51693476948299
 21
280.12725242414677
 31
0.0
  0
LINE
  5
1A1A
  8
0
 10
148.7042980323285
 20
280.3795173852281
 30
0.0
 11
148.70429798122291
 21
279.27986806404971
 31
0.0
  0
LINE
  5
1A1B
  8
0
 10
150.6048680520239
 20
283.65033948229939
 30
0.0
 11
148.18341036809861
 21
280.97555126201058
 31
0.0
  0
LINE
  5
1A1C
  8
0
 10
147.83868386566229
 20
281.33771647829252
 30
0.0
 11
150.260141542855
 21
284.01250469217291
 31
0.0
  0
LINE
  5
1A1D
  8
0
 10
148.70429817755391
 20
283.50435959466631
 30
0.0
 11
148.704298121298
 21
282.29389045174202
 31
0.0
  0
LINE
  5
1A1E
  8
0
 10
146.0
 20
292.50000000000023
 30
0.0
 11
147.5
 21
292.50000000000023
 31
0.0
  0
LINE
  5
1A1F
  8
0
 10
149.47914592511339
 20
292.74999998442888
 30
0.0
 11
148.7042986072403
 21
292.7500000132373
 31
0.0
  0
LINE
  5
1A20
  8
0
 10
149.47914592511339
 20
292.7500000132373
 30
0.0
 11
149.47914580858179
 21
290.66047197096418
 31
0.0
  0
LINE
  5
1A21
  8
0
 10
148.7042985510169
 20
291.5402309002713
 30
0.0
 11
150.3269104615876
 21
289.69792287996432
 31
0.0
  0
LINE
  5
1A22
  8
0
 10
77.0
 20
297.00000000000011
 30
0.0
 11
77.0
 21
141.00000000000011
 31
0.0
  0
LINE
  5
1A23
  8
0
 10
50.0
 20
297.00000000000011
 30
0.0
 11
50.0
 21
141.00000000000011
 31
0.0
  0
CIRCLE
  5
1A24
  8
0
 10
63.5
 20
282.50000000000011
 30
0.0
 40
8.5
  0
CIRCLE
  5
1A25
  8
0
 10
63.5
 20
155.50000000000011
 30
0.0
 40
8.5
  0
INSERT
  5
1D44
  8
0
  6
CONTINUOUS
  2
*U0
 10
0.0
 20
0.0
 30
0.0
1001
GRADIENTCOLOR1ACI
1070
     5
1001
GRADIENTCOLOR2ACI
1070
     2
1001
ACAD
1002
{
1000
R14_HATCH_DATA
1000
1D44
1011
1.0
1021
0.0
1031
0.0
1021
0.0
1031
0.0
1011
0.0
1021
0.0
1031
0.0
1021
1.0
1031
0.0
1011
0.0
1021
0.0
1031
0.0
1021
0.0
1031
1.0
1040
0.0
1010
0.0
1020
0.0
1030
1.0
1000
SOLID
1070
     1
1070
     0
1071
        6
1071
        1
1071
        4
1070
     1
1040
63.49750000000013
1040
259.24999999999972
1040
55.997500000000208
1040
259.24999999999989
1070
     1
1040
55.997500000000208
1040
259.24999999999989
1040
55.997500000000208
1040
257.74999999999989
1070
     1
1040
55.997500000000208
1040
257.75
1040
63.497500000000102
1040
257.75
1070
     1
1040
63.497500000000102
1040
257.75
1040
63.49750000000013
1040
259.24999999999977
1071
        0
1071
        1
1071
        4
1070
     1
1040
70.997500000000215
1040
259.24999999999977
1040
63.49750000000013
1040
259.24999999999977
1070
     1
1040
63.49750000000013
1040
259.24999999999972
1040
63.497500000000102
1040
257.74999999999989
1070
     1
1040
63.497500000000102
1040
257.75
1040
70.997500000000215
1040
257.75
1070
     1
1040
70.997500000000215
1040
257.75
1040
70.997500000000215
1040
259.24999999999977
1071
        0
1071
        1
1071
        4
1070
     1
1040
70.997500000000215
1040
179.49999999999989
1040
65.979351084458401
1040
179.49999999999989
1070
     1
1040
65.979351084458401
1040
179.49999999999989
1040
65.979351084458401
1040
177.49999999999989
1070
     1
1040
65.979351084458401
1040
177.49999999999989
1040
70.997500000000215
1040
177.49999999999989
1070
     1
1040
70.997500000000215
1040
177.49999999999989
1040
70.997500000000215
1040
179.49999999999989
1071
        0
1071
        1
1071
        4
1070
     1
1040
65.979351084458401
1040
179.49999999999989
1040
65.314739278381296
1040
179.49999999999989
1070
     2
1040
63.497500000000272
1040
178.44755455955701
1040
2.099999999999945
1040
5.7582413653041389
1040
6.7513132847203874
1070
     0
1070
     1
1040
65.371570531400394
1040
177.49999999999989
1040
65.979351084458401
1040
177.49999999999989
1070
     1
1040
65.979351084458401
1040
177.49999999999989
1040
65.979351084458401
1040
179.49999999999989
1071
        0
1071
        1
1071
        4
1070
     1
1040
61.680260721619142
1040
179.49999999999989
1040
60.979351084458401
1040
179.49999999999989
1070
     1
1040
60.979351084458401
1040
179.49999999999989
1040
60.979351084458401
1040
177.49999999999989
1070
     1
1040
60.979351084458401
1040
177.49999999999989
1040
61.623429468600037
1040
177.49999999999989
1070
     2
1040
63.497500000000208
1040
178.44755455955701
1040
2.099999999999985
1040
2.6734646760490111
1040
3.6665365954652578
1070
     0
1071
        0
1071
        1
1071
        4
1070
     1
1040
60.979351084458401
1040
179.49999999999989
1040
55.997500000000208
1040
179.49999999999989
1070
     1
1040
55.997500000000208
1040
179.49999999999989
1040
55.997500000000208
1040
177.49999999999989
1070
     1
1040
55.997500000000208
1040
177.49999999999989
1040
60.979351084458401
1040
177.49999999999989
1070
     1
1040
60.979351084458401
1040
177.49999999999989
1040
60.979351084458401
1040
179.49999999999989
1071
        0
1070
     1
1070
     1
1071
        6
1040
62.018579920147808
1040
259.18089986187772
1040
0.0
1040
65.955150143285138
1040
258.96817238692029
1040
0.0
1040
67.194975537942057
1040
178.8816326418453
1040
0.0
1040
65.638613046905377
1040
179.2706138117891
1040
0.0
1040
61.553162236134462
1040
179.30302883532221
1040
0.0
1040
59.899528181708703
1040
179.2706138117891
1040
0.0
1002
}
  0
LINE
  5
1D45
  8
0
 10
55.997500000000208
 20
171.99999999999989
 30
0.0
 11
55.997500000000208
 21
266.0
 31
0.0
  0
LINE
  5
1D46
  8
0
 10
70.997500000000215
 20
265.99999999999977
 30
0.0
 11
70.997500000000215
 21
171.99999999999989
 31
0.0
  0
LINE
  5
1D47
  8
0
 10
62.389793201147363
 20
180.23164694723579
 30
0.0
 11
62.389793201147363
 21
255.85761804601401
 31
0.0
  0
LINE
  5
1D48
  8
0
 10
64.589793201147273
 20
180.24112517782851
 30
0.0
 11
64.589793201147273
 21
255.85761804601401
 31
0.0
  0
TEXT
  5
1D49
  8
0
 10
56.492836539686927
 20
210.27337424520169
 30
0.0
 40
2.0
  1
100
 41
0.75
  7
SIMPLEX
  0
LINE
  5
1D4A
  8
0
 10
62.389793201147242
 20
209.77534089869201
 30
0.0
 11
56.747500000000329
 21
209.77534089869201
 31
0.0
  0
LINE
  5
1D4B
  8
0
 10
62.389793201147469
 20
202.17534089869201
 30
0.0
 11
58.247500000000223
 21
202.17534089869201
 31
0.0
  0
TEXT
  5
1D4C
  8
0
 10
56.88263204707043
 20
195.1166223371691
 30
0.0
 40
2.0
  1
50
 41
0.8
  7
SIMPLEX
  0
LINE
  5
1D4D
  8
0
 10
62.389793201147242
 20
194.57534089869199
 30
0.0
 11
56.747500000000329
 21
194.57534089869199
 31
0.0
  0
TEXT
  5
1D4E
  8
0
 10
56.890121787570003
 20
173.31651584951101
 30
0.0
 40
1.1999999999999991
  1
HCZ
 41
1.129999999999999
  7
SIM110
 72
     1
 11
58.730407501855709
 21
173.31651584951101
 31
0.0
  0
LINE
  5
1D4F
  8
0
 10
69.997500000000215
 20
170.99999999999989
 30
0.0
 11
56.997500000000223
 21
170.99999999999989
 31
0.0
  0
LINE
  5
1D50
  8
0
 10
61.446767739336501
 20
177.49999999999989
 30
0.0
 11
55.997500000000208
 21
177.49999999999989
 31
0.0
  0
LINE
  5
1D51
  8
0
 10
61.680260721619177
 20
179.49999999999989
 30
0.0
 11
55.997500000000208
 21
179.49999999999989
 31
0.0
  0
ARC
  5
1D52
  8
0
 10
56.997500000000223
 20
171.99999999999989
 30
0.0
 40
1.0
 50
180.0
 51
270.0
  0
LINE
  5
1D53
  8
0
 10
60.979351084458401
 20
176.74576216077551
 30
0.0
 11
60.979351084458401
 21
182.7540160992246
 31
0.0
  0
LINE
  5
1D54
  8
0
 10
65.979351084458401
 20
176.71312616293071
 30
0.0
 11
65.979351084458401
 21
182.79977982606329
 31
0.0
  0
LINE
  5
1D55
  8
0
 10
65.548232260663923
 20
177.49999999999989
 30
0.0
 11
70.997500000000215
 21
177.49999999999989
 31
0.0
  0
LINE
  5
1D56
  8
0
 10
65.314739278381282
 20
179.49999999999989
 30
0.0
 11
70.997500000000215
 21
179.49999999999989
 31
0.0
  0
CIRCLE
  5
1D57
  8
0
 10
63.497500000000208
 20
178.44755455955701
 30
0.0
 40
2.1000000000000001
  0
ARC
  5
1D58
  8
0
 10
63.486798677041563
 20
177.8704530285988
 30
0.0
 40
2.7481308152481079
 50
204.1581485614258
 51
335.09390008576401
  0
LINE
  5
1D59
  8
0
 10
61.460397954126542
 20
173.93827523422581
 30
0.0
 11
65.460464514208908
 21
173.93827523422581
 31
0.0
  0
TEXT
  5
1D5A
  8
0
 10
66.370809395203807
 20
173.33946257056391
 30
0.0
 40
1.1999999999999991
  1
127/T
 41
0.71
  7
SIMPLEX
  0
ARC
  5
1D5B
  8
0
 10
69.997500000000215
 20
171.99999999999989
 30
0.0
 40
1.0
 50
270.0
 51
0.0
  0
LINE
  5
1D5C
  8
0
 10
66.247500000000215
 20
191.74534089869201
 30
0.0
 11
64.589793201147273
 21
191.74534089869201
 31
0.0
  0
LINE
  5
1D5D
  8
0
 10
70.247500000000215
 20
188.99534089869189
 30
0.0
 11
64.589793201147273
 21
188.99534089869189
 31
0.0
  0
LINE
  5
1D5E
  8
0
 10
62.389793201147363
 20
191.535340898692
 30
0.0
 11
60.747500000000223
 21
191.535340898692
 31
0.0
  0
LINE
  5
1D5F
  8
0
 10
62.389793201147363
 20
190.01534089869199
 30
0.0
 11
60.747500000000223
 21
190.01534089869199
 31
0.0
  0
LINE
  5
1D60
  8
0
 10
65.705255307533591
 20
188.0674530544249
 30
0.0
 11
65.705255307533591
 21
185.0674530544249
 31
0.0
  0
LINE
  5
1D61
  8
0
 10
61.274331094761052
 20
185.0674530544249
 30
0.0
 11
62.389793201147363
 21
185.0674530544249
 31
0.0
  0
LINE
  5
1D62
  8
0
 10
61.274331094761052
 20
188.0674530544249
 30
0.0
 11
61.274331094761052
 21
185.0674530544249
 31
0.0
  0
LINE
  5
1D63
  8
0
 10
62.389793201147363
 20
188.0674530544249
 30
0.0
 11
61.274331094761052
 21
188.0674530544249
 31
0.0
  0
ARC
  5
1D64
  8
0
 10
63.489793201147258
 20
181.63602533161031
 30
0.0
 40
2.7481308152481079
 50
113.5951877589653
 51
155.9948588812598
  0
LINE
  5
1D65
  8
0
 10
62.389793201147363
 20
188.49534089869201
 30
0.0
 11
60.747500000000223
 21
188.49534089869201
 31
0.0
  0
LINE
  5
1D66
  8
0
 10
64.589793201147401
 20
188.0674530544249
 30
0.0
 11
65.705255307533591
 21
188.0674530544249
 31
0.0
  0
LINE
  5
1D67
  8
0
 10
65.705255307533591
 20
185.0674530544249
 30
0.0
 11
64.589793201147401
 21
185.0674530544249
 31
0.0
  0
ARC
  5
1D68
  8
0
 10
63.489793201147258
 20
181.63602533161031
 30
0.0
 40
2.7481308152481079
 50
24.90609991423127
 51
66.404812241027528
  0
TEXT
  5
1D69
  8
0
 10
68.966292775960298
 20
189.4763765013808
 30
0.0
 40
2.0
  1
0
 41
0.8
  7
SIMPLEX
  0
LINE
  5
1D6A
  8
0
 10
66.247500000000215
 20
202.74534089869209
 30
0.0
 11
64.589793201147273
 21
202.74534089869209
 31
0.0
  0
LINE
  5
1D6B
  8
0
 10
70.247500000000315
 20
199.99534089869189
 30
0.0
 11
64.589793201147273
 21
199.99534089869201
 31
0.0
  0
LINE
  5
1D6C
  8
0
 10
66.247500000000215
 20
197.24534089869201
 30
0.0
 11
64.589793201147273
 21
197.24534089869201
 31
0.0
  0
LINE
  5
1D6D
  8
0
 10
68.747500000000215
 20
194.49534089869201
 30
0.0
 11
64.589793201147174
 21
194.49534089869201
 31
0.0
  0
LINE
  5
1D6E
  8
0
 10
62.389793201147363
 20
199.13534089869199
 30
0.0
 11
60.747500000000223
 21
199.13534089869199
 31
0.0
  0
LINE
  5
1D6F
  8
0
 10
62.389793201147363
 20
200.655340898692
 30
0.0
 11
60.747500000000223
 21
200.655340898692
 31
0.0
  0
LINE
  5
1D70
  8
0
 10
62.389793201147363
 20
197.6153408986919
 30
0.0
 11
60.747500000000223
 21
197.6153408986919
 31
0.0
  0
LINE
  5
1D71
  8
0
 10
62.389793201147363
 20
193.05534089869201
 30
0.0
 11
60.747500000000223
 21
193.05534089869201
 31
0.0
  0
LINE
  5
1D72
  8
0
 10
62.389793201147363
 20
196.095340898692
 30
0.0
 11
60.747500000000223
 21
196.095340898692
 31
0.0
  0
TEXT
  5
1D73
  8
0
 10
67.504559623272073
 20
200.5681086314186
 30
0.0
 40
2.0
  1
20
 41
0.8
  7
SIMPLEX
  0
LINE
  5
1D74
  8
0
 10
70.247500000000315
 20
210.99534089869189
 30
0.0
 11
64.589793201147273
 21
210.99534089869201
 31
0.0
  0
LINE
  5
1D75
  8
0
 10
66.247500000000215
 20
208.24534089869209
 30
0.0
 11
64.589793201147273
 21
208.24534089869209
 31
0.0
  0
LINE
  5
1D76
  8
0
 10
68.747500000000215
 20
205.49534089869201
 30
0.0
 11
64.589793201147401
 21
205.49534089869209
 31
0.0
  0
LINE
  5
1D77
  8
0
 10
62.389793201147363
 20
211.29534089869199
 30
0.0
 11
60.747500000000223
 21
211.29534089869199
 31
0.0
  0
LINE
  5
1D78
  8
0
 10
62.389793201147363
 20
212.815340898692
 30
0.0
 11
60.747500000000223
 21
212.815340898692
 31
0.0
  0
LINE
  5
1D79
  8
0
 10
62.389793201147363
 20
206.73534089869199
 30
0.0
 11
60.747500000000223
 21
206.73534089869199
 31
0.0
  0
LINE
  5
1D7A
  8
0
 10
62.389793201147363
 20
208.25534089869211
 30
0.0
 11
60.747500000000223
 21
208.25534089869211
 31
0.0
  0
LINE
  5
1D7B
  8
0
 10
62.389793201147363
 20
205.21534089869201
 30
0.0
 11
60.747500000000223
 21
205.21534089869201
 31
0.0
  0
LINE
  5
1D7C
  8
0
 10
62.389793201147363
 20
203.695340898692
 30
0.0
 11
60.747500000000223
 21
203.695340898692
 31
0.0
  0
TEXT
  5
1D7D
  8
0
 10
67.560244695755415
 20
211.54133934981081
 30
0.0
 40
2.0
  1
40
 41
0.8
  7
SIMPLEX
  0
TEXT
  5
1D7E
  8
0
 10
54.728945519968121
 20
252.28095404202239
 30
0.0
 40
2.5
  1
 %%dF    %%dC
 41
0.9099999999999999
  7
SIMPLEX
  0
TEXT
  5
1D7F
  8
0
 10
56.618127952774479
 20
240.64528604999549
 30
0.0
 40
2.0
  1
200
 41
0.7
  7
SIMPLEX
  0
LINE
  5
1D80
  8
0
 10
62.389793201147242
 20
240.17534089869201
 30
0.0
 11
56.747500000000329
 21
240.17534089869201
 31
0.0
  0
LINE
  5
1D81
  8
0
 10
62.389793201147469
 20
232.57534089869199
 30
0.0
 11
58.247500000000223
 21
232.5753408986921
 31
0.0
  0
TEXT
  5
1D82
  8
0
 10
56.492836539686927
 20
225.48895550051
 30
0.0
 40
2.0
  1
150
 41
0.75
  7
SIMPLEX
  0
LINE
  5
1D83
  8
0
 10
62.389793201147242
 20
224.975340898692
 30
0.0
 11
56.747500000000329
 21
224.975340898692
 31
0.0
  0
LINE
  5
1D84
  8
0
 10
62.389793201147469
 20
217.37534089869209
 30
0.0
 11
58.247500000000223
 21
217.37534089869209
 31
0.0
  0
TEXT
  5
1D85
  8
0
 10
67.518480891392912
 20
233.49965092775969
 30
0.0
 40
2.0
  1
80
 41
0.8
  7
SIMPLEX
  0
LINE
  5
1D86
  8
0
 10
66.247500000000215
 20
219.24534089869209
 30
0.0
 11
64.589793201147273
 21
219.24534089869209
 31
0.0
  0
LINE
  5
1D87
  8
0
 10
70.247500000000315
 20
221.99534089869201
 30
0.0
 11
64.589793201147273
 21
221.99534089869201
 31
0.0
  0
LINE
  5
1D88
  8
0
 10
68.747500000000215
 20
216.49534089869201
 30
0.0
 11
64.589793201147401
 21
216.49534089869209
 31
0.0
  0
LINE
  5
1D89
  8
0
 10
66.247500000000215
 20
213.74534089869209
 30
0.0
 11
64.589793201147273
 21
213.74534089869209
 31
0.0
  0
LINE
  5
1D8A
  8
0
 10
62.389793201147363
 20
223.45534089869199
 30
0.0
 11
60.747500000000223
 21
223.45534089869199
 31
0.0
  0
LINE
  5
1D8B
  8
0
 10
62.389793201147363
 20
218.89534089869201
 30
0.0
 11
60.747500000000223
 21
218.89534089869201
 31
0.0
  0
LINE
  5
1D8C
  8
0
 10
62.389793201147363
 20
220.41534089869199
 30
0.0
 11
60.747500000000223
 21
220.41534089869199
 31
0.0
  0
LINE
  5
1D8D
  8
0
 10
62.389793201147363
 20
221.935340898692
 30
0.0
 11
60.747500000000223
 21
221.935340898692
 31
0.0
  0
LINE
  5
1D8E
  8
0
 10
62.389793201147363
 20
215.85534089869199
 30
0.0
 11
60.747500000000223
 21
215.85534089869199
 31
0.0
  0
LINE
  5
1D8F
  8
0
 10
62.389793201147363
 20
214.33534089869201
 30
0.0
 11
60.747500000000223
 21
214.33534089869201
 31
0.0
  0
TEXT
  5
1D90
  8
0
 10
67.657693572601303
 20
222.43161908005089
 30
0.0
 40
2.0
  1
60
 41
0.8
  7
SIMPLEX
  0
LINE
  5
1D91
  8
0
 10
70.247500000000443
 20
232.99534089869201
 30
0.0
 11
64.589793201147273
 21
232.99534089869201
 31
0.0
  0
LINE
  5
1D92
  8
0
 10
66.247500000000215
 20
230.24534089869209
 30
0.0
 11
64.589793201147273
 21
230.24534089869209
 31
0.0
  0
LINE
  5
1D93
  8
0
 10
66.247500000000215
 20
224.74534089869201
 30
0.0
 11
64.589793201147273
 21
224.74534089869201
 31
0.0
  0
LINE
  5
1D94
  8
0
 10
68.747500000000215
 20
227.49534089869209
 30
0.0
 11
64.589793201147273
 21
227.49534089869201
 31
0.0
  0
LINE
  5
1D95
  8
0
 10
62.389793201147363
 20
234.09534089869209
 30
0.0
 11
60.747500000000223
 21
234.09534089869209
 31
0.0
  0
LINE
  5
1D96
  8
0
 10
62.389793201147363
 20
231.05534089869201
 30
0.0
 11
60.747500000000223
 21
231.05534089869201
 31
0.0
  0
LINE
  5
1D97
  8
0
 10
62.389793201147363
 20
226.49534089869201
 30
0.0
 11
60.747500000000223
 21
226.49534089869201
 31
0.0
  0
LINE
  5
1D98
  8
0
 10
62.389793201147363
 20
228.0153408986921
 30
0.0
 11
60.747500000000223
 21
228.0153408986921
 31
0.0
  0
LINE
  5
1D99
  8
0
 10
62.389793201147363
 20
229.535340898692
 30
0.0
 11
60.747500000000223
 21
229.535340898692
 31
0.0
  0
LINE
  5
1D9A
  8
0
 10
65.705255307533477
 20
247.71002077323021
 30
0.0
 11
65.705255307533477
 21
244.7100207732303
 31
0.0
  0
TEXT
  5
1D9B
  8
0
 10
66.502228318571426
 20
244.52028221081011
 30
0.0
 40
2.0
  1
100
 41
0.8
  7
SIMPLEX
  0
LINE
  5
1D9C
  8
0
 10
61.274331094760932
 20
247.71002077323021
 30
0.0
 11
61.274331094760932
 21
244.7100207732303
 31
0.0
  0
LINE
  5
1D9D
  8
0
 10
70.247500000000556
 20
243.99534089869189
 30
0.0
 11
64.589793201147273
 21
243.99534089869209
 31
0.0
  0
LINE
  5
1D9E
  8
0
 10
66.247500000000215
 20
241.24534089869201
 30
0.0
 11
64.589793201147273
 21
241.24534089869201
 31
0.0
  0
LINE
  5
1D9F
  8
0
 10
68.747500000000215
 20
238.49534089869201
 30
0.0
 11
64.589793201147273
 21
238.49534089869209
 31
0.0
  0
LINE
  5
1DA0
  8
0
 10
66.247500000000215
 20
235.74534089869209
 30
0.0
 11
64.589793201147273
 21
235.74534089869209
 31
0.0
  0
LINE
  5
1DA1
  8
0
 10
61.274331094760932
 20
244.7100207732303
 30
0.0
 11
62.389793201147242
 21
244.7100207732303
 31
0.0
  0
LINE
  5
1DA2
  8
0
 10
62.389793201147363
 20
243.21534089869209
 30
0.0
 11
60.747500000000223
 21
243.21534089869209
 31
0.0
  0
LINE
  5
1DA3
  8
0
 10
62.389793201147363
 20
241.695340898692
 30
0.0
 11
60.747500000000223
 21
241.695340898692
 31
0.0
  0
LINE
  5
1DA4
  8
0
 10
65.705255307533477
 20
244.7100207732303
 30
0.0
 11
64.589793201147273
 21
244.7100207732303
 31
0.0
  0
LINE
  5
1DA5
  8
0
 10
62.389793201147363
 20
237.13534089869199
 30
0.0
 11
60.747500000000223
 21
237.13534089869199
 31
0.0
  0
LINE
  5
1DA6
  8
0
 10
62.389793201147363
 20
238.655340898692
 30
0.0
 11
60.747500000000223
 21
238.655340898692
 31
0.0
  0
LINE
  5
1DA7
  8
0
 10
62.389793201147363
 20
235.6153408986921
 30
0.0
 11
60.747500000000223
 21
235.6153408986921
 31
0.0
  0
ARC
  5
1DA8
  8
0
 10
63.489793201147258
 20
255.85761804601401
 30
0.0
 40
1.1000000000000001
 50
0.0
 51
180.0
  0
LINE
  5
1DA9
  8
0
 10
62.389793201147242
 20
247.71002077323021
 30
0.0
 11
61.274331094760932
 21
247.71002077323021
 31
0.0
  0
LINE
  5
1DAA
  8
0
 10
64.589793201147273
 20
247.71002077323021
 30
0.0
 11
65.705255307533477
 21
247.71002077323021
 31
0.0
  0
LINE
  5
1DAB
  8
0
 10
70.997500000000215
 20
254.24999999999989
 30
0.0
 11
70.997500000000215
 21
252.7499999999998
 31
0.0
  0
LINE
  5
1DAC
  8
0
 10
56.997500000000223
 20
266.99999999999989
 30
0.0
 11
69.997500000000215
 21
266.99999999999977
 31
0.0
  0
TEXT
  5
1DAD
  8
0
 10
56.805465330047618
 20
262.04048773517951
 30
0.0
 40
1.3
  1
ELESA
 41
2.3700000000000001
  7
SIMPLEX
  0
LINE
  5
1DAE
  8
0
 10
70.997500000000215
 20
257.75
 30
0.0
 11
55.997500000000208
 21
257.74999999999977
 31
0.0
  0
LINE
  5
1DAF
  8
0
 10
70.997500000000215
 20
259.24999999999977
 30
0.0
 11
55.997500000000208
 21
259.24999999999977
 31
0.0
  0
ARC
  5
1DB0
  8
0
 10
56.997500000000223
 20
266.0
 30
0.0
 40
1.0
 50
90.0
 51
180.0
  0
ARC
  5
1DB4
  8
0
 10
69.997500000000215
 20
265.99999999999977
 30
0.0
 40
1.0
 50
0.0
 51
90.0
  0
ENDSEC
  0
EOF
