  0
SECTION
  2
HEADER
  9
$ACADVER
  1
AC1009
  9
$INSBASE
 10
0.0
 20
0.0
 30
0.0
  9
$EXTMIN
 10
0.0
 20
-1.4802182810368341
 30
0.0
  9
$EXTMAX
 10
134.5462243253061
 20
112.7949230880771
 30
0.0
  9
$LIMMIN
 10
0.0
 20
0.0
  9
$LIMMAX
 10
187.5
 20
135.0
  9
$ORTHOMODE
 70
     0
  9
$REGENMODE
 70
     1
  9
$FILLMODE
 70
     1
  9
$QTEXTMODE
 70
     0
  9
$MIRRTEXT
 70
     0
  9
$DRAGMODE
 70
     2
  9
$LTSCALE
 40
2.0
  9
$OSMODE
 70
  3071
  9
$ATTMODE
 70
     1
  9
$TEXTSIZE
 40
2.0
  9
$TRACEWID
 40
0.05
  9
$TEXTSTYLE
  7
STANDARD
  9
$CLAYER
  8
0
  9
$CELTYPE
  6
BYLAYER
  9
$CECOLOR
 62
   256
  9
$DIMSCALE
 40
0.5
  9
$DIMASZ
 40
3.0
  9
$DIMEXO
 40
2.0
  9
$DIMDLI
 40
10.0
  9
$DIMRND
 40
0.0
  9
$DIMDLE
 40
0.0
  9
$DIMEXE
 40
2.0
  9
$DIMTP
 40
0.0
  9
$DIMTM
 40
0.0
  9
$DIMTXT
 40
3.2000000000000002
  9
$DIMCEN
 40
0.09
  9
$DIMTSZ
 40
0.0
  9
$DIMTOL
 70
     0
  9
$DIMLIM
 70
     0
  9
$DIMTIH
 70
     0
  9
$DIMTOH
 70
     0
  9
$DIMSE1
 70
     0
  9
$DIMSE2
 70
     0
  9
$DIMTAD
 70
     1
  9
$DIMZIN
 70
     0
  9
$DIMBLK
  1

  9
$DIMASO
 70
     1
  9
$DIMSHO
 70
     0
  9
$DIMPOST
  1

  9
$DIMAPOST
  1

  9
$DIMALT
 70
     0
  9
$DIMALTD
 70
     2
  9
$DIMALTF
 40
25.399999999999999
  9
$DIMLFAC
 40
1.0
  9
$DIMTOFL
 70
     1
  9
$DIMTVP
 40
1.6000000000000001
  9
$DIMTIX
 70
     0
  9
$DIMSOXD
 70
     0
  9
$DIMSAH
 70
     0
  9
$DIMBLK1
  1

  9
$DIMBLK2
  1

  9
$DIMSTYLE
  2
STANDARD
  9
$DIMCLRD
 70
     0
  9
$DIMCLRE
 70
     0
  9
$DIMCLRT
 70
     0
  9
$DIMTFAC
 40
1.0
  9
$DIMGAP
 40
0.09
  9
$LUNITS
 70
     2
  9
$LUPREC
 70
     4
  9
$SKETCHINC
 40
0.1
  9
$FILLETRAD
 40
0.5
  9
$AUNITS
 70
     0
  9
$AUPREC
 70
     0
  9
$MENU
  1
E:\r13\win\SUPPORT\ACAD
  9
$ELEVATION
 40
0.0
  9
$PELEVATION
 40
0.0
  9
$THICKNESS
 40
0.0
  9
$LIMCHECK
 70
     0
  9
$BLIPMODE
 70
     0
  9
$CHAMFERA
 40
0.0
  9
$CHAMFERB
 40
0.0
  9
$SKPOLY
 70
     0
  9
$TDCREATE
 40
2449840.618831018
  9
$TDUPDATE
 40
2456597.6086726738
  9
$TDINDWG
 40
0.0032005671
  9
$TDUSRTIMER
 40
0.0032005671
  9
$USRTIMER
 70
     1
  9
$ANGBASE
 50
0.0
  9
$ANGDIR
 70
     0
  9
$PDMODE
 70
     0
  9
$PDSIZE
 40
0.0
  9
$PLINEWID
 40
0.0
  9
$COORDS
 70
     1
  9
$SPLFRAME
 70
     0
  9
$SPLINETYPE
 70
     6
  9
$SPLINESEGS
 70
     8
  9
$ATTDIA
 70
     0
  9
$ATTREQ
 70
     1
  9
$HANDLING
 70
     1
  9
$HANDSEED
  5
2D5
  9
$SURFTAB1
 70
     6
  9
$SURFTAB2
 70
     6
  9
$SURFTYPE
 70
     6
  9
$SURFU
 70
     6
  9
$SURFV
 70
     6
  9
$UCSNAME
  2

  9
$UCSORG
 10
0.0
 20
0.0
 30
0.0
  9
$UCSXDIR
 10
1.0
 20
0.0
 30
0.0
  9
$UCSYDIR
 10
0.0
 20
1.0
 30
0.0
  9
$PUCSNAME
  2

  9
$PUCSORG
 10
0.0
 20
0.0
 30
0.0
  9
$PUCSXDIR
 10
1.0
 20
0.0
 30
0.0
  9
$PUCSYDIR
 10
0.0
 20
1.0
 30
0.0
  9
$USERI1
 70
     0
  9
$USERI2
 70
     1
  9
$USERI3
 70
     1
  9
$USERI4
 70
     0
  9
$USERI5
 70
     0
  9
$USERR1
 40
0.0
  9
$USERR2
 40
0.0
  9
$USERR3
 40
0.0
  9
$USERR4
 40
0.0
  9
$USERR5
 40
0.0
  9
$WORLDVIEW
 70
     1
  9
$SHADEDGE
 70
     3
  9
$SHADEDIF
 70
    70
  9
$TILEMODE
 70
     1
  9
$MAXACTVP
 70
    16
  9
$PLIMCHECK
 70
     0
  9
$PEXTMIN
 10
1.0000000000000000E+020
 20
1.0000000000000000E+020
 30
1.0000000000000000E+020
  9
$PEXTMAX
 10
-1.0000000000000000E+020
 20
-1.0000000000000000E+020
 30
-1.0000000000000000E+020
  9
$PLIMMIN
 10
0.0
 20
0.0
  9
$PLIMMAX
 10
12.0
 20
9.0
  9
$UNITMODE
 70
     0
  9
$VISRETAIN
 70
     0
  9
$PLINEGEN
 70
     0
  9
$PSLTSCALE
 70
     0
  0
ENDSEC
  0
SECTION
  2
TABLES
  0
TABLE
  2
VPORT
 70
     1
  0
VPORT
  2
*ACTIVE
 70
     0
 10
0.0
 20
0.0
 11
1.0
 21
1.0
 12
93.747139195326156
 22
67.05183146954721
 13
0.0
 23
0.0
 14
5.0
 24
5.0
 15
5.0
 25
5.0
 16
0.0
 26
0.0
 36
1.0
 17
0.0
 27
0.0
 37
0.0
 40
138.6470298934976
 41
2.304913294797688
 42
50.0
 43
0.0
 44
0.0
 50
0.0
 51
0.0
 71
     0
 72
   100
 73
     1
 74
     0
 75
     0
 76
     0
 77
     0
 78
     0
  0
ENDTAB
  0
TABLE
  2
LTYPE
 70
     4
  0
LTYPE
  2
CONTINUOUS
 70
     0
  3
Solid Line
 72
    65
 73
     0
 40
0.0
  0
LTYPE
  2
CENTER
 70
     0
  3
____ _ ____ _ ____ _ ____ _ ____ _ ____ _ ____
 72
    65
 73
     4
 40
2.0
 49
1.25
 49
-0.25
 49
0.25
 49
-0.25
  0
LTYPE
  2
HIDDEN
 70
     0
  3
_ _ _ _ _ _ _ _ _ _ _ _ _ _ _ _ _ _ _ _ _ _ _
 72
    65
 73
     2
 40
0.375
 49
0.25
 49
-0.125
  0
LTYPE
  2
PHANTOM2
 70
     0
  3
___ _ _ ___ _ _ ___ _ _ ___ _ _
 72
    65
 73
     6
 40
1.25
 49
0.625
 49
-0.125
 49
0.125
 49
-0.125
 49
0.125
 49
-0.125
  0
ENDTAB
  0
TABLE
  2
LAYER
 70
     5
  0
LAYER
  2
0
 70
     0
 62
     7
  6
CONTINUOUS
  0
LAYER
  2
1
 70
     0
 62
     1
  6
CENTER
  0
LAYER
  2
2
 70
     0
 62
     2
  6
HIDDEN
  0
LAYER
  2
3
 70
     0
 62
     3
  6
CONTINUOUS
  0
LAYER
  2
DEFPOINTS
 70
     0
 62
     7
  6
CONTINUOUS
  0
ENDTAB
  0
TABLE
  2
STYLE
 70
     2
  0
STYLE
  2
STANDARD
 70
     0
 40
0.0
 41
1.0
 50
0.0
 71
     0
 42
2.0
  3
ROMANS
  4
BIGFONT
  0
STYLE
  2
STANDARD1
 70
     0
 40
0.0
 41
1.0
 50
0.0
 71
     0
 42
3.0
  3
txt
  4

  0
ENDTAB
  0
TABLE
  2
VIEW
 70
     1
  0
VIEW
  2
ALL
 70
     0
 40
135.0
 10
110.29971
 20
67.5
 41
220.59942000000001
 11
0.0
 21
0.0
 31
1.0
 12
0.0
 22
0.0
 32
0.0
 42
0.0
 43
0.0
 44
0.0
 50
0.0
 71
     0
  0
ENDTAB
  0
TABLE
  2
UCS
 70
     0
  0
ENDTAB
  0
TABLE
  2
APPID
 70
     3
  0
APPID
  2
ACAD
 70
     0
  0
APPID
  2
ACAD_MLEADERVER
 70
     0
  0
APPID
  2
ACAD_NAV_VCDISPLAY
 70
     0
  0
ENDTAB
  0
TABLE
  2
DIMSTYLE
 70
     1
  0
DIMSTYLE
  2
STANDARD
 70
     0
  3

  4

  5

  6

  7

 40
1.0
 41
0.18
 42
0.0625
 43
0.38
 44
0.18
 45
0.0
 46
0.0
 47
0.0
 48
0.0
140
0.18
141
0.09
142
0.0
143
25.399999999999999
144
1.0
145
0.0
146
1.0
147
0.09
 71
     0
 72
     0
 73
     1
 74
     1
 75
     0
 76
     0
 77
     0
 78
     0
170
     0
171
     2
172
     0
173
     0
174
     0
175
     0
176
     0
177
     0
178
     0
  0
ENDTAB
  0
ENDSEC
  0
SECTION
  2
BLOCKS
  0
BLOCK
  8
0
  2
$MODEL_SPACE
 70
     0
 10
0.0
 20
0.0
 30
0.0
  3
$MODEL_SPACE
  1

  0
ENDBLK
  5
D9
  8
0
  0
BLOCK
 67
     1
  8
0
  2
$PAPER_SPACE
 70
     0
 10
0.0
 20
0.0
 30
0.0
  3
$PAPER_SPACE
  1

  0
ENDBLK
  5
D7
 67
     1
  8
0
  0
ENDSEC
  0
SECTION
  2
ENTITIES
  0
LINE
  5
39
  8
1
 10
59.546224325306163
 20
68.238871088077147
 30
0.0
 11
93.046224325306156
 21
68.238871088077147
 31
0.0
  0
ARC
  5
3A
  8
0
 10
124.0462243253061
 20
68.238871088077147
 30
0.0
 40
8.0
 50
93.549318000000014
 51
86.450682
  0
LINE
  5
3B
  8
0
 10
84.046224325306156
 20
76.238871088077147
 30
0.0
 11
64.046224325306156
 21
76.238871088077147
 31
0.0
  0
LINE
  5
3C
  8
3
 10
85.128724325306152
 20
75.156371088077151
 30
0.0
 11
62.963724325306138
 21
75.156371088077151
 31
0.0
  0
LINE
  5
3D
  8
3
 10
85.128724325306152
 20
61.32137108807715
 30
0.0
 11
62.963724325306138
 21
61.32137108807715
 31
0.0
  0
LINE
  5
3E
  8
0
 10
84.046224325306156
 20
60.238871088077147
 30
0.0
 11
64.046224325306156
 21
60.238871088077147
 31
0.0
  0
LINE
  5
3F
  8
0
 10
62.046224325306163
 20
74.238871088077147
 30
0.0
 11
62.046224325306163
 21
69.488871088077147
 31
0.0
  0
LINE
  5
40
  8
0
 10
86.046224325306156
 20
74.238871088077147
 30
0.0
 11
86.046224325306156
 21
62.238871088077147
 31
0.0
  0
LINE
  5
41
  8
0
 10
62.046224325306163
 20
69.488871088077147
 30
0.0
 11
64.546224325306156
 21
69.488871088077147
 31
0.0
  0
LINE
  5
42
  8
0
 10
62.046224325306163
 20
66.988871088077147
 30
0.0
 11
64.546224325306156
 21
66.988871088077147
 31
0.0
  0
LINE
  5
43
  8
0
 10
22.144484325306149
 20
69.488871088077147
 30
0.0
 11
37.947964325306152
 21
69.488871088077147
 31
0.0
  0
LINE
  5
44
  8
0
 10
22.144484325306149
 20
66.988871088077147
 30
0.0
 11
37.947964325306152
 21
66.988871088077147
 31
0.0
  0
LINE
  5
45
  8
0
 10
86.046224325306156
 20
72.488871088077147
 30
0.0
 11
86.296224325306156
 21
72.488871088077147
 31
0.0
  0
LINE
  5
46
  8
0
 10
86.046224325306156
 20
63.988871088077147
 30
0.0
 11
86.296224325306156
 21
63.988871088077147
 31
0.0
  0
LINE
  5
47
  8
0
 10
64.546224325306156
 20
69.488871088077147
 30
0.0
 11
64.546224325306156
 21
66.988871088077147
 31
0.0
  0
LINE
  5
48
  8
0
 10
62.046224325306163
 20
66.988871088077147
 30
0.0
 11
62.046224325306163
 21
62.238871088077147
 31
0.0
  0
ARC
  5
49
  8
0
 10
86.296224325306156
 20
68.238871088077147
 30
0.0
 40
4.25
 50
270.0
 51
90.0
  0
LINE
  5
4A
  8
0
 10
84.046224325306156
 20
76.238871088077147
 30
0.0
 11
86.046224325306156
 21
74.238871088077147
 31
0.0
  0
LINE
  5
4B
  8
0
 10
64.046224325306156
 20
76.238871088077147
 30
0.0
 11
62.046224325306163
 21
74.238871088077147
 31
0.0
  0
LINE
  5
4C
  8
0
 10
84.046224325306156
 20
60.238871088077147
 30
0.0
 11
86.046224325306156
 21
62.238871088077147
 31
0.0
  0
LINE
  5
4D
  8
0
 10
64.046224325306156
 20
60.238871088077147
 30
0.0
 11
62.046224325306163
 21
62.238871088077147
 31
0.0
  0
LINE
  5
4E
  8
0
 10
64.046224325306156
 20
76.238871088077147
 30
0.0
 11
64.046224325306156
 21
69.488871088077147
 31
0.0
  0
CIRCLE
  5
4F
  8
0
 10
124.0462243253061
 20
68.238871088077147
 30
0.0
 40
4.25
  0
LINE
  5
50
  8
0
 10
64.046224325306156
 20
66.988871088077147
 30
0.0
 11
64.046224325306156
 21
60.238871088077147
 31
0.0
  0
LINE
  5
51
  8
0
 10
84.046224325306156
 20
76.238871088077147
 30
0.0
 11
84.046224325306156
 21
60.238871088077147
 31
0.0
  0
CIRCLE
  5
52
  8
0
 10
30.046224325306159
 20
68.238871088077147
 30
0.0
 40
8.0
  0
CIRCLE
  5
53
  8
3
 10
30.046224325306159
 20
68.238871088077147
 30
0.0
 40
6.9175000000000004
  0
ARC
  5
54
  8
2
 10
81.796224325306156
 20
68.238871088077147
 30
0.0
 40
4.25
 50
270.0
 51
90.0
  0
LINE
  5
55
  8
1
 10
40.546224325306149
 20
68.238871088077147
 30
0.0
 11
19.546224325306149
 21
68.238871088077147
 31
0.0
  0
LINE
  5
56
  8
1
 10
30.046224325306159
 20
78.738871088077147
 30
0.0
 11
30.046224325306159
 21
57.738871088077147
 31
0.0
  0
LINE
  5
57
  8
1
 10
134.5462243253061
 20
68.238871088077147
 30
0.0
 11
113.5462243253061
 21
68.238871088077147
 31
0.0
  0
LINE
  5
58
  8
1
 10
124.0462243253061
 20
78.738871088077147
 30
0.0
 11
124.0462243253061
 21
57.738871088077147
 31
0.0
  0
LINE
  5
59
  8
2
 10
85.846224325306153
 20
74.438871088077136
 30
0.0
 11
64.846224325306153
 21
74.438871088077136
 31
0.0
  0
LINE
  5
5A
  8
2
 10
64.846224325306153
 20
74.438871088077136
 30
0.0
 11
64.846224325306153
 21
76.238871088077147
 31
0.0
  0
LINE
  5
5B
  8
0
 10
67.128724325306152
 20
76.238871088077147
 30
0.0
 11
67.128724325306152
 21
76.43887108807715
 31
0.0
  0
LINE
  5
5C
  8
0
 10
67.128724325306152
 20
76.43887108807715
 30
0.0
 11
81.128724325306152
 21
76.43887108807715
 31
0.0
  0
LINE
  5
5D
  8
0
 10
81.128724325306152
 20
76.43887108807715
 30
0.0
 11
81.128724325306152
 21
76.238871088077147
 31
0.0
  0
LINE
  5
5E
  8
2
 10
67.128724325306152
 20
76.238871088077147
 30
0.0
 11
67.128724325306152
 21
74.438871088077136
 31
0.0
  0
LINE
  5
5F
  8
2
 10
81.128724325306152
 20
76.238871088077147
 30
0.0
 11
81.128724325306152
 21
74.438871088077136
 31
0.0
  0
LINE
  5
60
  8
0
 10
123.2462243253062
 20
74.438871088077136
 30
0.0
 11
124.8462243253061
 21
74.438871088077136
 31
0.0
  0
LINE
  5
61
  8
0
 10
123.2462243253062
 20
76.198771088077152
 30
0.0
 11
123.2462243253062
 21
74.438871088077136
 31
0.0
  0
LINE
  5
62
  8
0
 10
124.8462243253061
 20
76.198771088077152
 30
0.0
 11
124.8462243253061
 21
74.438871088077136
 31
0.0
  0
POLYLINE
  5
63
  8
0
 66
     1
 10
0.0
 20
0.0
 30
0.0
 70
     1
  0
VERTEX
  5
64
  8
0
 10
123.2462243253062
 20
75.43887108807715
 30
0.0
 42
0.080167
  0
VERTEX
  5
65
  8
0
 10
123.3094853253061
 20
75.046849088077153
 30
0.0
 42
0.088923
  0
VERTEX
  5
66
  8
0
 10
123.4805393253061
 20
74.731765088077154
 30
0.0
 42
0.104957
 70
     2
 50
308.659808
  0
VERTEX
  5
67
  8
0
 10
123.7495753253061
 20
74.51111408807715
 30
0.0
 42
0.120011
 50
308.659808
  0
VERTEX
  5
68
  8
0
 10
124.0462243253061
 20
74.438871088077136
 30
0.0
 42
0.120011
  0
VERTEX
  5
69
  8
0
 10
124.3428733253061
 20
74.51111408807715
 30
0.0
 42
0.104957
  0
VERTEX
  5
6A
  8
0
 10
124.6119103253061
 20
74.731765088077154
 30
0.0
 42
0.088923
 70
     2
 50
51.340192000000002
  0
VERTEX
  5
6B
  8
0
 10
124.7829633253061
 20
75.046849088077153
 30
0.0
 42
0.080167
 50
51.340192000000002
  0
VERTEX
  5
6C
  8
0
 10
124.8462243253061
 20
75.43887108807715
 30
0.0
 42
0.080167
  0
VERTEX
  5
6D
  8
0
 10
124.7829633253061
 20
75.830894088077144
 30
0.0
 42
0.088923
  0
VERTEX
  5
6E
  8
0
 10
124.6119103253061
 20
76.145978088077143
 30
0.0
 42
0.104957
 70
     2
 50
128.659808
  0
VERTEX
  5
6F
  8
0
 10
124.3428733253061
 20
76.366629088077161
 30
0.0
 42
0.120011
 50
128.659808
  0
VERTEX
  5
70
  8
0
 10
124.0462243253061
 20
76.43887108807715
 30
0.0
 42
0.120011
  0
VERTEX
  5
71
  8
0
 10
123.7495753253061
 20
76.366629088077161
 30
0.0
 42
0.104957
  0
VERTEX
  5
72
  8
0
 10
123.4805393253061
 20
76.145978088077143
 30
0.0
 42
0.088923
 70
     2
 50
231.340192
  0
VERTEX
  5
73
  8
0
 10
123.3094853253061
 20
75.830894088077144
 30
0.0
 42
0.080167
 50
231.340192
  0
SEQEND
  5
74
  8
0
  0
POLYLINE
  5
75
  8
0
 66
     1
 10
0.0
 20
0.0
 30
0.0
  0
VERTEX
  5
76
  8
0
 10
30.541485325306159
 20
76.223526088077151
 30
0.0
 42
0.073431
 70
     2
 50
128.659808
  0
VERTEX
  5
77
  8
0
 10
30.342873325306162
 20
76.366629088077161
 30
0.0
 42
0.120011
 50
128.659808
  0
VERTEX
  5
78
  8
0
 10
30.046224325306159
 20
76.43887108807715
 30
0.0
 42
0.120011
  0
VERTEX
  5
79
  8
0
 10
29.74957532530615
 20
76.366629088077161
 30
0.0
 42
0.073431
  0
VERTEX
  5
7A
  8
0
 10
29.55096332530616
 20
76.223526088077151
 30
0.0
 42
0.088923
 70
     2
 50
231.340192
  0
SEQEND
  5
7B
  8
0
  0
CIRCLE
  5
7C
  8
3
 10
124.0462243253061
 20
68.238871088077147
 30
0.0
 40
6.9175000000000004
  0
LINE
  5
7D
  8
0
 10
81.128724325306152
 20
105.7949230880771
 30
0.0
 11
81.128724325306152
 21
103.7949230880771
 31
0.0
  0
LINE
  5
7E
  8
0
 10
67.128724325306152
 20
103.7949230880771
 30
0.0
 11
67.128724325306152
 21
105.7949230880771
 31
0.0
  0
LINE
  5
7F
  8
0
 10
64.846224325306153
 20
103.7949230880771
 30
0.0
 11
64.846224325306153
 21
105.7949230880771
 31
0.0
  0
LINE
  5
80
  8
0
 10
85.846224325306153
 20
103.7949230880771
 30
0.0
 11
64.846224325306153
 21
103.7949230880771
 31
0.0
  0
ARC
  5
81
  8
2
 10
81.796224325306156
 20
104.7949230880771
 30
0.0
 40
4.25
 50
270.0
 51
90.0
  0
LINE
  5
82
  8
0
 10
84.046224325306156
 20
112.7949230880771
 30
0.0
 11
84.046224325306156
 21
105.7949230880771
 31
0.0
  0
LINE
  5
83
  8
0
 10
64.046224325306156
 20
112.7949230880771
 30
0.0
 11
64.046224325306156
 21
96.794923088077155
 31
0.0
  0
LINE
  5
84
  8
0
 10
64.046224325306156
 20
96.794923088077155
 30
0.0
 11
62.046224325306163
 21
98.794923088077155
 31
0.0
  0
LINE
  5
85
  8
0
 10
84.046224325306156
 20
96.794923088077155
 30
0.0
 11
86.046224325306156
 21
98.794923088077155
 31
0.0
  0
LINE
  5
86
  8
0
 10
64.046224325306156
 20
112.7949230880771
 30
0.0
 11
62.046224325306163
 21
110.7949230880771
 31
0.0
  0
LINE
  5
87
  8
0
 10
84.046224325306156
 20
112.7949230880771
 30
0.0
 11
86.046224325306156
 21
110.7949230880771
 31
0.0
  0
ARC
  5
88
  8
0
 10
86.296224325306156
 20
104.7949230880771
 30
0.0
 40
4.25
 50
270.0
 51
90.0
  0
LINE
  5
89
  8
0
 10
62.046224325306163
 20
110.7949230880771
 30
0.0
 11
62.046224325306163
 21
98.794923088077155
 31
0.0
  0
LINE
  5
8A
  8
0
 10
86.046224325306156
 20
100.5449230880771
 30
0.0
 11
86.296224325306156
 21
100.5449230880771
 31
0.0
  0
LINE
  5
8B
  8
0
 10
86.046224325306156
 20
109.0449230880771
 30
0.0
 11
86.296224325306156
 21
109.0449230880771
 31
0.0
  0
LINE
  5
8C
  8
0
 10
86.046224325306156
 20
110.7949230880771
 30
0.0
 11
86.046224325306156
 21
98.794923088077155
 31
0.0
  0
LINE
  5
8D
  8
0
 10
84.046224325306156
 20
96.794923088077155
 30
0.0
 11
64.046224325306156
 21
96.794923088077155
 31
0.0
  0
LINE
  5
8E
  8
3
 10
85.128724325306152
 20
97.877423088077151
 30
0.0
 11
62.963724325306138
 21
97.877423088077151
 31
0.0
  0
LINE
  5
8F
  8
3
 10
85.128724325306152
 20
111.7124230880771
 30
0.0
 11
62.963724325306138
 21
111.7124230880771
 31
0.0
  0
LINE
  5
90
  8
0
 10
84.046224325306156
 20
112.7949230880771
 30
0.0
 11
64.046224325306156
 21
112.7949230880771
 31
0.0
  0
LINE
  5
91
  8
1
 10
59.546224325306163
 20
104.7949230880771
 30
0.0
 11
93.046224325306156
 21
104.7949230880771
 31
0.0
  0
LINE
  5
92
  8
0
 10
85.846224325306153
 20
105.7949230880771
 30
0.0
 11
85.846224325306153
 21
103.7949230880771
 31
0.0
  0
LINE
  5
93
  8
0
 10
85.846224325306153
 20
105.7949230880771
 30
0.0
 11
64.846224325306153
 21
105.7949230880771
 31
0.0
  0
LINE
  5
94
  8
0
 10
84.046224325306156
 20
103.7949230880771
 30
0.0
 11
84.046224325306156
 21
96.794923088077155
 31
0.0
  0
LINE
  5
95
  8
0
 10
84.046224325306156
 20
40.506880088077153
 30
0.0
 11
84.046224325306156
 21
24.50688008807715
 31
0.0
  0
LINE
  5
96
  8
1
 10
59.546224325306163
 20
32.50688008807716
 30
0.0
 11
93.046224325306156
 21
32.50688008807716
 31
0.0
  0
LINE
  5
97
  8
0
 10
84.046224325306156
 20
40.506880088077153
 30
0.0
 11
64.046224325306156
 21
40.506880088077153
 31
0.0
  0
LINE
  5
98
  8
3
 10
85.128724325306152
 20
39.42438008807715
 30
0.0
 11
62.963724325306138
 21
39.42438008807715
 31
0.0
  0
LINE
  5
99
  8
3
 10
85.128724325306152
 20
25.589380088077149
 30
0.0
 11
62.963724325306138
 21
25.589380088077149
 31
0.0
  0
LINE
  5
9A
  8
0
 10
84.046224325306156
 20
24.50688008807715
 30
0.0
 11
64.046224325306156
 21
24.50688008807715
 31
0.0
  0
LINE
  5
9B
  8
0
 10
86.046224325306156
 20
38.506880088077153
 30
0.0
 11
86.046224325306156
 21
26.50688008807716
 31
0.0
  0
LINE
  5
9C
  8
0
 10
86.046224325306156
 20
36.756880088077153
 30
0.0
 11
86.296224325306156
 21
36.756880088077153
 31
0.0
  0
LINE
  5
9D
  8
0
 10
86.046224325306156
 20
28.25688008807715
 30
0.0
 11
86.296224325306156
 21
28.25688008807715
 31
0.0
  0
LINE
  5
9E
  8
0
 10
62.046224325306163
 20
38.506880088077153
 30
0.0
 11
62.046224325306163
 21
26.50688008807716
 31
0.0
  0
ARC
  5
9F
  8
0
 10
86.296224325306156
 20
32.50688008807716
 30
0.0
 40
4.25
 50
270.0
 51
90.0
  0
LINE
  5
A0
  8
0
 10
84.046224325306156
 20
40.506880088077153
 30
0.0
 11
86.046224325306156
 21
38.506880088077153
 31
0.0
  0
LINE
  5
A1
  8
0
 10
64.046224325306156
 20
40.506880088077153
 30
0.0
 11
62.046224325306163
 21
38.506880088077153
 31
0.0
  0
LINE
  5
A2
  8
0
 10
84.046224325306156
 20
24.50688008807715
 30
0.0
 11
86.046224325306156
 21
26.50688008807716
 31
0.0
  0
LINE
  5
A3
  8
0
 10
64.046224325306156
 20
24.50688008807715
 30
0.0
 11
62.046224325306163
 21
26.50688008807716
 31
0.0
  0
LINE
  5
A4
  8
0
 10
64.046224325306156
 20
40.506880088077153
 30
0.0
 11
64.046224325306156
 21
24.50688008807715
 31
0.0
  0
ARC
  5
A5
  8
2
 10
81.796224325306156
 20
32.50688008807716
 30
0.0
 40
4.25
 50
270.0
 51
90.0
  0
TEXT
  5
246
  8
0
 62
     3
 10
0.0
 20
0.0
 30
0.0
 40
5.0
  1
LSPLL16-SUS
  7
STANDARD1
  0
ENDSEC
  0
EOF
