  0
SECTION
  2
HEADER
  9
$ACADVER
  1
AC1009
  9
$INSBASE
 10
0.0
 20
0.0
 30
0.0
  9
$EXTMIN
 10
0.0
 20
-1.4802182810368341
 30
0.0
  9
$EXTMAX
 10
64.430461969260591
 20
48.853023835202833
 30
0.0
  9
$LIMMIN
 10
0.0
 20
0.0
  9
$LIMMAX
 10
75.0
 20
54.0
  9
$ORTHOMODE
 70
     1
  9
$REGENMODE
 70
     1
  9
$FILLMODE
 70
     1
  9
$QTEXTMODE
 70
     0
  9
$MIRRTEXT
 70
     0
  9
$DRAGMODE
 70
     2
  9
$LTSCALE
 40
2.0
  9
$OSMODE
 70
  3071
  9
$ATTMODE
 70
     1
  9
$TEXTSIZE
 40
0.2
  9
$TRACEWID
 40
0.05
  9
$TEXTSTYLE
  7
STANDARD
  9
$CLAYER
  8
0
  9
$CELTYPE
  6
BYLAYER
  9
$CECOLOR
 62
   256
  9
$DIMSCALE
 40
0.2
  9
$DIMASZ
 40
3.0
  9
$DIMEXO
 40
2.0
  9
$DIMDLI
 40
10.0
  9
$DIMRND
 40
0.0
  9
$DIMDLE
 40
0.0
  9
$DIMEXE
 40
2.0
  9
$DIMTP
 40
0.0
  9
$DIMTM
 40
0.0
  9
$DIMTXT
 40
3.2000000000000002
  9
$DIMCEN
 40
0.09
  9
$DIMTSZ
 40
0.0
  9
$DIMTOL
 70
     0
  9
$DIMLIM
 70
     0
  9
$DIMTIH
 70
     0
  9
$DIMTOH
 70
     0
  9
$DIMSE1
 70
     0
  9
$DIMSE2
 70
     0
  9
$DIMTAD
 70
     1
  9
$DIMZIN
 70
     0
  9
$DIMBLK
  1

  9
$DIMASO
 70
     1
  9
$DIMSHO
 70
     0
  9
$DIMPOST
  1

  9
$DIMAPOST
  1

  9
$DIMALT
 70
     0
  9
$DIMALTD
 70
     2
  9
$DIMALTF
 40
25.399999999999999
  9
$DIMLFAC
 40
1.0
  9
$DIMTOFL
 70
     1
  9
$DIMTVP
 40
1.6000000000000001
  9
$DIMTIX
 70
     1
  9
$DIMSOXD
 70
     0
  9
$DIMSAH
 70
     0
  9
$DIMBLK1
  1

  9
$DIMBLK2
  1

  9
$DIMSTYLE
  2
STANDARD
  9
$DIMCLRD
 70
     0
  9
$DIMCLRE
 70
     0
  9
$DIMCLRT
 70
     0
  9
$DIMTFAC
 40
1.0
  9
$DIMGAP
 40
0.09
  9
$LUNITS
 70
     2
  9
$LUPREC
 70
     4
  9
$SKETCHINC
 40
0.1
  9
$FILLETRAD
 40
0.0
  9
$AUNITS
 70
     0
  9
$AUPREC
 70
     0
  9
$MENU
  1
E:\r13\win\SUPPORT\ACAD
  9
$ELEVATION
 40
0.0
  9
$PELEVATION
 40
0.0
  9
$THICKNESS
 40
0.0
  9
$LIMCHECK
 70
     0
  9
$BLIPMODE
 70
     0
  9
$CHAMFERA
 40
0.0
  9
$CHAMFERB
 40
0.0
  9
$SKPOLY
 70
     0
  9
$TDCREATE
 40
2449840.618865741
  9
$TDUPDATE
 40
2456597.6086067711
  9
$TDINDWG
 40
0.0305031829
  9
$TDUSRTIMER
 40
0.0305031829
  9
$USRTIMER
 70
     1
  9
$ANGBASE
 50
0.0
  9
$ANGDIR
 70
     0
  9
$PDMODE
 70
     0
  9
$PDSIZE
 40
0.0
  9
$PLINEWID
 40
0.0
  9
$COORDS
 70
     1
  9
$SPLFRAME
 70
     0
  9
$SPLINETYPE
 70
     6
  9
$SPLINESEGS
 70
     8
  9
$ATTDIA
 70
     0
  9
$ATTREQ
 70
     1
  9
$HANDLING
 70
     1
  9
$HANDSEED
  5
86E
  9
$SURFTAB1
 70
     6
  9
$SURFTAB2
 70
     6
  9
$SURFTYPE
 70
     6
  9
$SURFU
 70
     6
  9
$SURFV
 70
     6
  9
$UCSNAME
  2

  9
$UCSORG
 10
0.0
 20
0.0
 30
0.0
  9
$UCSXDIR
 10
1.0
 20
0.0
 30
0.0
  9
$UCSYDIR
 10
0.0
 20
1.0
 30
0.0
  9
$PUCSNAME
  2

  9
$PUCSORG
 10
0.0
 20
0.0
 30
0.0
  9
$PUCSXDIR
 10
1.0
 20
0.0
 30
0.0
  9
$PUCSYDIR
 10
0.0
 20
1.0
 30
0.0
  9
$USERI1
 70
     0
  9
$USERI2
 70
     1
  9
$USERI3
 70
     1
  9
$USERI4
 70
     0
  9
$USERI5
 70
     0
  9
$USERR1
 40
0.0
  9
$USERR2
 40
0.0
  9
$USERR3
 40
0.0
  9
$USERR4
 40
0.0
  9
$USERR5
 40
0.0
  9
$WORLDVIEW
 70
     1
  9
$SHADEDGE
 70
     3
  9
$SHADEDIF
 70
    70
  9
$TILEMODE
 70
     1
  9
$MAXACTVP
 70
    16
  9
$PLIMCHECK
 70
     0
  9
$PEXTMIN
 10
1.0000000000000000E+020
 20
1.0000000000000000E+020
 30
1.0000000000000000E+020
  9
$PEXTMAX
 10
-1.0000000000000000E+020
 20
-1.0000000000000000E+020
 30
-1.0000000000000000E+020
  9
$PLIMMIN
 10
0.0
 20
0.0
  9
$PLIMMAX
 10
12.0
 20
9.0
  9
$UNITMODE
 70
     0
  9
$VISRETAIN
 70
     0
  9
$PLINEGEN
 70
     0
  9
$PSLTSCALE
 70
     0
  0
ENDSEC
  0
SECTION
  2
TABLES
  0
TABLE
  2
VPORT
 70
     1
  0
VPORT
  2
*ACTIVE
 70
     0
 10
0.0
 20
0.0
 11
1.0
 21
1.0
 12
37.498855678130482
 22
26.379763760371251
 13
0.0
 23
0.0
 14
2.0
 24
2.0
 15
2.0
 25
2.0
 16
0.0
 26
0.0
 36
1.0
 17
0.0
 27
0.0
 37
0.0
 40
56.358601010194953
 41
2.304913294797688
 42
50.0
 43
0.0
 44
0.0
 50
0.0
 51
0.0
 71
     0
 72
   100
 73
     1
 74
     0
 75
     0
 76
     0
 77
     0
 78
     1
  0
ENDTAB
  0
TABLE
  2
LTYPE
 70
     4
  0
LTYPE
  2
CONTINUOUS
 70
     0
  3
Solid Line
 72
    65
 73
     0
 40
0.0
  0
LTYPE
  2
CENTER
 70
     0
  3
____ _ ____ _ ____ _ ____ _ ____ _ ____ _ ____
 72
    65
 73
     4
 40
2.0
 49
1.25
 49
-0.25
 49
0.25
 49
-0.25
  0
LTYPE
  2
HIDDEN
 70
     0
  3
_ _ _ _ _ _ _ _ _ _ _ _ _ _ _ _ _ _ _ _ _ _ _
 72
    65
 73
     2
 40
0.375
 49
0.25
 49
-0.125
  0
LTYPE
  2
PHANTOM2
 70
     0
  3
___ _ _ ___ _ _ ___ _ _ ___ _ _
 72
    65
 73
     6
 40
1.25
 49
0.625
 49
-0.125
 49
0.125
 49
-0.125
 49
0.125
 49
-0.125
  0
ENDTAB
  0
TABLE
  2
LAYER
 70
     5
  0
LAYER
  2
0
 70
     0
 62
     7
  6
CONTINUOUS
  0
LAYER
  2
1
 70
     0
 62
     1
  6
CENTER
  0
LAYER
  2
2
 70
     0
 62
     2
  6
HIDDEN
  0
LAYER
  2
3
 70
     0
 62
     3
  6
CONTINUOUS
  0
LAYER
  2
DEFPOINTS
 70
     0
 62
     7
  6
CONTINUOUS
  0
ENDTAB
  0
TABLE
  2
STYLE
 70
     2
  0
STYLE
  2
STANDARD
 70
     0
 40
0.0
 41
1.0
 50
0.0
 71
     0
 42
0.2
  3
TXT
  4
BIGFONT
  0
STYLE
  2
STANDARD1
 70
     0
 40
0.0
 41
1.0
 50
0.0
 71
     0
 42
3.0
  3
txt
  4

  0
ENDTAB
  0
TABLE
  2
VIEW
 70
     1
  0
VIEW
  2
ALL
 70
     0
 40
54.0
 10
44.198318999999998
 20
27.0
 41
0.0
 11
0.0
 21
0.0
 31
1.0
 12
0.0
 22
0.0
 32
0.0
 42
0.0
 43
0.0
 44
0.0
 50
0.0
 71
     0
  0
ENDTAB
  0
TABLE
  2
UCS
 70
     0
  0
ENDTAB
  0
TABLE
  2
APPID
 70
     3
  0
APPID
  2
ACAD
 70
     0
  0
APPID
  2
ACAD_MLEADERVER
 70
     0
  0
APPID
  2
ACAD_NAV_VCDISPLAY
 70
     0
  0
ENDTAB
  0
TABLE
  2
DIMSTYLE
 70
     1
  0
DIMSTYLE
  2
STANDARD
 70
     0
  3

  4

  5

  6

  7

 40
1.0
 41
0.18
 42
0.0625
 43
0.38
 44
0.18
 45
0.0
 46
0.0
 47
0.0
 48
0.0
140
0.18
141
0.09
142
0.0
143
25.399999999999999
144
1.0
145
0.0
146
1.0
147
0.09
 71
     0
 72
     0
 73
     1
 74
     1
 75
     0
 76
     0
 77
     0
 78
     0
170
     0
171
     2
172
     0
173
     0
174
     0
175
     0
176
     0
177
     0
178
     0
  0
ENDTAB
  0
ENDSEC
  0
SECTION
  2
BLOCKS
  0
BLOCK
  8
0
  2
$MODEL_SPACE
 70
     0
 10
0.0
 20
0.0
 30
0.0
  3
$MODEL_SPACE
  1

  0
ENDBLK
  5
66B
  8
0
  0
BLOCK
 67
     1
  8
0
  2
$PAPER_SPACE
 70
     0
 10
0.0
 20
0.0
 30
0.0
  3
$PAPER_SPACE
  1

  0
ENDBLK
  5
669
 67
     1
  8
0
  0
ENDSEC
  0
SECTION
  2
ENTITIES
  0
LINE
  5
400
  8
0
 10
30.822529969260621
 20
32.415869835202841
 30
0.0
 11
37.822529969260607
 21
32.415869835202841
 31
0.0
  0
LINE
  5
401
  8
2
 10
38.699029969260621
 20
31.215869835202842
 30
0.0
 11
27.799029969260609
 21
31.215869835202831
 31
0.0
  0
LINE
  5
402
  8
0
 10
40.899029969260589
 20
26.215869835202831
 30
0.0
 11
28.799029969260602
 21
26.215869835202842
 31
0.0
  0
LINE
  5
403
  8
3
 10
41.440529969260609
 20
26.757369835202841
 30
0.0
 11
28.25752996926062
 21
26.757369835202841
 31
0.0
  0
LINE
  5
404
  8
3
 10
41.440529969260609
 20
31.674369835202839
 30
0.0
 11
28.25752996926062
 21
31.674369835202839
 31
0.0
  0
LINE
  5
405
  8
0
 10
40.89902996926061
 20
32.215869835202817
 30
0.0
 11
28.799029969260602
 21
32.215869835202817
 31
0.0
  0
LINE
  5
406
  8
1
 10
26.799029969260602
 20
29.215869835202831
 30
0.0
 11
44.799029969260587
 21
29.215869835202842
 31
0.0
  0
LINE
  5
407
  8
2
 10
30.822529969260621
 20
32.215869835202817
 30
0.0
 11
30.822529969260621
 21
31.215869835202831
 31
0.0
  0
LINE
  5
408
  8
0
 10
28.799029969260602
 20
32.215869835202817
 30
0.0
 11
28.799029969260602
 21
29.71586983520282
 31
0.0
  0
LINE
  5
409
  8
0
 10
28.799029969260602
 20
32.215869835202817
 30
0.0
 11
27.799029969260602
 21
31.215869835202831
 31
0.0
  0
LINE
  5
40A
  8
0
 10
27.799029969260602
 20
27.215869835202842
 30
0.0
 11
28.799029969260602
 21
26.215869835202842
 31
0.0
  0
LINE
  5
40B
  8
0
 10
27.799029969260602
 20
28.715869835202831
 30
0.0
 11
29.299029969260602
 21
28.715869835202831
 31
0.0
  0
LINE
  5
40C
  8
0
 10
27.799029969260602
 20
29.71586983520282
 30
0.0
 11
29.299029969260602
 21
29.71586983520282
 31
0.0
  0
LINE
  5
40D
  8
0
 10
27.799029969260602
 20
28.715869835202831
 30
0.0
 11
27.799029969260602
 21
27.215869835202842
 31
0.0
  0
LINE
  5
40E
  8
0
 10
27.799029969260602
 20
31.215869835202831
 30
0.0
 11
27.799029969260602
 21
29.71586983520282
 31
0.0
  0
LINE
  5
40F
  8
0
 10
28.799029969260602
 20
28.715869835202831
 30
0.0
 11
28.799029969260602
 21
26.215869835202842
 31
0.0
  0
LINE
  5
410
  8
0
 10
29.299029969260602
 20
29.71586983520282
 30
0.0
 11
29.299029969260602
 21
28.715869835202831
 31
0.0
  0
LINE
  5
411
  8
0
 10
30.822529969260621
 20
32.215869835202817
 30
0.0
 11
30.822529969260621
 21
32.415869835202841
 31
0.0
  0
LINE
  5
412
  8
2
 10
37.822529969260607
 20
32.215869835202817
 30
0.0
 11
37.822529969260607
 21
31.215869835202831
 31
0.0
  0
LINE
  5
413
  8
0
 10
40.899029969260589
 20
32.215869835202817
 30
0.0
 11
40.899029969260589
 21
26.215869835202842
 31
0.0
  0
LINE
  5
414
  8
0
 10
41.799029969260602
 20
31.31586983520285
 30
0.0
 11
40.899029969260589
 21
32.215869835202817
 31
0.0
  0
LINE
  5
415
  8
0
 10
41.799029969260602
 20
27.11586983520283
 30
0.0
 11
40.899029969260589
 21
26.215869835202842
 31
0.0
  0
LINE
  5
416
  8
0
 10
41.799029969260602
 20
31.31586983520285
 30
0.0
 11
41.799029969260602
 21
27.11586983520283
 31
0.0
  0
LINE
  5
417
  8
0
 10
37.822529969260607
 20
32.415869835202841
 30
0.0
 11
37.822529969260607
 21
32.215869835202817
 31
0.0
  0
ARC
  5
418
  8
0
 10
42.4490299692606
 20
29.215869835202842
 30
0.0
 40
1.3500000000000001
 50
270.0
 51
90.0
  0
LINE
  5
419
  8
0
 10
42.4490299692606
 20
27.86586983520283
 30
0.0
 11
41.799029969260602
 21
27.86586983520284
 31
0.0
  0
LINE
  5
41A
  8
0
 10
42.4490299692606
 20
30.56586983520285
 30
0.0
 11
41.799029969260602
 21
30.565869835202829
 31
0.0
  0
ARC
  5
41B
  8
2
 10
40.449029969260607
 20
29.215869835202849
 30
0.0
 40
1.3500000000000001
 50
270.0
 51
90.0
  0
LINE
  5
41E
  8
1
 10
26.799029969260602
 20
12.578714835202851
 30
0.0
 11
44.799029969260587
 21
12.578714835202859
 31
0.0
  0
LINE
  5
41F
  8
0
 10
41.799029969260602
 20
14.678714835202859
 30
0.0
 11
40.899029969260589
 21
15.578714835202851
 31
0.0
  0
LINE
  5
420
  8
0
 10
41.799029969260602
 20
10.47871483520286
 30
0.0
 11
40.899029969260589
 21
9.5787148352028595
 31
0.0
  0
LINE
  5
421
  8
3
 10
41.440529969260609
 20
10.12021483520286
 30
0.0
 11
28.25752996926062
 21
10.12021483520286
 31
0.0
  0
LINE
  5
422
  8
3
 10
41.440529969260609
 20
15.03721483520285
 30
0.0
 11
28.25752996926062
 21
15.03721483520285
 31
0.0
  0
ARC
  5
423
  8
2
 10
40.449029969260607
 20
12.578714835202859
 30
0.0
 40
1.3500000000000001
 50
270.0
 51
90.0
  0
LINE
  5
424
  8
0
 10
40.899029969260589
 20
15.578714835202851
 30
0.0
 11
40.899029969260589
 21
9.5787148352028595
 31
0.0
  0
LINE
  5
425
  8
0
 10
27.799029969260602
 20
10.578714835202859
 30
0.0
 11
28.799029969260602
 21
9.5787148352028595
 31
0.0
  0
LINE
  5
426
  8
0
 10
28.799029969260602
 20
15.578714835202859
 30
0.0
 11
28.799029969260602
 21
9.5787148352028595
 31
0.0
  0
LINE
  5
427
  8
0
 10
40.899029969260589
 20
9.5787148352028524
 30
0.0
 11
28.799029969260602
 21
9.5787148352028595
 31
0.0
  0
LINE
  5
428
  8
0
 10
40.89902996926061
 20
15.578714835202851
 30
0.0
 11
28.799029969260602
 21
15.578714835202851
 31
0.0
  0
LINE
  5
429
  8
0
 10
28.799029969260602
 20
15.578714835202851
 30
0.0
 11
27.799029969260602
 21
14.578714835202851
 31
0.0
  0
LINE
  5
42A
  8
0
 10
27.799029969260602
 20
14.578714835202851
 30
0.0
 11
27.799029969260602
 21
10.578714835202859
 31
0.0
  0
LINE
  5
42B
  8
0
 10
41.799029969260602
 20
14.678714835202859
 30
0.0
 11
41.799029969260602
 21
10.47871483520286
 31
0.0
  0
ARC
  5
42C
  8
0
 10
42.4490299692606
 20
12.578714835202859
 30
0.0
 40
1.3500000000000001
 50
270.0
 51
90.0
  0
LINE
  5
42D
  8
0
 10
42.4490299692606
 20
11.228714835202849
 30
0.0
 11
41.799029969260602
 21
11.22871483520286
 31
0.0
  0
LINE
  5
42E
  8
0
 10
42.4490299692606
 20
13.928714835202859
 30
0.0
 11
41.799029969260602
 21
13.92871483520285
 31
0.0
  0
ARC
  5
42F
  8
2
 10
40.449029969260607
 20
45.853023835202862
 30
0.0
 40
1.3500000000000001
 50
270.0
 51
90.0
  0
LINE
  5
430
  8
3
 10
41.440529969260609
 20
48.311523835202848
 30
0.0
 11
28.25752996926062
 21
48.311523835202848
 31
0.0
  0
LINE
  5
431
  8
3
 10
41.440529969260609
 20
43.39452383520284
 30
0.0
 11
28.25752996926062
 21
43.39452383520284
 31
0.0
  0
LINE
  5
432
  8
0
 10
41.799029969260602
 20
43.753023835202839
 30
0.0
 11
40.899029969260589
 21
42.853023835202841
 31
0.0
  0
LINE
  5
433
  8
0
 10
41.799029969260602
 20
47.953023835202863
 30
0.0
 11
40.899029969260589
 21
48.853023835202833
 31
0.0
  0
LINE
  5
434
  8
1
 10
26.799029969260602
 20
45.853023835202833
 30
0.0
 11
44.799029969260587
 21
45.853023835202848
 31
0.0
  0
LINE
  5
435
  8
0
 10
40.89902996926061
 20
48.853023835202833
 30
0.0
 11
28.799029969260602
 21
48.853023835202833
 31
0.0
  0
LINE
  5
436
  8
0
 10
40.899029969260589
 20
42.853023835202833
 30
0.0
 11
28.799029969260602
 21
42.853023835202841
 31
0.0
  0
LINE
  5
437
  8
0
 10
27.799029969260602
 20
47.853023835202812
 30
0.0
 11
27.799029969260602
 21
43.853023835202848
 31
0.0
  0
LINE
  5
438
  8
0
 10
28.799029969260602
 20
48.853023835202833
 30
0.0
 11
28.799029969260602
 21
46.353023835202841
 31
0.0
  0
LINE
  5
439
  8
0
 10
27.799029969260602
 20
43.853023835202848
 30
0.0
 11
28.799029969260602
 21
42.853023835202841
 31
0.0
  0
LINE
  5
43A
  8
0
 10
27.799029969260602
 20
46.353023835202841
 30
0.0
 11
39.199029969260643
 21
46.353023835202848
 31
0.0
  0
LINE
  5
43B
  8
0
 10
27.799029969260602
 20
45.353023835202841
 30
0.0
 11
39.199029969260643
 21
45.353023835202841
 31
0.0
  0
LINE
  5
43C
  8
0
 10
28.799029969260602
 20
48.853023835202833
 30
0.0
 11
27.799029969260602
 21
47.853023835202833
 31
0.0
  0
LINE
  5
43D
  8
0
 10
40.899029969260589
 20
48.853023835202833
 30
0.0
 11
40.899029969260589
 21
42.853023835202841
 31
0.0
  0
ARC
  5
43E
  8
0
 10
42.4490299692606
 20
45.853023835202848
 30
0.0
 40
1.3500000000000001
 50
270.0
 51
90.0
  0
LINE
  5
43F
  8
0
 10
41.799029969260602
 20
47.953023835202863
 30
0.0
 11
41.799029969260602
 21
43.753023835202839
 31
0.0
  0
LINE
  5
440
  8
0
 10
42.4490299692606
 20
44.503023835202832
 30
0.0
 11
41.799029969260602
 21
44.503023835202853
 31
0.0
  0
LINE
  5
441
  8
0
 10
42.4490299692606
 20
47.203023835202849
 30
0.0
 11
41.799029969260602
 21
47.203023835202842
 31
0.0
  0
LINE
  5
442
  8
0
 10
30.822529969260621
 20
46.353023835202833
 30
0.0
 11
30.822529969260621
 21
45.353023835202833
 31
0.0
  0
LINE
  5
443
  8
0
 10
37.822529969260607
 20
46.353023835202833
 30
0.0
 11
37.822529969260628
 21
45.353023835202833
 31
0.0
  0
LINE
  5
445
  8
1
 10
12.80180996926059
 20
33.215869835202838
 30
0.0
 11
12.80180996926059
 21
25.215869835202849
 31
0.0
  0
CIRCLE
  5
446
  8
3
 10
12.80180996926059
 20
29.215869835202842
 30
0.0
 40
2.458499999999999
  0
LINE
  5
447
  8
1
 10
16.801809969260589
 20
29.215869835202842
 30
0.0
 11
8.8018099692605887
 21
29.215869835202842
 31
0.0
  0
LINE
  5
448
  8
0
 10
9.8437699692606042
 20
28.715869835202842
 30
0.0
 11
15.7598499692606
 21
28.715869835202842
 31
0.0
  0
LINE
  5
449
  8
0
 10
9.8437699692606042
 20
29.715869835202842
 30
0.0
 11
15.7598499692606
 21
29.715869835202842
 31
0.0
  0
LINE
  5
44A
  8
1
 10
60.430461969260591
 20
33.215869835202817
 30
0.0
 11
60.430461969260591
 21
25.215869835202842
 31
0.0
  0
LINE
  5
44C
  8
1
 10
64.430461969260591
 20
29.215869835202831
 30
0.0
 11
56.430461969260591
 21
29.215869835202831
 31
0.0
  0
CIRCLE
  5
44D
  8
3
 10
60.430461969260591
 20
29.215869835202831
 30
0.0
 40
2.458499999999999
  0
POLYLINE
  5
452
  8
0
  6
CONTINUOUS
 66
     1
 10
0.0
 20
0.0
 30
0.0
 70
     8
  0
VERTEX
  5
62A
  8
0
  6
CONTINUOUS
 10
60.821138754608889
 20
32.190323003331358
 30
0.0
 70
    32
1001
ACAD
1000
R13OBJECT
1002
{
1005
452
1002
}
  0
VERTEX
  5
62B
  8
0
  6
CONTINUOUS
 10
60.577717534088713
 20
32.389258664901398
 30
0.0
 70
    32
1001
ACAD
1000
R13OBJECT
1002
{
1005
452
1002
}
  0
VERTEX
  5
62C
  8
0
  6
CONTINUOUS
 10
60.283206404432448
 20
32.389258664901391
 30
0.0
 70
    32
1001
ACAD
1000
R13OBJECT
1002
{
1005
452
1002
}
  0
VERTEX
  5
62D
  8
0
  6
CONTINUOUS
 10
60.039785183912279
 20
32.190323003331351
 30
0.0
 70
    32
1001
ACAD
1000
R13OBJECT
1002
{
1005
452
1002
}
  0
SEQEND
  5
62E
  8
0
  6
CONTINUOUS
  0
ARC
  5
45C
  8
0
 10
12.80180996926059
 20
29.215869835202842
 30
0.0
 40
3.0
 50
97.48262878491289
 51
82.517371215087223
  0
ARC
  5
502
  8
2
 10
38.699029969260621
 20
31.715869835202831
 30
0.0
 40
0.5
 50
270.0
 51
0.0
  0
LINE
  5
503
  8
2
 10
39.199029969260621
 20
31.715869835202831
 30
0.0
 11
39.199029969260621
 21
32.215869835202817
 31
0.0
  0
LINE
  5
504
  8
0
 10
39.199029969260629
 20
45.353023835202841
 30
0.0
 11
39.199029969260629
 21
46.353023835202833
 31
0.0
  0
LINE
  5
505
  8
0
 10
28.799029969260602
 20
45.353023835202841
 30
0.0
 11
28.799029969260602
 21
42.853023835202841
 31
0.0
  0
LINE
  5
581
  8
0
 10
12.30180996926059
 20
31.21586983520281
 30
0.0
 11
13.30180996926059
 21
31.21586983520281
 31
0.0
  0
POLYLINE
  5
582
  8
0
  6
CONTINUOUS
 66
     1
 10
0.0
 20
0.0
 30
0.0
 70
     8
  0
VERTEX
  5
62F
  8
0
  6
CONTINUOUS
 10
12.80180996926059
 20
31.21586983520281
 30
0.0
 70
    32
1001
ACAD
1000
R13OBJECT
1002
{
1005
582
1002
}
  0
VERTEX
  5
630
  8
0
  6
CONTINUOUS
 10
13.07213037798839
 20
31.3111177155041
 30
0.0
 70
    32
1001
ACAD
1000
R13OBJECT
1002
{
1005
582
1002
}
  0
VERTEX
  5
631
  8
0
  6
CONTINUOUS
 10
13.256625966937859
 20
31.566620827401689
 30
0.0
 70
    32
1001
ACAD
1000
R13OBJECT
1002
{
1005
582
1002
}
  0
VERTEX
  5
632
  8
0
  6
CONTINUOUS
 10
13.29672069020107
 20
31.901258738166799
 30
0.0
 70
    32
1001
ACAD
1000
R13OBJECT
1002
{
1005
582
1002
}
  0
VERTEX
  5
633
  8
0
  6
CONTINUOUS
 10
13.17968475643773
 20
32.208786275569999
 30
0.0
 70
    32
1001
ACAD
1000
R13OBJECT
1002
{
1005
582
1002
}
  0
VERTEX
  5
634
  8
0
  6
CONTINUOUS
 10
12.9426762476813
 20
32.391565619371526
 30
0.0
 70
    32
1001
ACAD
1000
R13OBJECT
1002
{
1005
582
1002
}
  0
VERTEX
  5
635
  8
0
  6
CONTINUOUS
 10
12.66094369083986
 20
32.391565619371526
 30
0.0
 70
    32
1001
ACAD
1000
R13OBJECT
1002
{
1005
582
1002
}
  0
VERTEX
  5
636
  8
0
  6
CONTINUOUS
 10
12.42393518208344
 20
32.208786275569992
 30
0.0
 70
    32
1001
ACAD
1000
R13OBJECT
1002
{
1005
582
1002
}
  0
VERTEX
  5
637
  8
0
  6
CONTINUOUS
 10
12.306899248320111
 20
31.901258738166788
 30
0.0
 70
    32
1001
ACAD
1000
R13OBJECT
1002
{
1005
582
1002
}
  0
VERTEX
  5
638
  8
0
  6
CONTINUOUS
 10
12.34699397158332
 20
31.566620827401671
 30
0.0
 70
    32
1001
ACAD
1000
R13OBJECT
1002
{
1005
582
1002
}
  0
VERTEX
  5
639
  8
0
  6
CONTINUOUS
 10
12.53148956053278
 20
31.3111177155041
 30
0.0
 70
    32
1001
ACAD
1000
R13OBJECT
1002
{
1005
582
1002
}
  0
VERTEX
  5
63A
  8
0
  6
CONTINUOUS
 10
12.80180996926059
 20
31.21586983520281
 30
0.0
 70
    32
1001
ACAD
1000
R13OBJECT
1002
{
1005
582
1002
}
  0
SEQEND
  5
63B
  8
0
  6
CONTINUOUS
  0
LINE
  5
586
  8
0
 10
12.30180996926059
 20
32.173909726752633
 30
0.0
 11
12.30180996926059
 21
31.21586983520281
 31
0.0
  0
LINE
  5
587
  8
0
 10
13.30180996926059
 20
32.173909726752633
 30
0.0
 11
13.30180996926059
 21
31.21586983520281
 31
0.0
  0
CIRCLE
  5
589
  8
0
 10
60.430461969260591
 20
29.215869835202831
 30
0.0
 40
3.0
  0
CIRCLE
  5
624
  8
0
 10
60.430461969260591
 20
29.215869835202831
 30
0.0
 40
1.3500000000000261
  0
CIRCLE
  5
625
  8
0
 10
60.430461969260591
 20
29.215869835202831
 30
0.0
 40
2.1000000000000218
  0
TEXT
  5
7DF
  8
0
 62
     3
 10
0.0
 20
0.0
 30
0.0
 40
5.0
  1
LSPLH6-SUS
  7
STANDARD1
  0
ENDSEC
  0
EOF
