  0
SECTION
  2
HEADER
  9
$ACADVER
  1
AC1009
  9
$INSBASE
 10
0.0
 20
0.0
 30
0.0
  9
$EXTMIN
 10
0.0
 20
-2.960436562073669
 30
0.0
  9
$EXTMAX
 10
415.57793112976708
 20
292.5944276340382
 30
0.0
  9
$LIMMIN
 10
0.0
 20
0.0
  9
$LIMMAX
 10
375.0
 20
270.0
  9
$ORTHOMODE
 70
     1
  9
$REGENMODE
 70
     1
  9
$FILLMODE
 70
     1
  9
$QTEXTMODE
 70
     0
  9
$MIRRTEXT
 70
     0
  9
$DRAGMODE
 70
     2
  9
$LTSCALE
 40
10.0
  9
$OSMODE
 70
    37
  9
$ATTMODE
 70
     1
  9
$TEXTSIZE
 40
6.0
  9
$TRACEWID
 40
0.05
  9
$TEXTSTYLE
  7
STANDARD
  9
$CLAYER
  8
0
  9
$CELTYPE
  6
BYLAYER
  9
$CECOLOR
 62
   256
  9
$DIMSCALE
 40
1.0
  9
$DIMASZ
 40
3.0
  9
$DIMEXO
 40
2.0
  9
$DIMDLI
 40
0.3799999999999999
  9
$DIMRND
 40
0.0
  9
$DIMDLE
 40
0.0
  9
$DIMEXE
 40
2.0
  9
$DIMTP
 40
0.0
  9
$DIMTM
 40
0.0
  9
$DIMTXT
 40
3.2000000000000002
  9
$DIMCEN
 40
0.09
  9
$DIMTSZ
 40
0.0
  9
$DIMTOL
 70
     0
  9
$DIMLIM
 70
     0
  9
$DIMTIH
 70
     0
  9
$DIMTOH
 70
     0
  9
$DIMSE1
 70
     0
  9
$DIMSE2
 70
     0
  9
$DIMTAD
 70
     1
  9
$DIMZIN
 70
     0
  9
$DIMBLK
  1

  9
$DIMASO
 70
     0
  9
$DIMSHO
 70
     0
  9
$DIMPOST
  1

  9
$DIMAPOST
  1

  9
$DIMALT
 70
     0
  9
$DIMALTD
 70
     2
  9
$DIMALTF
 40
25.399999999999999
  9
$DIMLFAC
 40
1.0
  9
$DIMTOFL
 70
     0
  9
$DIMTVP
 40
0.0
  9
$DIMTIX
 70
     0
  9
$DIMSOXD
 70
     0
  9
$DIMSAH
 70
     0
  9
$DIMBLK1
  1

  9
$DIMBLK2
  1

  9
$DIMSTYLE
  2
STANDARD
  9
$DIMCLRD
 70
     0
  9
$DIMCLRE
 70
     0
  9
$DIMCLRT
 70
     0
  9
$DIMTFAC
 40
1.0
  9
$DIMGAP
 40
0.09
  9
$LUNITS
 70
     2
  9
$LUPREC
 70
     4
  9
$SKETCHINC
 40
0.1
  9
$FILLETRAD
 40
20.0
  9
$AUNITS
 70
     0
  9
$AUPREC
 70
     0
  9
$MENU
  1
E:\r13\win\SUPPORT\ACAD
  9
$ELEVATION
 40
0.0
  9
$PELEVATION
 40
0.0
  9
$THICKNESS
 40
0.0
  9
$LIMCHECK
 70
     0
  9
$BLIPMODE
 70
     0
  9
$CHAMFERA
 40
0.0
  9
$CHAMFERB
 40
0.0
  9
$SKPOLY
 70
     0
  9
$TDCREATE
 40
2449840.6320370371
  9
$TDUPDATE
 40
2459774.7154185879
  9
$TDINDWG
 40
0.47055125
  9
$TDUSRTIMER
 40
0.47055125
  9
$USRTIMER
 70
     1
  9
$ANGBASE
 50
0.0
  9
$ANGDIR
 70
     0
  9
$PDMODE
 70
     0
  9
$PDSIZE
 40
0.0
  9
$PLINEWID
 40
0.0
  9
$COORDS
 70
     1
  9
$SPLFRAME
 70
     0
  9
$SPLINETYPE
 70
     6
  9
$SPLINESEGS
 70
     8
  9
$ATTDIA
 70
     0
  9
$ATTREQ
 70
     1
  9
$HANDLING
 70
     1
  9
$HANDSEED
  5
108A3
  9
$SURFTAB1
 70
     6
  9
$SURFTAB2
 70
     6
  9
$SURFTYPE
 70
     6
  9
$SURFU
 70
     6
  9
$SURFV
 70
     6
  9
$UCSNAME
  2

  9
$UCSORG
 10
0.0
 20
0.0
 30
0.0
  9
$UCSXDIR
 10
1.0
 20
0.0
 30
0.0
  9
$UCSYDIR
 10
0.0
 20
1.0
 30
0.0
  9
$PUCSNAME
  2

  9
$PUCSORG
 10
0.0
 20
0.0
 30
0.0
  9
$PUCSXDIR
 10
1.0
 20
0.0
 30
0.0
  9
$PUCSYDIR
 10
0.0
 20
1.0
 30
0.0
  9
$USERI1
 70
     0
  9
$USERI2
 70
     1
  9
$USERI3
 70
     0
  9
$USERI4
 70
     0
  9
$USERI5
 70
     0
  9
$USERR1
 40
0.0
  9
$USERR2
 40
0.0
  9
$USERR3
 40
0.0
  9
$USERR4
 40
0.0
  9
$USERR5
 40
0.0
  9
$WORLDVIEW
 70
     1
  9
$SHADEDGE
 70
     3
  9
$SHADEDIF
 70
    70
  9
$TILEMODE
 70
     1
  9
$MAXACTVP
 70
    16
  9
$PLIMCHECK
 70
     0
  9
$PEXTMIN
 10
1.0000000000000000E+020
 20
1.0000000000000000E+020
 30
1.0000000000000000E+020
  9
$PEXTMAX
 10
-1.0000000000000000E+020
 20
-1.0000000000000000E+020
 30
-1.0000000000000000E+020
  9
$PLIMMIN
 10
0.0
 20
0.0
  9
$PLIMMAX
 10
12.0
 20
9.0
  9
$UNITMODE
 70
     0
  9
$VISRETAIN
 70
     0
  9
$PLINEGEN
 70
     0
  9
$PSLTSCALE
 70
     0
  0
ENDSEC
  0
SECTION
  2
TABLES
  0
TABLE
  2
VPORT
 70
     1
  0
VPORT
  2
*ACTIVE
 70
     0
 10
0.0
 20
0.0
 11
1.0
 21
1.0
 12
398.58774038461542
 22
175.0
 13
0.0
 23
0.0
 14
10.0
 24
10.0
 15
10.0
 25
10.0
 16
0.0
 26
0.0
 36
1.0
 17
0.0
 27
0.0
 37
0.0
 40
350.0
 41
2.2776442307692299
 42
50.0
 43
0.0
 44
0.0
 50
0.0
 51
0.0
 71
     0
 72
   500
 73
     1
 74
     0
 75
     0
 76
     0
 77
     0
 78
     0
  0
ENDTAB
  0
TABLE
  2
LTYPE
 70
     3
  0
LTYPE
  2
CONTINUOUS
 70
     0
  3
Solid Line
 72
    65
 73
     0
 40
0.0
  0
LTYPE
  2
CENTER
 70
     0
  3
____ _ ____ _ ____ _ ____ _ ____ _ ____ _ ____
 72
    65
 73
     4
 40
2.0
 49
1.25
 49
-0.25
 49
0.25
 49
-0.25
  0
LTYPE
  2
PHANTOM2
 70
     0
  3
___ _ _ ___ _ _ ___ _ _ ___ _ _
 72
    65
 73
     6
 40
1.25
 49
0.625
 49
-0.125
 49
0.125
 49
-0.125
 49
0.125
 49
-0.125
  0
ENDTAB
  0
TABLE
  2
LAYER
 70
     4
  0
LAYER
  2
0
 70
     0
 62
     7
  6
CONTINUOUS
  0
LAYER
  2
1
 70
     0
 62
     1
  6
CENTER
  0
LAYER
  2
DEFPOINTS
 70
     0
 62
     7
  6
CONTINUOUS
  0
LAYER
  2
3
 70
     0
 62
     3
  6
CONTINUOUS
  0
ENDTAB
  0
TABLE
  2
STYLE
 70
     2
  0
STYLE
  2
STANDARD
 70
     0
 40
0.0
 41
1.0
 50
0.0
 71
     0
 42
6.0
  3
TXT
  4
BIGFONT
  0
STYLE
  2
STANDARD1
 70
     0
 40
0.0
 41
1.0
 50
0.0
 71
     0
 42
3.0
  3
txt
  4

  0
ENDTAB
  0
TABLE
  2
VIEW
 70
     1
  0
VIEW
  2
ALL
 70
     0
 40
270.0
 10
213.25689075630251
 20
135.0
 41
0.0
 11
0.0
 21
0.0
 31
1.0
 12
0.0
 22
0.0
 32
0.0
 42
0.0
 43
0.0
 44
0.0
 50
0.0
 71
     0
  0
ENDTAB
  0
TABLE
  2
UCS
 70
     0
  0
ENDTAB
  0
TABLE
  2
APPID
 70
     3
  0
APPID
  2
ACAD
 70
     0
  0
APPID
  2
ACAD_MLEADERVER
 70
     0
  0
APPID
  2
ACAD_NAV_VCDISPLAY
 70
     0
  0
ENDTAB
  0
TABLE
  2
DIMSTYLE
 70
     1
  0
DIMSTYLE
  2
STANDARD
 70
     0
  3

  4

  5

  6

  7

 40
1.0
 41
0.18
 42
0.0625
 43
0.38
 44
0.18
 45
0.0
 46
0.0
 47
0.0
 48
0.0
140
0.18
141
0.09
142
0.0
143
25.399999999999999
144
1.0
145
0.0
146
1.0
147
0.09
 71
     0
 72
     0
 73
     1
 74
     1
 75
     0
 76
     0
 77
     0
 78
     0
170
     0
171
     2
172
     0
173
     0
174
     0
175
     0
176
     0
177
     0
178
     0
  0
ENDTAB
  0
ENDSEC
  0
SECTION
  2
BLOCKS
  0
BLOCK
  8
0
  2
$MODEL_SPACE
 70
     0
 10
0.0
 20
0.0
 30
0.0
  3
$MODEL_SPACE
  1

  0
ENDBLK
  5
126
  8
0
  0
BLOCK
 67
     1
  8
0
  2
$PAPER_SPACE
 70
     0
 10
0.0
 20
0.0
 30
0.0
  3
$PAPER_SPACE
  1

  0
ENDBLK
  5
124
 67
     1
  8
0
  0
ENDSEC
  0
SECTION
  2
ENTITIES
  0
LINE
  5
F26E
  8
0
 10
257.03343668171721
 20
155.18558887128839
 30
0.0
 11
258.83343362399893
 21
155.18558887128839
 31
0.0
  0
LINE
  5
F26F
  8
0
 10
258.83343362399893
 20
169.18558889596841
 30
0.0
 11
257.03343668171721
 21
169.18558889596841
 31
0.0
  0
LINE
  5
F270
  8
0
 10
257.03343668171721
 20
169.18558889596841
 30
0.0
 11
256.83343702146362
 21
168.98558882826131
 31
0.0
  0
LINE
  5
F271
  8
0
 10
256.83343702146362
 20
155.38558853154191
 30
0.0
 11
257.03343668171721
 21
155.18558887128839
 31
0.0
  0
ARC
  5
F272
  8
0
 10
256.33343533465199
 20
168.8855888757588
 30
0.0
 40
0.5
 50
270.0
 51
0.0
  0
ARC
  5
F273
  8
0
 10
256.33343533465199
 20
155.48558887575879
 30
0.0
 40
0.5
 50
0.0
 51
90.0
  0
LINE
  5
F274
  8
0
 10
256.33343600818472
 20
168.38558891617811
 30
0.0
 11
255.88343584129171
 21
168.38558891617811
 31
0.0
  0
LINE
  5
F275
  8
0
 10
255.88343584129171
 20
155.98558844362509
 30
0.0
 11
256.33343600818472
 21
155.98558844362509
 31
0.0
  0
LINE
  5
F276
  8
0
 10
214.13343505153011
 20
149.23558966552031
 30
0.0
 11
214.38343555816959
 21
149.48558830951461
 31
0.0
  0
LINE
  5
F277
  8
0
 10
234.38343511113479
 20
149.48558830951461
 30
0.0
 11
234.63343561777421
 21
149.23558966552031
 31
0.0
  0
LINE
  5
F2A0
  8
0
 10
261.72868454047989
 20
163.93558890854129
 30
0.0
 11
261.72868454047989
 21
160.43558926616919
 31
0.0
  0
LINE
  5
F2A2
  8
0
 10
277.79918828198271
 20
158.9355890203
 30
0.0
 11
277.79918828198271
 21
155.6855889532448
 31
0.0
  0
LINE
  5
F2A5
  8
0
 10
277.79918828198271
 20
168.68558887221971
 30
0.0
 11
277.79918828198271
 21
165.43558868874919
 31
0.0
  0
LINE
  5
F2A6
  8
0
 10
277.14551904389208
 20
165.43558868874919
 30
0.0
 11
277.79918828198271
 21
165.43558868874919
 31
0.0
  0
ARC
  5
F2A7
  8
0
 10
281.41539986851598
 20
164.30775288835321
 30
0.0
 40
4.4163215291854634
 50
165.2039558352219
 51
184.83405568911039
  0
LINE
  5
F2A8
  8
0
 10
277.01478743144821
 20
160.43558926616919
 30
0.0
 11
277.01478743144821
 21
163.93558890854129
 31
0.0
  0
ARC
  5
F2A9
  8
0
 10
281.41539720092533
 20
160.0634247037386
 30
0.0
 40
4.4163189201809292
 50
175.16593386263321
 51
194.7960515359859
  0
LINE
  5
F2AA
  8
0
 10
277.14551904389208
 20
158.9355890203
 30
0.0
 11
277.79918828198271
 21
158.9355890203
 31
0.0
  0
POLYLINE
  5
F2AB
  8
0
 66
     1
 10
0.0
 20
0.0
 30
0.0
 70
   128
  0
VERTEX
  5
10805
  8
0
 10
272.4572821814711
 20
162.1855890873552
 30
0.0
  0
VERTEX
  5
10806
  8
0
 10
272.46077650377111
 20
162.8358524787904
 30
0.0
  0
VERTEX
  5
10807
  8
0
 10
272.47121104189711
 20
163.47625875209579
 30
0.0
  0
VERTEX
  5
10808
  8
0
 10
272.4884256083663
 20
164.097100266415
 30
0.0
  0
VERTEX
  5
10809
  8
0
 10
272.5121557075675
 20
164.68896461014759
 30
0.0
  0
VERTEX
  5
1080A
  8
0
 10
272.5420474369223
 20
165.24288081859359
 30
0.0
  0
VERTEX
  5
1080B
  8
0
 10
272.57764631101441
 20
165.75045115609771
 30
0.0
  0
VERTEX
  5
1080C
  8
0
 10
272.61841216275047
 20
166.20398196687111
 30
0.0
  0
VERTEX
  5
1080D
  8
0
 10
272.66372286865072
 20
166.59659799483731
 30
0.0
  0
VERTEX
  5
1080E
  8
0
 10
272.71289670059042
 20
166.9223478559137
 30
0.0
  0
VERTEX
  5
1080F
  8
0
 10
272.76518860050987
 20
167.17629297931799
 30
0.0
  0
VERTEX
  5
10810
  8
0
 10
272.81980508157562
 20
167.35458420884919
 30
0.0
  0
VERTEX
  5
10811
  8
0
 10
272.87591167876081
 20
167.4545188463957
 30
0.0
  0
VERTEX
  5
10812
  8
0
 10
272.93266647645783
 20
167.47458186295941
 30
0.0
  0
VERTEX
  5
10813
  8
0
 10
272.98920893260788
 20
167.4144689488889
 30
0.0
  0
VERTEX
  5
10814
  8
0
 10
273.04467477986168
 20
167.27509186898479
 30
0.0
  0
VERTEX
  5
10815
  8
0
 10
273.09822955319243
 20
167.05856286284629
 30
0.0
  0
VERTEX
  5
10816
  8
0
 10
273.14905741402458
 20
166.76816460971841
 30
0.0
  0
VERTEX
  5
10817
  8
0
 10
273.1963909525569
 20
166.40829923858061
 30
0.0
  0
VERTEX
  5
10818
  8
0
 10
273.23951118776148
 20
165.98442173858291
 30
0.0
  0
VERTEX
  5
10819
  8
0
 10
273.2777661938365
 20
165.5029577698291
 30
0.0
  0
VERTEX
  5
1081A
  8
0
 10
273.310574825495
 20
164.9712061073364
 30
0.0
  0
VERTEX
  5
1081B
  8
0
 10
273.3374378938372
 20
164.39722734798801
 30
0.0
  0
VERTEX
  5
1081C
  8
0
 10
273.35794934222048
 20
163.789721907276
 30
0.0
  0
VERTEX
  5
1081D
  8
0
 10
273.37179997155022
 20
163.15790009980211
 30
0.0
  0
VERTEX
  5
1081E
  8
0
 10
273.37877744027918
 20
162.51133871560111
 30
0.0
  0
VERTEX
  5
1081F
  8
0
 10
273.37877744027918
 20
161.85983945910939
 30
0.0
  0
VERTEX
  5
10820
  8
0
 10
273.37179997155022
 20
161.21327807490829
 30
0.0
  0
VERTEX
  5
10821
  8
0
 10
273.35794934222048
 20
160.58145580177319
 30
0.0
  0
VERTEX
  5
10822
  8
0
 10
273.3374378938372
 20
159.97395036106121
 30
0.0
  0
VERTEX
  5
10823
  8
0
 10
273.310574825495
 20
159.39997160171279
 30
0.0
  0
VERTEX
  5
10824
  8
0
 10
273.2777661938365
 20
158.86821993922001
 30
0.0
  0
VERTEX
  5
10825
  8
0
 10
273.23951118776148
 20
158.3867559704662
 30
0.0
  0
VERTEX
  5
10826
  8
0
 10
273.1963909525569
 20
157.96287847046861
 30
0.0
  0
VERTEX
  5
10827
  8
0
 10
273.14905741402458
 20
157.60301356499201
 30
0.0
  0
VERTEX
  5
10828
  8
0
 10
273.09822955319243
 20
157.31261507903349
 30
0.0
  0
VERTEX
  5
10829
  8
0
 10
273.04467477986168
 20
157.09608630572569
 30
0.0
  0
VERTEX
  5
1082A
  8
0
 10
272.98920893260788
 20
156.95670829449901
 30
0.0
  0
VERTEX
  5
1082B
  8
0
 10
272.93266647645783
 20
156.89659607892051
 30
0.0
  0
VERTEX
  5
1082C
  8
0
 10
272.87591167876081
 20
156.91665862982279
 30
0.0
  0
VERTEX
  5
1082D
  8
0
 10
272.81980508157562
 20
157.01659326736939
 30
0.0
  0
VERTEX
  5
1082E
  8
0
 10
272.76518860050987
 20
157.1948847297312
 30
0.0
  0
VERTEX
  5
1082F
  8
0
 10
272.71289670059042
 20
157.44883031879669
 30
0.0
  0
VERTEX
  5
10830
  8
0
 10
272.66372286865072
 20
157.77457994704261
 30
0.0
  0
VERTEX
  5
10831
  8
0
 10
272.61841216275047
 20
158.16719574217811
 30
0.0
  0
VERTEX
  5
10832
  8
0
 10
272.57764631101441
 20
158.6207265529514
 30
0.0
  0
VERTEX
  5
10833
  8
0
 10
272.5420474369223
 20
159.12829735611689
 30
0.0
  0
VERTEX
  5
10834
  8
0
 10
272.5121557075675
 20
159.68221263324031
 30
0.0
  0
VERTEX
  5
10835
  8
0
 10
272.4884256083663
 20
160.27407744263419
 30
0.0
  0
VERTEX
  5
10836
  8
0
 10
272.47121104189711
 20
160.89491849129209
 30
0.0
  0
VERTEX
  5
10837
  8
0
 10
272.46077650377111
 20
161.5353247645975
 30
0.0
  0
VERTEX
  5
10838
  8
0
 10
272.4572821814711
 20
162.1855890873552
 30
0.0
  0
SEQEND
  5
10839
  8
0
  0
LINE
  5
F2B4
  8
0
 10
259.84041684457611
 20
165.43558868874919
 30
0.0
 11
259.98936512657951
 21
165.4315048392595
 31
0.0
  0
LINE
  5
F2B5
  8
0
 10
259.98936512657951
 20
158.93967286978969
 30
0.0
 11
259.84041684457611
 21
158.9355890203
 31
0.0
  0
LINE
  5
F2C5
  8
0
 10
258.83392163702803
 20
158.9355890203
 30
0.0
 11
258.83392163702803
 21
155.6855889532448
 31
0.0
  0
LINE
  5
F2C6
  8
0
 10
259.36194055864172
 20
158.9355890203
 30
0.0
 11
259.84041684457611
 21
158.9355890203
 31
0.0
  0
LINE
  5
F2C8
  8
0
 10
258.83343362399893
 20
165.43558868874919
 30
0.0
 11
259.84041684457611
 21
165.43558868874919
 31
0.0
  0
LINE
  5
F2C9
  8
0
 10
258.83343362399893
 20
158.9355890203
 30
0.0
 11
258.83343362399893
 21
155.18558887128839
 31
0.0
  0
LINE
  5
F2CA
  8
0
 10
258.83343362399893
 20
169.18558889596841
 30
0.0
 11
258.83343362399893
 21
165.43558868874919
 31
0.0
  0
LINE
  5
F2CC
  8
0
 10
261.33343496510338
 20
159.47786555920851
 30
0.0
 11
261.33343496510338
 21
164.89326558371201
 31
0.0
  0
LINE
  5
F2CD
  8
0
 10
259.36194055864172
 20
158.9355890203
 30
0.0
 11
258.83343362399893
 21
158.9355890203
 31
0.0
  0
LINE
  5
F2CE
  8
0
 10
257.03343668171721
 20
169.18558889596841
 30
0.0
 11
257.03343668171721
 21
155.18558887128839
 31
0.0
  0
LINE
  5
F2CF
  8
0
 10
256.83343702146362
 20
155.38558853154191
 30
0.0
 11
256.83343702146362
 21
168.98558882826131
 31
0.0
  0
LINE
  5
F2D0
  8
0
 10
214.38343555816959
 20
158.48558885340699
 30
0.0
 11
214.38343555816959
 21
149.48558830951461
 31
0.0
  0
LINE
  5
F2D1
  8
0
 10
234.38343511113479
 20
149.48558830951461
 30
0.0
 11
234.38343511113479
 21
158.48558885340699
 31
0.0
  0
LINE
  5
F2D3
  8
0
 10
192.8834348280127
 20
148.48558814560181
 30
0.0
 11
192.8834348280127
 21
169.48558885201001
 31
0.0
  0
LINE
  5
F2D5
  8
0
 10
194.88343515583821
 20
169.98558887575879
 30
0.0
 11
194.88343515583821
 21
147.985588994968
 31
0.0
  0
LINE
  5
F2DC
  8
0
 10
253.88343551346611
 20
147.985588994968
 30
0.0
 11
253.88343551346611
 21
169.98558887575879
 31
0.0
  0
LINE
  5
F2DD
  8
0
 10
255.3834348280127
 20
147.985588994968
 30
0.0
 11
235.1334356997306
 21
147.985588994968
 31
0.0
  0
LINE
  5
F2E0
  8
0
 10
255.3834348280127
 20
147.985588994968
 30
0.0
 11
255.88343584129171
 21
148.48558814560181
 31
0.0
  0
LINE
  5
F2E1
  8
0
 10
193.3834358412916
 20
169.98558887575871
 30
0.0
 11
255.3834348280127
 21
169.98558887575871
 31
0.0
  0
LINE
  5
F2E2
  8
0
 10
255.3834348280127
 20
169.98558887575871
 30
0.0
 11
255.88343584129171
 21
169.48558885201001
 31
0.0
  0
LINE
  5
F2E6
  8
0
 10
192.8834348280127
 20
148.48558814560181
 30
0.0
 11
193.3834358412916
 21
147.985588994968
 31
0.0
  0
LINE
  5
F2E8
  8
0
 10
234.63343561777421
 20
148.48558814560181
 30
0.0
 11
234.63343561777421
 21
158.48558885340699
 31
0.0
  0
LINE
  5
F2ED
  8
0
 10
213.6334349695737
 20
147.985588994968
 30
0.0
 11
214.13343505153011
 21
148.48558814560181
 31
0.0
  0
LINE
  5
F2EE
  8
0
 10
234.63343561777421
 20
158.48558885340699
 30
0.0
 11
214.13343505153011
 21
158.48558885340699
 31
0.0
  0
LINE
  5
F2F0
  8
0
 10
214.13343505153011
 20
158.48558885340699
 30
0.0
 11
214.13343505153011
 21
148.48558814560181
 31
0.0
  0
LINE
  5
F2F3
  8
0
 10
192.8834348280127
 20
169.48558885201001
 30
0.0
 11
193.3834358412916
 21
169.98558887575871
 31
0.0
  0
LINE
  5
F2F6
  8
0
 10
234.63343561777421
 20
148.48558814560181
 30
0.0
 11
235.1334356997306
 21
147.985588994968
 31
0.0
  0
LINE
  5
F2F7
  8
0
 10
255.88343584129171
 20
169.48558885201001
 30
0.0
 11
255.88343584129171
 21
148.48558814560181
 31
0.0
  0
LINE
  5
F2F9
  8
0
 10
213.6334349695737
 20
147.985588994968
 30
0.0
 11
193.3834358412916
 21
147.985588994968
 31
0.0
  0
POLYLINE
  5
F2FA
  8
0
 66
     1
 10
0.0
 20
0.0
 30
0.0
 70
   128
  0
VERTEX
  5
1083A
  8
0
 10
273.22888665983032
 20
162.1855890873552
 30
0.0
  0
VERTEX
  5
1083B
  8
0
 10
273.22535135933708
 20
162.80481894795901
 30
0.0
  0
VERTEX
  5
1083C
  8
0
 10
273.2147976119216
 20
163.4134536172927
 30
0.0
  0
VERTEX
  5
1083D
  8
0
 10
273.19741168209862
 20
164.00107951198831
 30
0.0
  0
VERTEX
  5
1083E
  8
0
 10
273.17349159309219
 20
164.55764160786879
 30
0.0
  0
VERTEX
  5
1083F
  8
0
 10
273.1434434015448
 20
165.0736175972701
 30
0.0
  0
VERTEX
  5
10840
  8
0
 10
273.10778492280792
 20
165.5401780765236
 30
0.0
  0
VERTEX
  5
10841
  8
0
 10
273.06711965390991
 20
165.94934114550361
 30
0.0
  0
VERTEX
  5
10842
  8
0
 10
273.02214794942688
 20
166.29410512109411
 30
0.0
  0
VERTEX
  5
10843
  8
0
 10
272.97364094445061
 20
166.56857123893809
 30
0.0
  0
VERTEX
  5
10844
  8
0
 10
272.92242565342741
 20
166.7680433049531
 30
0.0
  0
VERTEX
  5
10845
  8
0
 10
272.86938124486761
 20
166.8891082547338
 30
0.0
  0
VERTEX
  5
10846
  8
0
 10
272.81541296431368
 20
166.92969459404361
 30
0.0
  0
VERTEX
  5
10847
  8
0
 10
272.76144095846962
 20
166.8891082547338
 30
0.0
  0
VERTEX
  5
10848
  8
0
 10
272.68389903123239
 20
166.73025408586761
 30
0.0
  0
SEQEND
  5
10849
  8
0
  0
POLYLINE
  5
F2FB
  8
0
 66
     1
 10
0.0
 20
0.0
 30
0.0
 70
   128
  0
VERTEX
  5
1084A
  8
0
 10
272.68492323910158
 20
157.63413913694799
 30
0.0
  0
VERTEX
  5
1084B
  8
0
 10
272.76144095846962
 20
157.48206922148469
 30
0.0
  0
VERTEX
  5
1084C
  8
0
 10
272.81541296431368
 20
157.44148311500561
 30
0.0
  0
VERTEX
  5
1084D
  8
0
 10
272.86938124486761
 20
157.48206922148469
 30
0.0
  0
VERTEX
  5
1084E
  8
0
 10
272.92242565342741
 20
157.60313463692671
 30
0.0
  0
VERTEX
  5
1084F
  8
0
 10
272.97364094445061
 20
157.80260623728049
 30
0.0
  0
VERTEX
  5
10850
  8
0
 10
273.02214794942688
 20
158.07707258795509
 30
0.0
  0
VERTEX
  5
10851
  8
0
 10
273.06711965390991
 20
158.42183702920681
 30
0.0
  0
VERTEX
  5
10852
  8
0
 10
273.10778492280792
 20
158.8309996325255
 30
0.0
  0
VERTEX
  5
10853
  8
0
 10
273.1434434015448
 20
159.29756057744041
 30
0.0
  0
VERTEX
  5
10854
  8
0
 10
273.17349159309219
 20
159.81353563551909
 30
0.0
  0
VERTEX
  5
10855
  8
0
 10
273.19741168209862
 20
160.3700977313996
 30
0.0
  0
VERTEX
  5
10856
  8
0
 10
273.2147976119216
 20
160.9577240917564
 30
0.0
  0
VERTEX
  5
10857
  8
0
 10
273.22535135933708
 20
161.56635922675139
 30
0.0
  0
VERTEX
  5
10858
  8
0
 10
273.22888665983032
 20
162.1855890873552
 30
0.0
  0
SEQEND
  5
10859
  8
0
  0
LINE
  5
F2FC
  8
0
 10
256.33343600818472
 20
155.98558844362509
 30
0.0
 11
256.33343600818472
 21
168.38558891617811
 31
0.0
  0
LINE
  5
F2FE
  8
0
 10
259.37968784162348
 20
277.59442739189433
 30
0.0
 11
258.83343362399893
 21
277.59442739189433
 31
0.0
  0
LINE
  5
F30D
  8
0
 10
257.03343668171721
 20
267.59442714975052
 30
0.0
 11
260.15864976832222
 21
267.59442714975052
 31
0.0
  0
LINE
  5
F30E
  8
0
 10
261.33343496510338
 20
281.59442758188408
 30
0.0
 11
257.03343668171721
 21
281.59442758188408
 31
0.0
  0
LINE
  5
F30F
  8
0
 10
257.03343668171721
 20
281.59442758188408
 30
0.0
 11
256.83343702146362
 21
281.39442745596932
 31
0.0
  0
LINE
  5
F310
  8
0
 10
256.83343702146362
 20
267.79442727566533
 30
0.0
 11
257.03343668171721
 21
267.59442714975052
 31
0.0
  0
ARC
  5
F311
  8
0
 10
256.33343533465199
 20
281.29442736581728
 30
0.0
 40
0.5
 50
270.0
 51
0.0
  0
ARC
  5
F312
  8
0
 10
256.33343533465199
 20
267.89442736581731
 30
0.0
 40
0.5
 50
0.0
 51
90.0
  0
LINE
  5
F313
  8
0
 10
256.33343600818472
 20
280.79442754388617
 30
0.0
 11
255.88343584129171
 21
280.79442754388617
 31
0.0
  0
LINE
  5
F314
  8
0
 10
255.88343584129171
 20
268.39442718774842
 30
0.0
 11
256.33343600818472
 21
268.39442718774842
 31
0.0
  0
LINE
  5
F315
  8
0
 10
261.65438362547712
 20
281.27347799018793
 30
0.0
 11
261.33343496510338
 21
281.59442758188408
 31
0.0
  0
LINE
  5
F316
  8
0
 10
269.83343356439423
 20
274.01707710233347
 30
0.0
 11
269.83343356439423
 21
275.17177762930112
 31
0.0
  0
LINE
  5
F317
  8
0
 10
269.83343356439423
 20
275.17177762930112
 30
0.0
 11
268.8334352631266
 21
275.749127892785
 31
0.0
  0
LINE
  5
F318
  8
0
 10
268.8334352631266
 20
275.749127892785
 30
0.0
 11
267.83343696185898
 21
275.17177762930112
 31
0.0
  0
LINE
  5
F319
  8
0
 10
267.83343696185898
 20
275.17177762930112
 30
0.0
 11
267.83343696185898
 21
274.01707710233347
 31
0.0
  0
LINE
  5
F31A
  8
0
 10
267.83343696185898
 20
274.01707710233347
 30
0.0
 11
268.8334352631266
 21
273.43972683884971
 31
0.0
  0
LINE
  5
F31B
  8
0
 10
268.8334352631266
 20
273.43972683884971
 30
0.0
 11
269.83343356439423
 21
274.01707710233347
 31
0.0
  0
CIRCLE
  5
F31C
  8
0
 10
268.83343533465222
 20
274.59442736581718
 30
0.0
 40
6.0000000000001128
  0
CIRCLE
  5
F31E
  8
0
 10
268.83343533465222
 20
274.59442736581718
 30
0.0
 40
2.3500000000000218
  0
ARC
  5
F323
  8
0
 10
270.94481739136108
 20
212.67478536259759
 30
0.0
 40
1.5000000000000571
 50
264.99999999885591
 51
354.99999999884932
  0
CIRCLE
  5
F330
  8
0
 10
268.83343533465199
 20
274.59442736581718
 30
0.0
 40
6.4999999999999796
  0
POLYLINE
  5
F33E
  8
0
 66
     1
 10
0.0
 20
0.0
 30
0.0
 70
   128
  0
VERTEX
  5
1085A
  8
0
 10
277.52676897832703
 20
276.92379876972012
 30
0.0
  0
VERTEX
  5
1085B
  8
0
 10
277.6793233413394
 20
275.180085841574
 30
0.0
  0
VERTEX
  5
1085C
  8
0
 10
277.79918828198271
 20
273.8100257003756
 30
0.0
  0
SEQEND
  5
1085D
  8
0
  0
POLYLINE
  5
F342
  8
0
 66
     1
 10
0.0
 20
0.0
 30
0.0
 70
   128
  0
VERTEX
  5
1085E
  8
0
 10
269.6178361136611
 20
283.56017945335083
 30
0.0
  0
VERTEX
  5
1085F
  8
0
 10
271.30856656619858
 20
283.10714969412248
 30
0.0
  0
VERTEX
  5
10860
  8
0
 10
272.6370013613398
 20
282.75119727478187
 30
0.0
  0
SEQEND
  5
10861
  8
0
  0
LINE
  5
F34F
  8
0
 10
258.83392163702803
 20
274.5944273658173
 30
0.0
 11
258.87197175213652
 21
275.4659424419591
 31
0.0
  0
LINE
  5
F351
  8
0
 10
261.33343496510338
 20
280.93664003536873
 30
0.0
 11
261.33343496510338
 21
281.59442758188408
 31
0.0
  0
LINE
  5
F352
  8
0
 10
261.23343327233152
 20
280.79422591254882
 30
0.0
 11
258.83343362399893
 21
280.79422591254882
 31
0.0
  0
LINE
  5
F353
  8
0
 10
258.83343362399893
 20
280.79422591254882
 30
0.0
 11
258.83343362399893
 21
268.39462881908582
 31
0.0
  0
LINE
  5
F354
  8
0
 10
259.38275003024893
 20
268.39462881908582
 30
0.0
 11
258.83343362399893
 21
268.39462881908582
 31
0.0
  0
LINE
  5
F355
  8
0
 10
257.03343668171721
 20
281.59442758188408
 30
0.0
 11
257.03343668171721
 21
267.59442714975052
 31
0.0
  0
LINE
  5
F356
  8
0
 10
256.83343702146362
 20
267.79442727566533
 30
0.0
 11
256.83343702146362
 21
281.39442745596932
 31
0.0
  0
LINE
  5
F357
  8
0
 10
259.44417261668991
 20
277.7944272849785
 30
0.0
 11
258.83343362399893
 21
277.7944272849785
 31
0.0
  0
LINE
  5
F358
  8
0
 10
194.88343515583821
 20
287.5944276340382
 30
0.0
 11
253.88343551346611
 21
287.5944276340382
 31
0.0
  0
LINE
  5
F35D
  8
0
 10
253.88343551346611
 20
287.5944276340382
 30
0.0
 11
255.88343584129171
 21
285.59442730621271
 31
0.0
  0
LINE
  5
F369
  8
0
 10
192.8834348280127
 20
285.59442730621271
 30
0.0
 11
194.88343515583821
 21
287.5944276340382
 31
0.0
  0
LINE
  5
F36B
  8
0
 10
255.88343584129171
 20
285.59442730621271
 30
0.0
 11
255.88343584129171
 21
263.594427425422
 31
0.0
  0
LINE
  5
F36D
  8
0
 10
192.8834348280127
 20
263.594427425422
 30
0.0
 11
192.8834348280127
 21
285.59442730621271
 31
0.0
  0
LINE
  5
F373
  8
0
 10
255.88343584129171
 20
263.594427425422
 30
0.0
 11
253.88343551346611
 21
261.59442709759639
 31
0.0
  0
LINE
  5
F375
  8
0
 10
253.88343551346611
 20
261.59442709759639
 30
0.0
 11
194.88343515583821
 21
261.59442709759639
 31
0.0
  0
LINE
  5
F377
  8
0
 10
194.88343515583821
 20
261.59442709759639
 30
0.0
 11
192.8834348280127
 21
263.594427425422
 31
0.0
  0
LINE
  5
F378
  8
0
 10
256.33343600818472
 20
268.39442718774842
 30
0.0
 11
256.33343600818472
 21
280.79442754388617
 31
0.0
  0
LINE
  5
F3FF
  8
0
 10
41.034807524413729
 20
169.48558885201001
 30
0.0
 11
41.534807606370123
 21
169.98558887575871
 31
0.0
  0
LINE
  5
F400
  8
0
 10
41.534807606370123
 20
169.98558887575871
 30
0.0
 11
66.534807978899039
 21
169.98558887575871
 31
0.0
  0
LINE
  5
F403
  8
0
 10
41.034807524413729
 20
148.48558814560181
 30
0.0
 11
41.034807524413729
 21
169.48558885201001
 31
0.0
  0
LINE
  5
F404
  8
0
 10
43.034807852239389
 20
169.98558887575879
 30
0.0
 11
43.034807852239048
 21
147.985588994968
 31
0.0
  0
LINE
  5
F406
  8
0
 10
66.534807978899153
 20
147.985588994968
 30
0.0
 11
41.534807606370123
 21
147.985588994968
 31
0.0
  0
LINE
  5
F407
  8
0
 10
41.034807524413729
 20
148.48558814560181
 30
0.0
 11
41.534807606370123
 21
147.985588994968
 31
0.0
  0
LINE
  5
F40E
  8
0
 10
65.034807733029993
 20
147.985588994968
 30
0.0
 11
65.034807733030107
 21
169.98558887575871
 31
0.0
  0
CIRCLE
  5
F410
  8
0
 10
54.034807792634638
 20
158.98558887575871
 30
0.0
 40
9.9999999999999858
  0
LINE
  5
F412
  8
0
 10
66.534807978899153
 20
169.98558887575871
 30
0.0
 11
67.034808060855539
 21
169.48558885201001
 31
0.0
  0
LINE
  5
F416
  8
0
 10
66.534807978899153
 20
147.985588994968
 30
0.0
 11
67.034808060855539
 21
148.48558814560181
 31
0.0
  0
LINE
  5
F417
  8
0
 10
67.034808060855539
 20
169.48558885201001
 30
0.0
 11
67.034808060855539
 21
148.48558814560181
 31
0.0
  0
LINE
  5
F418
  8
0
 10
396.57793080939223
 20
165.43558868874919
 30
0.0
 11
396.57793080939223
 21
158.9355890203
 31
0.0
  0
LINE
  5
F419
  8
0
 10
408.5779309137003
 20
158.9355890203
 30
0.0
 11
408.5779309137003
 21
165.43558868874919
 31
0.0
  0
LINE
  5
F427
  8
0
 10
411.7901975153224
 20
165.43558868874919
 30
0.0
 11
411.7901975153224
 21
168.68558887221971
 31
0.0
  0
CIRCLE
  5
F42B
  8
0
 10
402.57793086154618
 20
162.18558887575881
 30
0.0
 40
3.0
  0
CIRCLE
  5
F42C
  8
0
 10
402.57793086154618
 20
162.18558887575881
 30
0.0
 40
2.0
  0
LINE
  5
F42D
  8
0
 10
401.82793085502698
 20
153.1186013046385
 30
0.0
 11
401.82793085502698
 21
152.25257561837441
 31
0.0
  0
LINE
  5
F42E
  8
0
 10
401.82793085502698
 20
152.25257561837441
 30
0.0
 11
402.57793086154618
 21
151.81956277524239
 31
0.0
  0
LINE
  5
F42F
  8
0
 10
402.57793086154618
 20
151.81956277524239
 30
0.0
 11
403.32793086806549
 21
152.25257561837441
 31
0.0
  0
LINE
  5
F430
  8
0
 10
403.32793086806549
 20
152.25257561837441
 30
0.0
 11
403.32793086806549
 21
153.1186013046385
 31
0.0
  0
LINE
  5
F431
  8
0
 10
403.32793086806549
 20
153.1186013046385
 30
0.0
 11
402.57793086154618
 21
153.55161414777049
 31
0.0
  0
LINE
  5
F432
  8
0
 10
402.57793086154618
 20
153.55161414777049
 30
0.0
 11
401.82793085502698
 21
153.1186013046385
 31
0.0
  0
LINE
  5
F43C
  8
0
 10
392.95851046724653
 20
169.18558889596841
 30
0.0
 11
411.05739472938939
 21
169.18558889596841
 31
0.0
  0
LINE
  5
F43E
  8
0
 10
411.7901975153224
 20
168.68558887221971
 30
0.0
 11
401.7935291961046
 21
168.68558887221971
 31
0.0
  0
LINE
  5
F44F
  8
0
 10
394.32206916196492
 20
165.43558868874919
 30
0.0
 11
411.7901975153224
 21
165.43558868874919
 31
0.0
  0
ARC
  5
F458
  8
0
 10
394.32492770757563
 20
163.93843799136681
 30
0.0
 40
1.497153426324622
 50
90.109396068343045
 51
180.10903392868201
  0
LINE
  5
F459
  8
0
 10
392.8277769921558
 20
160.43558926616919
 30
0.0
 11
392.8277769921558
 21
163.93558890854129
 31
0.0
  0
ARC
  5
F45A
  8
0
 10
394.32492716887458
 20
160.43273918191591
 30
0.0
 40
1.497152889530639
 50
179.89092770768929
 51
269.89062450846529
  0
LINE
  5
F45F
  8
0
 10
394.16513758285208
 20
163.93558890854129
 30
0.0
 11
392.8277769921558
 21
163.93558890854129
 31
0.0
  0
LINE
  5
F460
  8
0
 10
392.8277769921558
 20
160.43558926616919
 30
0.0
 11
394.16513758285208
 21
160.43558926616919
 31
0.0
  0
LINE
  5
F465
  8
0
 10
339.1639929088463
 20
162.18535698289321
 30
0.0
 11
340.52755477411921
 21
162.1855890873552
 31
0.0
  0
LINE
  5
F469
  8
0
 10
394.16513758285208
 20
163.93558890854129
 30
0.0
 11
394.16513758285208
 21
160.43558926616919
 31
0.0
  0
CIRCLE
  5
F46F
  8
0
 10
346.00363468943959
 20
162.18401022479421
 30
0.0
 40
4.7380591238054111
  0
ARC
  5
F47C
  8
0
 10
402.57793086154618
 20
162.18558887575881
 30
0.0
 40
6.5000000000000098
 50
337.3801350519596
 51
22.61986494804102
  0
LINE
  5
F47D
  8
0
 10
408.5779309137003
 20
165.11352942620519
 30
0.0
 11
408.77772940827771
 21
165.43558868874919
 31
0.0
  0
ARC
  5
F47E
  8
0
 10
402.57793086154618
 20
162.18558887575881
 30
0.0
 40
7.0000000000000213
 50
332.33599550381098
 51
27.664004496189492
  0
LINE
  5
F47F
  8
0
 10
408.77772940827771
 20
158.9355890203
 30
0.0
 11
408.5779309137003
 21
159.2576478171826
 31
0.0
  0
ARC
  5
F480
  8
0
 10
402.57793086154618
 20
162.18558887575881
 30
0.0
 40
6.5
 50
157.38013505195929
 51
202.61986494804151
  0
LINE
  5
F481
  8
0
 10
396.57793080939223
 20
159.2576478171826
 30
0.0
 11
396.37813231481482
 21
158.9355890203
 31
0.0
  0
LINE
  5
F482
  8
0
 10
396.37813231481482
 20
165.43558868874919
 30
0.0
 11
396.57793080939223
 21
165.11352942620519
 31
0.0
  0
ARC
  5
F483
  8
0
 10
402.57793086154618
 20
162.18558887575881
 30
0.0
 40
7.0000000000000213
 50
152.33599550381049
 51
207.6640044961903
  0
CIRCLE
  5
F487
  8
0
 10
402.57793086154652
 20
152.6855888757587
 30
0.0
 40
1.7499999999999429
  0
CIRCLE
  5
F488
  8
0
 10
402.57793086154652
 20
152.6855888757587
 30
0.0
 40
1.2499999999999429
  0
LINE
  5
F48A
  8
0
 10
413.57793080194187
 20
147.985588994968
 30
0.0
 11
413.57793080194159
 21
169.98558887575871
 31
0.0
  0
LINE
  5
F48C
  8
0
 10
415.57793112976708
 20
169.48558885201001
 30
0.0
 11
415.57793112976708
 21
148.48558814560181
 31
0.0
  0
LINE
  5
F48F
  8
0
 10
415.57793112976708
 20
148.48558814560181
 30
0.0
 11
415.07793104781081
 21
147.985588994968
 31
0.0
  0
LINE
  5
F491
  8
0
 10
391.57793092115071
 20
169.98558887575871
 30
0.0
 11
391.57793092115088
 21
169.15307898602569
 31
0.0
  0
LINE
  5
F492
  8
0
 10
391.57793092115088
 20
155.2105185139657
 30
0.0
 11
391.57793092115088
 21
147.985588994968
 31
0.0
  0
ARC
  5
F498
  8
0
 10
402.57793086154618
 20
158.98558887575871
 30
0.0
 40
10.000000000000041
 50
202.3959136338793
 51
40.165675469330147
  0
LINE
  5
F499
  8
0
 10
390.07793067528161
 20
169.98558887575871
 30
0.0
 11
415.07793104781081
 21
169.98558887575871
 31
0.0
  0
LINE
  5
F49A
  8
0
 10
415.57793112976708
 20
169.48558885201001
 30
0.0
 11
415.07793104781081
 21
169.98558887575871
 31
0.0
  0
LINE
  5
F49E
  8
0
 10
415.07793104781081
 20
147.985588994968
 30
0.0
 11
390.07793067528178
 21
147.985588994968
 31
0.0
  0
LINE
  5
F49F
  8
0
 10
390.07793067528178
 20
147.985588994968
 30
0.0
 11
389.57793059332539
 21
148.48558814560181
 31
0.0
  0
LINE
  5
F4A1
  8
0
 10
389.57793059332539
 20
148.48558814560181
 30
0.0
 11
389.57793059332562
 21
155.2775209044876
 31
0.0
  0
LINE
  5
F4A2
  8
0
 10
389.57793059332539
 20
169.10598305116531
 30
0.0
 11
389.57793059332539
 21
169.48558885201001
 31
0.0
  0
LINE
  5
F4A5
  8
0
 10
390.07793067528178
 20
169.98558887575871
 30
0.0
 11
389.57793059332539
 21
169.48558885201001
 31
0.0
  0
LINE
  5
F4C4
  8
0
 10
214.13343505153011
 20
30.833287182420431
 30
0.0
 11
214.38343555816959
 21
31.083287689059912
 31
0.0
  0
LINE
  5
F4C5
  8
0
 10
214.38343555816959
 20
50.083287078112299
 30
0.0
 11
214.13343505153011
 21
50.33328758475178
 31
0.0
  0
LINE
  5
F4C6
  8
0
 10
234.63343561777421
 20
50.33328758475178
 30
0.0
 11
234.38343511113479
 21
50.083287078112299
 31
0.0
  0
LINE
  5
F4C7
  8
0
 10
234.38343511113479
 20
31.083287689059912
 30
0.0
 11
234.63343561777421
 21
30.833287182420431
 31
0.0
  0
LINE
  5
F4CA
  8
0
 10
249.76078526267361
 20
41.583287431083583
 30
0.0
 11
248.60608496853661
 21
41.583287431083583
 31
0.0
  0
LINE
  5
F4CB
  8
0
 10
248.60608496853661
 20
41.583287431083583
 30
0.0
 11
248.0287338901455
 21
40.583287383586047
 31
0.0
  0
LINE
  5
F4CC
  8
0
 10
248.0287338901455
 20
40.583287383586047
 30
0.0
 11
248.60608496853661
 21
39.583287336088688
 31
0.0
  0
LINE
  5
F4CD
  8
0
 10
248.60608496853661
 20
39.583287336088688
 30
0.0
 11
249.76078526267361
 21
39.583287336088688
 31
0.0
  0
LINE
  5
F4CE
  8
0
 10
249.76078526267361
 20
39.583287336088688
 30
0.0
 11
250.33813634106471
 21
40.583287383586047
 31
0.0
  0
LINE
  5
F4CF
  8
0
 10
250.33813634106471
 20
40.583287383586047
 30
0.0
 11
249.76078526267361
 21
41.583287431083583
 31
0.0
  0
LINE
  5
F523
  8
0
 10
214.38343555816959
 20
50.083287078112299
 30
0.0
 11
214.38343555816959
 21
31.083287689059912
 31
0.0
  0
LINE
  5
F525
  8
0
 10
234.38343511113479
 20
31.083287689059912
 30
0.0
 11
234.38343511113479
 21
50.083287078112299
 31
0.0
  0
LINE
  5
F52A
  8
0
 10
194.88343515583821
 20
27.583287115365248
 30
0.0
 11
192.8834348280127
 21
29.583287443190802
 31
0.0
  0
LINE
  5
F52E
  8
0
 10
213.6334349695737
 20
27.583287115365248
 30
0.0
 11
214.13343505153011
 21
28.083287197321638
 31
0.0
  0
LINE
  5
F531
  8
0
 10
214.13343505153011
 20
53.083287569850668
 30
0.0
 11
214.13343505153011
 21
28.083287197321638
 31
0.0
  0
LINE
  5
F537
  8
0
 10
235.1334356997306
 20
27.583287115365248
 30
0.0
 11
234.63343561777421
 21
28.083287197321638
 31
0.0
  0
LINE
  5
F538
  8
0
 10
234.63343561777421
 20
28.083287197321638
 30
0.0
 11
234.63343561777421
 21
53.083287569850668
 31
0.0
  0
CIRCLE
  5
F540
  8
0
 10
249.18343511560511
 20
40.583287383586153
 30
0.0
 40
2.6000000000000218
  0
LINE
  5
F541
  8
0
 10
253.88343551346611
 20
27.583287115365248
 30
0.0
 11
194.88343515583841
 21
27.583287115365259
 31
0.0
  0
LINE
  5
F543
  8
0
 10
192.8834348280127
 20
29.583287443190802
 30
0.0
 11
192.8834348280127
 21
51.583287323981509
 31
0.0
  0
LINE
  5
F546
  8
0
 10
255.88343584129171
 20
29.583287443190802
 30
0.0
 11
253.88343551346611
 21
27.583287115365248
 31
0.0
  0
LINE
  5
F548
  8
0
 10
255.88343584129171
 20
51.583287323981509
 30
0.0
 11
255.88343584129171
 21
29.583287443190802
 31
0.0
  0
LINE
  5
F549
  8
0
 10
192.8834348280127
 20
51.583287323981509
 30
0.0
 11
194.88343515583821
 21
53.583287651807048
 31
0.0
  0
LINE
  5
F54C
  8
0
 10
214.13343505153011
 20
53.083287569850668
 30
0.0
 11
213.6334349695737
 21
53.583287651807048
 31
0.0
  0
LINE
  5
F54F
  8
0
 10
253.88343551346611
 20
53.583287651807048
 30
0.0
 11
255.88343584129171
 21
51.583287323981509
 31
0.0
  0
LINE
  5
F551
  8
0
 10
194.88343515583821
 20
53.583287651807069
 30
0.0
 11
253.88343551346611
 21
53.583287651807048
 31
0.0
  0
LINE
  5
F552
  8
0
 10
234.63343561777421
 20
53.083287569850668
 30
0.0
 11
235.1334356997306
 21
53.583287651807048
 31
0.0
  0
LINE
  5
F86C
  8
0
 10
265.95190739577862
 20
160.39523449016909
 30
0.0
 11
265.95190739577862
 21
163.97594368454131
 31
0.0
  0
POLYLINE
  5
F86D
  8
0
 66
     1
 10
0.0
 20
0.0
 30
0.0
 70
     2
  0
VERTEX
  5
F86E
  8
0
 10
265.95190739577862
 20
160.39523449016909
 30
0.0
 42
0.0429717389147507
  0
VERTEX
  5
F87A
  8
0
 10
265.95576348120397
 20
160.38593085045019
 30
0.0
 42
0.0875125483530444
 70
     1
  0
VERTEX
  5
F86F
  8
0
 10
265.9587870542901
 20
160.3819813919344
 30
0.0
 42
0.0260507250450823
  0
VERTEX
  5
F87B
  8
0
 10
265.96905982035429
 20
160.37349017336331
 30
0.0
 42
0.0316191269758694
 70
     1
  0
VERTEX
  5
F870
  8
0
 10
265.97827509931432
 20
160.3675126249027
 30
0.0
 42
0.0154207303371696
  0
VERTEX
  5
F87C
  8
0
 10
265.99745812418217
 20
160.35749221359401
 30
0.0
 42
0.0161170999279084
 70
     1
  0
VERTEX
  5
F871
  8
0
 10
266.01638051701372
 20
160.34908046987351
 30
0.0
 42
0.014652965347843
  0
VERTEX
  5
F87D
  8
0
 10
266.07312995856591
 20
160.3279289558418
 30
0.0
 42
0.0143539091534211
 70
     1
  0
VERTEX
  5
F872
  8
0
 10
266.13221564009149
 20
160.30973195883681
 30
0.0
 42
0.0003643729450854
  0
VERTEX
  5
F87E
  8
0
 10
266.2136337750253
 20
160.28725808280609
 30
0.0
 42
0.0002040733066628
 70
     1
  0
VERTEX
  5
F873
  8
0
 10
266.35905139040602
 20
160.24729627291319
 30
0.0
 42
0.0004025458944876
  0
VERTEX
  5
F87F
  8
0
 10
266.49021477986298
 20
160.21142272016789
 30
0.0
 42
-0.0008902932665521
 70
     1
  0
VERTEX
  5
F874
  8
0
 10
266.62137816931983
 20
160.1755491674225
 30
0.0
 42
-0.0121105702471243
  0
VERTEX
  5
F880
  8
0
 10
266.7219485153455
 20
160.14521163890271
 30
0.0
 42
-0.0084741456547484
 70
     1
  0
VERTEX
  5
F875
  8
0
 10
266.86375884051557
 20
160.09598082964541
 30
0.0
 42
-0.0032815887585249
  0
VERTEX
  5
F881
  8
0
 10
266.9990486731312
 20
160.04541951923241
 30
0.0
 42
-0.0048822264005005
 70
     1
  0
VERTEX
  5
F876
  8
0
 10
267.08941793904569
 20
160.0099541189287
 30
0.0
 42
-0.0002528098147116
  0
VERTEX
  5
F883
  8
0
 10
267.09922330210787
 20
160.00598932107999
 30
0.0
 42
-0.0000275457671472
 70
     1
  0
VERTEX
  5
F877
  8
0
 10
267.18919463200632
 20
159.96955071010771
 30
0.0
 42
-0.0013377023116115
  0
VERTEX
  5
F882
  8
0
 10
267.22275238997639
 20
159.9558529578953
 30
0.0
 42
-0.0006817351578252
 70
     1
  0
VERTEX
  5
F878
  8
0
 10
267.28849032112907
 20
159.9287095043542
 30
0.0
  0
SEQEND
  5
F879
  8
0
  0
POLYLINE
  5
F884
  8
0
 66
     1
 10
0.0
 20
0.0
 30
0.0
 70
     2
  0
VERTEX
  5
F885
  8
0
 10
265.95190739577862
 20
163.97594368454131
 30
0.0
 42
-0.0429717389147507
  0
VERTEX
  5
F886
  8
0
 10
265.95576348120397
 20
163.98524732426031
 30
0.0
 42
-0.0875125483530444
 70
     1
  0
VERTEX
  5
F887
  8
0
 10
265.9587870542901
 20
163.98919678277611
 30
0.0
 42
-0.0260507250450823
  0
VERTEX
  5
F888
  8
0
 10
265.96905982035429
 20
163.9976880013472
 30
0.0
 42
-0.0316191269758694
 70
     1
  0
VERTEX
  5
F889
  8
0
 10
265.97827509931432
 20
164.00366554980781
 30
0.0
 42
-0.0154207303371696
  0
VERTEX
  5
F88A
  8
0
 10
265.99745812418217
 20
164.01368596111649
 30
0.0
 42
-0.0161170999279084
 70
     1
  0
VERTEX
  5
F88B
  8
0
 10
266.01638051701372
 20
164.02209770483699
 30
0.0
 42
-0.014652965347843
  0
VERTEX
  5
F88C
  8
0
 10
266.07312995856591
 20
164.04324921886871
 30
0.0
 42
-0.0143539091534211
 70
     1
  0
VERTEX
  5
F88D
  8
0
 10
266.13221564009149
 20
164.06144621587359
 30
0.0
 42
-0.0003643729450854
  0
VERTEX
  5
F88E
  8
0
 10
266.2136337750253
 20
164.0839200919043
 30
0.0
 42
-0.0002040733066628
 70
     1
  0
VERTEX
  5
F88F
  8
0
 10
266.35905139040602
 20
164.12388190179729
 30
0.0
 42
-0.0004025458944876
  0
VERTEX
  5
F890
  8
0
 10
266.49021477986298
 20
164.15975545454259
 30
0.0
 42
0.0008902932665521
 70
     1
  0
VERTEX
  5
F891
  8
0
 10
266.62137816931983
 20
164.19562900728789
 30
0.0
 42
0.0121105702471243
  0
VERTEX
  5
F892
  8
0
 10
266.7219485153455
 20
164.22596653580769
 30
0.0
 42
0.0084741456547484
 70
     1
  0
VERTEX
  5
F893
  8
0
 10
266.86375884051557
 20
164.2751973450651
 30
0.0
 42
0.0032815887585249
  0
VERTEX
  5
F894
  8
0
 10
266.9990486731312
 20
164.3257586554781
 30
0.0
 42
0.0048822264005005
 70
     1
  0
VERTEX
  5
F895
  8
0
 10
267.08941793904569
 20
164.36122405578169
 30
0.0
 42
0.0002528098147116
  0
VERTEX
  5
F896
  8
0
 10
267.09922330210787
 20
164.3651888536304
 30
0.0
 42
0.0000275457671472
 70
     1
  0
VERTEX
  5
F897
  8
0
 10
267.18919463200632
 20
164.40162746460271
 30
0.0
 42
0.0013377023116115
  0
VERTEX
  5
F898
  8
0
 10
267.22275238997639
 20
164.41532521681521
 30
0.0
 42
0.0006817351578252
 70
     1
  0
VERTEX
  5
F899
  8
0
 10
267.28849032112907
 20
164.44246867035631
 30
0.0
  0
SEQEND
  5
F89A
  8
0
  0
ARC
  5
F89B
  8
0
 10
259.3339187371123
 20
168.6855917958911
 30
0.0
 40
0.4999971000928768
 50
89.999548275483235
 51
180.0
  0
ARC
  5
F89E
  8
0
 10
277.29811290739798
 20
168.6845131223225
 30
0.0
 40
0.5010765293375182
 50
359.87699289114983
 51
90.09950798748747
  0
POLYLINE
  5
F8A0
  8
0
 66
     1
 10
0.0
 20
0.0
 30
0.0
 70
     2
  0
VERTEX
  5
F8A1
  8
0
 10
259.98936512657951
 20
165.4315048392595
 30
0.0
 42
-0.0168167518055725
  0
VERTEX
  5
F8AD
  8
0
 10
260.22920525109788
 20
165.4087262821707
 30
0.0
 42
-0.0248378181315185
 70
     1
  0
VERTEX
  5
F8A2
  8
0
 10
260.38979944300883
 20
165.37983711394261
 30
0.0
 42
-0.0016939732727654
  0
VERTEX
  5
F8AE
  8
0
 10
260.59238308583917
 20
165.33218141498631
 30
0.0
 42
-0.0139918036860348
 70
     1
  0
VERTEX
  5
F8A3
  8
0
 10
260.61672134421087
 20
165.32564410004949
 30
0.0
 42
-0.0156413764183301
  0
VERTEX
  5
F8AF
  8
0
 10
260.71365561508168
 20
165.2933412731017
 30
0.0
 42
-0.0145509498174239
 70
     1
  0
VERTEX
  5
F8A4
  8
0
 10
260.81556542303969
 20
165.25239466436309
 30
0.0
 42
-0.0181272970959487
  0
VERTEX
  5
F8B0
  8
0
 10
260.92330425572072
 20
165.2006957617923
 30
0.0
 42
-0.0159604115384232
 70
     1
  0
VERTEX
  5
F8A5
  8
0
 10
261.04137783892043
 20
165.13378412490141
 30
0.0
 42
-0.0147037087632538
  0
VERTEX
  5
F8B1
  8
0
 10
261.09619836355341
 20
165.09811036137759
 30
0.0
 42
-0.0092082717496354
 70
     1
  0
VERTEX
  5
F8A6
  8
0
 10
261.18090118069131
 20
165.03703533109649
 30
0.0
 42
-0.0361553346505858
  0
VERTEX
  5
F8B2
  8
0
 10
261.31993104172489
 20
164.91622124085819
 30
0.0
 42
-0.0344720862927079
 70
     1
  0
VERTEX
  5
F8A7
  8
0
 10
261.44645144260448
 20
164.77026554632471
 30
0.0
 42
-0.0199421910146661
  0
VERTEX
  5
F8B3
  8
0
 10
261.52257220576581
 20
164.66027800995289
 30
0.0
 42
-0.0257800167137474
 70
     1
  0
VERTEX
  5
F8A8
  8
0
 10
261.57345529801768
 20
164.57015213226271
 30
0.0
 42
-0.0159533189403685
  0
VERTEX
  5
F8B4
  8
0
 10
261.62859759764802
 20
164.4500800727219
 30
0.0
 42
-0.0214337281518475
 70
     1
  0
VERTEX
  5
F8A9
  8
0
 10
261.66285730907128
 20
164.35787441861049
 30
0.0
 42
-0.0130882390127521
  0
VERTEX
  5
F8B6
  8
0
 10
261.66984694433268
 20
164.33416764030881
 30
0.0
 42
-0.0026619725247205
 70
     1
  0
VERTEX
  5
F8AA
  8
0
 10
261.70052019929108
 20
164.21660227138139
 30
0.0
 42
-0.0375175642551524
  0
VERTEX
  5
F8B5
  8
0
 10
261.72090260045047
 20
164.101249202069
 30
0.0
 42
-0.0264811138635261
 70
     1
  0
VERTEX
  5
F8AB
  8
0
 10
261.72868454047989
 20
163.93558890854129
 30
0.0
  0
SEQEND
  5
F8AC
  8
0
  0
LINE
  5
F8B7
  8
0
 10
267.28114404866051
 20
165.8828093234182
 30
0.0
 11
267.29252108523201
 21
158.4635928768397
 31
0.0
  0
POLYLINE
  5
F8B8
  8
0
 66
     1
 10
0.0
 20
0.0
 30
0.0
 70
     2
  0
VERTEX
  5
F8B9
  8
0
 10
270.81408270785158
 20
162.1855890873552
 30
0.0
 42
-0.0013757409964405
  0
VERTEX
  5
F8C9
  8
0
 10
270.815727560906
 20
162.79081572159521
 30
0.0
 42
-0.0030971503423002
 70
     1
  0
VERTEX
  5
F8BA
  8
0
 10
270.81886313078257
 20
163.05963959266779
 30
0.0
 42
-0.0000656687902283
  0
VERTEX
  5
F8CA
  8
0
 10
270.8386062198378
 20
164.15702285010229
 30
0.0
 42
-0.0019050986697739
 70
     1
  0
VERTEX
  5
F8BB
  8
0
 10
270.83943585743049
 20
164.19484683456821
 30
0.0
 42
-0.0021758928598624
  0
VERTEX
  5
F8CB
  8
0
 10
270.85700630893371
 20
164.7785496245142
 30
0.0
 42
-0.002441963813337
 70
     1
  0
VERTEX
  5
F8BC
  8
0
 10
270.87746513347878
 20
165.29848731989489
 30
0.0
 42
-0.0012721720653087
  0
VERTEX
  5
F8CC
  8
0
 10
270.89327205761401
 20
165.63630936991279
 30
0.0
 42
-0.0013795620383316
 70
     1
  0
VERTEX
  5
F8BD
  8
0
 10
270.9095004677792
 20
165.9477525627247
 30
0.0
 42
-0.0022321147863135
  0
VERTEX
  5
F8CD
  8
0
 10
270.92801588100519
 20
166.25970701565711
 30
0.0
 42
-0.0016530679166935
 70
     1
  0
VERTEX
  5
F8BE
  8
0
 10
270.95628922603299
 20
166.68072687760019
 30
0.0
 42
-0.0036658715019442
  0
VERTEX
  5
F8CE
  8
0
 10
270.98229548082958
 20
167.0147901948458
 30
0.0
 42
-0.0028008497762586
 70
     1
  0
VERTEX
  5
F8BF
  8
0
 10
271.0219852983239
 20
167.45154726813331
 30
0.0
 42
-0.0048038534847539
  0
VERTEX
  5
F8CF
  8
0
 10
271.05541692990658
 20
167.76625352881999
 30
0.0
 42
-0.0049943167156655
 70
     1
  0
VERTEX
  5
F8C0
  8
0
 10
271.09349898572918
 20
168.0682704902411
 30
0.0
 42
-0.0063756636995778
  0
VERTEX
  5
F8D0
  8
0
 10
271.13933225268738
 20
168.3753319944899
 30
0.0
 42
-0.0097529170926477
 70
     1
  0
VERTEX
  5
F8C1
  8
0
 10
271.17575446882529
 20
168.57500397989921
 30
0.0
 42
-0.0019900077126386
  0
VERTEX
  5
F8D1
  8
0
 10
271.19494337363182
 20
168.6678000207412
 30
0.0
 42
-0.0040462947943194
 70
     1
  0
VERTEX
  5
F8C2
  8
0
 10
271.20493105665668
 20
168.7133213392373
 30
0.0
 42
-0.0043797966083286
  0
VERTEX
  5
F8D2
  8
0
 10
271.21824978045152
 20
168.7694859524436
 30
0.0
 42
-0.0029790421888619
 70
     1
  0
VERTEX
  5
F8C3
  8
0
 10
271.23904391082829
 20
168.85176136303721
 30
0.0
 42
-0.0096235753588662
  0
VERTEX
  5
F8D3
  8
0
 10
271.24934077288162
 20
168.88857131810249
 30
0.0
 42
-0.004260865919857
 70
     1
  0
VERTEX
  5
F8C4
  8
0
 10
271.27489467939859
 20
168.97102624280009
 30
0.0
 42
-0.0269767377258119
  0
VERTEX
  5
F8D4
  8
0
 10
271.30180672729063
 20
169.04188114486169
 30
0.0
 42
-0.0258950424860134
 70
     1
  0
VERTEX
  5
F8C5
  8
0
 10
271.33747346578429
 20
169.11232124118709
 30
0.0
 42
-0.0389929602187735
  0
VERTEX
  5
F8D6
  8
0
 10
271.35102007644258
 20
169.13218900933489
 30
0.0
 42
-0.0244011426278397
 70
     1
  0
VERTEX
  5
F8C6
  8
0
 10
271.37648338525418
 20
169.16092020559719
 30
0.0
 42
-0.0965471850589729
  0
VERTEX
  5
F8D5
  8
0
 10
271.39622549211072
 20
169.1745524951412
 30
0.0
 42
-0.0600510363809721
 70
     1
  0
VERTEX
  5
F8C7
  8
0
 10
271.43295722248422
 20
169.18558889596841
 30
0.0
  0
SEQEND
  5
F8C8
  8
0
  0
POLYLINE
  5
F8D7
  8
0
 66
     1
 10
0.0
 20
0.0
 30
0.0
 70
     2
  0
VERTEX
  5
F8D8
  8
0
 10
272.61598996537418
 20
166.1770343846872
 30
0.0
 42
-0.0144090901115077
  0
VERTEX
  5
F932
  8
0
 10
272.63092278179329
 20
166.56306328378739
 30
0.0
 42
-0.0226418489576117
 70
     1
  0
VERTEX
  5
F8D9
  8
0
 10
272.65859351816363
 20
166.80742599941931
 30
0.0
 42
-0.0007824954090131
  0
VERTEX
  5
F933
  8
0
 10
272.71706335122781
 20
167.17066943903231
 30
0.0
 42
-0.0104947599462146
 70
     1
  0
VERTEX
  5
F8DA
  8
0
 10
272.72203311716538
 20
167.1976508323969
 30
0.0
 42
-0.0033419133933676
  0
VERTEX
  5
F934
  8
0
 10
272.74815744437552
 20
167.320324621769
 30
0.0
 42
-0.0062850387688749
 70
     1
  0
VERTEX
  5
F8DB
  8
0
 10
272.76330207945938
 20
167.38527567910529
 30
0.0
 42
-0.0090548981673334
  0
VERTEX
  5
F935
  8
0
 10
272.77398932410318
 20
167.42548949757651
 30
0.0
 42
-0.0042961535195144
 70
     1
  0
VERTEX
  5
F8DC
  8
0
 10
272.79876785882612
 20
167.5096102383275
 30
0.0
 42
-0.0253787673150249
  0
VERTEX
  5
F936
  8
0
 10
272.81451463715621
 20
167.55331822477271
 30
0.0
 42
-0.0148184838952896
 70
     1
  0
VERTEX
  5
F8DD
  8
0
 10
272.8473927786394
 20
167.62573651066199
 30
0.0
 42
-0.0804623356708956
  0
VERTEX
  5
F937
  8
0
 10
272.86190885290171
 20
167.64622567890271
 30
0.0
 42
-0.0366848674155582
 70
     1
  0
VERTEX
  5
F8DE
  8
0
 10
272.90308603345437
 20
167.68237651208821
 30
0.0
  0
VERTEX
  5
F8DF
  8
0
 10
272.90308603345437
 20
167.68237651208821
 30
0.0
  0
VERTEX
  5
F8E0
  8
0
 10
272.90308603345437
 20
167.68237651208821
 30
0.0
 42
-0.0335114362192282
  0
VERTEX
  5
F938
  8
0
 10
272.95925722228662
 20
167.68287703104389
 30
0.0
 42
-0.0649158922353551
 70
     1
  0
VERTEX
  5
F8E1
  8
0
 10
272.98783397783677
 20
167.6774481770143
 30
0.0
 42
-0.0202141569972139
  0
VERTEX
  5
F939
  8
0
 10
273.06458135477533
 20
167.64875197861369
 30
0.0
 42
-0.0343086741492179
 70
     1
  0
VERTEX
  5
F8E2
  8
0
 10
273.10772497730909
 20
167.62700863412121
 30
0.0
 42
-0.017466500420534
  0
VERTEX
  5
F93A
  8
0
 10
273.1723407806694
 20
167.5855606483874
 30
0.0
 42
-0.0340760567859706
 70
     1
  0
VERTEX
  5
F8E3
  8
0
 10
273.20312621501938
 20
167.56100001388779
 30
0.0
 42
-0.013965034363665
  0
VERTEX
  5
F93B
  8
0
 10
273.24271823609888
 20
167.52265093304769
 30
0.0
 42
-0.0213447428065784
 70
     1
  0
VERTEX
  5
F8E4
  8
0
 10
273.26679328834513
 20
167.49578858881509
 30
0.0
 42
-0.0055975185490975
  0
VERTEX
  5
F93C
  8
0
 10
273.32076339046938
 20
167.42861753464419
 30
0.0
 42
-0.005477521871446
 70
     1
  0
VERTEX
  5
F8E5
  8
0
 10
273.37438192277932
 20
167.35877036903199
 30
0.0
 42
-0.0027401664711356
  0
VERTEX
  5
F93D
  8
0
 10
273.43249716517812
 20
167.2804329257292
 30
0.0
 42
0.0042117444144612
 70
     1
  0
VERTEX
  5
F8E6
  8
0
 10
273.47045724353302
 20
167.22957746064691
 30
0.0
 42
0.003185945970069
  0
VERTEX
  5
F93E
  8
0
 10
273.50970108643929
 20
167.17859344058701
 30
0.0
 42
0.002435757140029
 70
     1
  0
VERTEX
  5
F8E7
  8
0
 10
273.56177794282462
 20
167.1124884627497
 30
0.0
 42
0.0064426154284332
  0
VERTEX
  5
F93F
  8
0
 10
273.61538131307861
 20
167.04687670503509
 30
0.0
 42
0.0047847792525285
 70
     1
  0
VERTEX
  5
F8E8
  8
0
 10
273.6895212492218
 20
166.9601761309757
 30
0.0
 42
0.0065529992193886
  0
VERTEX
  5
F940
  8
0
 10
273.74505788869828
 20
166.8981355187552
 30
0.0
 42
0.0054665181898582
 70
     1
  0
VERTEX
  5
F8E9
  8
0
 10
273.81340003548439
 20
166.8253868689026
 30
0.0
 42
0.0077397112263291
  0
VERTEX
  5
F941
  8
0
 10
273.88019457615701
 20
166.75794672237501
 30
0.0
 42
0.0076230451661911
 70
     1
  0
VERTEX
  5
F8EA
  8
0
 10
273.9500827070749
 20
166.69159021834821
 30
0.0
 42
0.0077443760791215
  0
VERTEX
  5
F942
  8
0
 10
274.01254131297719
 20
166.6358355275097
 30
0.0
 42
0.0070997823518462
 70
     1
  0
VERTEX
  5
F8EB
  8
0
 10
274.08244513198719
 20
166.577068502852
 30
0.0
 42
0.0075630174402684
  0
VERTEX
  5
F943
  8
0
 10
274.11239089530682
 20
166.55335672806359
 30
0.0
 42
0.0034127462844126
 70
     1
  0
VERTEX
  5
F8EC
  8
0
 10
274.17988830231371
 20
166.5022804720557
 30
0.0
 42
0.0199340927126558
  0
VERTEX
  5
F944
  8
0
 10
274.2630027997202
 20
166.445284945059
 30
0.0
 42
0.0118627978217288
 70
     1
  0
VERTEX
  5
F8ED
  8
0
 10
274.40843370125867
 20
166.35860111830181
 30
0.0
 42
0.0272056963367485
  0
VERTEX
  5
F945
  8
0
 10
274.5110156228402
 20
166.30785542336659
 30
0.0
 42
0.0181650434109713
 70
     1
  0
VERTEX
  5
F8EE
  8
0
 10
274.6708403987725
 20
166.24611113717461
 30
0.0
 42
0.0326549673662778
  0
VERTEX
  5
F946
  8
0
 10
274.81320963859071
 20
166.20716118258269
 30
0.0
 42
0.0332537605848061
 70
     1
  0
VERTEX
  5
F8EF
  8
0
 10
274.956834377446
 20
166.1876122892869
 30
0.0
 42
0.0358981652255479
  0
VERTEX
  5
F947
  8
0
 10
275.10250478346831
 20
166.18804477830409
 30
0.0
 42
0.0435502898813937
 70
     1
  0
VERTEX
  5
F8F0
  8
0
 10
275.22108431850461
 20
166.20739771529389
 30
0.0
 42
0.0170412113481307
  0
VERTEX
  5
F948
  8
0
 10
275.29207903339187
 20
166.22803601287879
 30
0.0
 42
0.0214180783959199
 70
     1
  0
VERTEX
  5
F8F1
  8
0
 10
275.3471463368171
 20
166.24875177677731
 30
0.0
 42
0.0326122977332001
  0
VERTEX
  5
F949
  8
0
 10
275.45078067336999
 20
166.30111377758541
 30
0.0
 42
0.0332270478255513
 70
     1
  0
VERTEX
  5
F8F2
  8
0
 10
275.54487605301279
 20
166.3654154926476
 30
0.0
 42
0.0198602217810781
  0
VERTEX
  5
F94A
  8
0
 10
275.63976498410187
 20
166.44625538642049
 30
0.0
 42
0.0266457090809939
 70
     1
  0
VERTEX
  5
F8F3
  8
0
 10
275.7046095990359
 20
166.51283709283899
 30
0.0
 42
0.0073730564081007
  0
VERTEX
  5
F94B
  8
0
 10
275.78915540676638
 20
166.61237070609241
 30
0.0
 42
0.0156350996950669
 70
     1
  0
VERTEX
  5
F8F4
  8
0
 10
275.82683072149302
 20
166.6611013127953
 30
0.0
 42
0.0008991860073734
  0
VERTEX
  5
F94C
  8
0
 10
275.87736691378632
 20
166.73113461226779
 30
0.0
 42
0.0007543590229385
 70
     1
  0
VERTEX
  5
F8F5
  8
0
 10
275.93732897350679
 20
166.81481211883471
 30
0.0
 42
0.0021475337376588
  0
VERTEX
  5
F94D
  8
0
 10
276.01007006339682
 20
166.9175773636529
 30
0.0
 42
-0.0016129439956272
 70
     1
  0
VERTEX
  5
F8F6
  8
0
 10
276.10677372312011
 20
167.054506039633
 30
0.0
 42
-0.0166453935065424
  0
VERTEX
  5
F94E
  8
0
 10
276.16580049194448
 20
167.13192496225381
 30
0.0
 42
-0.0069655530485651
 70
     1
  0
VERTEX
  5
F8F7
  8
0
 10
276.31539622910958
 20
167.3100260278735
 30
0.0
 42
-0.0356283084368995
  0
VERTEX
  5
F94F
  8
0
 10
276.45622360543302
 20
167.4513079156381
 30
0.0
 42
-0.041512434011524
 70
     1
  0
VERTEX
  5
F8F8
  8
0
 10
276.5943421184586
 20
167.5526068750215
 30
0.0
 42
-0.038667497180678
  0
VERTEX
  5
F950
  8
0
 10
276.72013792959751
 20
167.6169080520724
 30
0.0
 42
-0.0425879143670161
 70
     1
  0
VERTEX
  5
F8F9
  8
0
 10
276.84233008456482
 20
167.65606451299689
 30
0.0
 42
-0.029820107880921
  0
VERTEX
  5
F951
  8
0
 10
276.92492920132872
 20
167.66984931623881
 30
0.0
 42
0.0429819767205665
 70
     1
  0
VERTEX
  5
F8FA
  8
0
 10
276.98201837204692
 20
167.68092656079119
 30
0.0
 42
0.0178541340944556
  0
VERTEX
  5
F952
  8
0
 10
277.03430016115522
 20
167.69786244924691
 30
0.0
 42
0.0288669921016711
 70
     1
  0
VERTEX
  5
F8FB
  8
0
 10
277.06553415777381
 20
167.71131500095311
 30
0.0
 42
0.03290715674065
  0
VERTEX
  5
F953
  8
0
 10
277.10252744938998
 20
167.73299989374621
 30
0.0
 42
0.029565645950562
 70
     1
  0
VERTEX
  5
F8FC
  8
0
 10
277.14036623554011
 20
167.7620710189083
 30
0.0
 42
0.018883430291872
  0
VERTEX
  5
F954
  8
0
 10
277.1663392443989
 20
167.7863636259062
 30
0.0
 42
0.0216403545167003
 70
     1
  0
VERTEX
  5
F8FD
  8
0
 10
277.1872154040575
 20
167.80932902676531
 30
0.0
 42
0.0319156652654022
  0
VERTEX
  5
F955
  8
0
 10
277.2402533792847
 20
167.88196571864231
 30
0.0
 42
0.0203451907867061
 70
     1
  0
VERTEX
  5
F8FE
  8
0
 10
277.31107280497122
 20
168.00389449973721
 30
0.0
 42
0.0002579344595051
  0
VERTEX
  5
F956
  8
0
 10
277.35913874835887
 20
168.0951039738348
 30
0.0
 42
-0.0006893601720743
 70
     1
  0
VERTEX
  5
F8FF
  8
0
 10
277.4072046917463
 20
168.18631344793241
 30
0.0
 42
-0.0000325291581689
  0
VERTEX
  5
F957
  8
0
 10
277.44555754308931
 20
168.25883738450099
 30
0.0
 42
-0.0000889499173626
 70
     1
  0
VERTEX
  5
F900
  8
0
 10
277.45958969772551
 20
168.28535612100151
 30
0.0
 42
-0.0034624939542651
  0
VERTEX
  5
F958
  8
0
 10
277.47536423909878
 20
168.31466227529199
 30
0.0
 42
-0.0010748836994966
 70
     1
  0
VERTEX
  5
F901
  8
0
 10
277.52703236377903
 20
168.40859937931
 30
0.0
 42
-0.0106403908523346
  0
VERTEX
  5
F959
  8
0
 10
277.55058204742448
 20
168.44913581144101
 30
0.0
 42
-0.0058163078074111
 70
     1
  0
VERTEX
  5
F902
  8
0
 10
277.59607731546089
 20
168.5218298116707
 30
0.0
 42
-0.0315612967675031
  0
VERTEX
  5
F95A
  8
0
 10
277.63364417323152
 20
168.5729294059156
 30
0.0
 42
-0.0356046671780684
 70
     1
  0
VERTEX
  5
F903
  8
0
 10
277.6727198525216
 20
168.61337096702641
 30
0.0
 42
-0.0357750338290589
  0
VERTEX
  5
F95C
  8
0
 10
277.69338504595453
 20
168.62940518051619
 30
0.0
 42
-0.0152874063410532
 70
     1
  0
VERTEX
  5
F904
  8
0
 10
277.74526303391491
 20
168.6617700488564
 30
0.0
 42
-0.036303615163235
  0
VERTEX
  5
F95B
  8
0
 10
277.76420965514558
 20
168.6710308639434
 30
0.0
 42
-0.020610091096348
 70
     1
  0
VERTEX
  5
F905
  8
0
 10
277.79918828198271
 20
168.68343737243541
 30
0.0
  0
SEQEND
  5
F906
  8
0
  0
POLYLINE
  5
F95D
  8
0
 66
     1
 10
0.0
 20
0.0
 30
0.0
 70
     2
  0
VERTEX
  5
F991
  8
0
 10
263.92483257839041
 20
169.18558889596841
 30
0.0
 42
-0.0044813573879193
  0
VERTEX
  5
F99E
  8
0
 10
264.82918664720461
 20
169.18263990896409
 30
0.0
 42
-0.0070423216002113
 70
     1
  0
VERTEX
  5
F992
  8
0
 10
265.40449018130221
 20
169.16750137110441
 30
0.0
 42
-0.0001124364838927
  0
VERTEX
  5
F99F
  8
0
 10
266.26516599395291
 20
169.13252388094929
 30
0.0
 42
-0.0045271925213481
 70
     1
  0
VERTEX
  5
F993
  8
0
 10
266.28653302984208
 20
169.1314568569201
 30
0.0
 42
-0.0021653599162762
  0
VERTEX
  5
F9A0
  8
0
 10
266.61547633585178
 20
169.11061301812151
 30
0.0
 42
-0.0037697294713231
 70
     1
  0
VERTEX
  5
F994
  8
0
 10
266.80427012411161
 20
169.0963980953141
 30
0.0
 42
-0.0020518444775785
  0
VERTEX
  5
F9A1
  8
0
 10
267.00536677738819
 20
169.07890001228179
 30
0.0
 42
-0.0027545358028251
 70
     1
  0
VERTEX
  5
F995
  8
0
 10
267.15503129121089
 20
169.06442637217509
 30
0.0
 42
-0.0026122456585096
  0
VERTEX
  5
F9A2
  8
0
 10
267.24166649548528
 20
169.0551085115103
 30
0.0
 42
-0.0013552796323169
 70
     1
  0
VERTEX
  5
F996
  8
0
 10
267.4085036833817
 20
169.03582435602539
 30
0.0
 42
-0.0062684636031934
  0
VERTEX
  5
F9A3
  8
0
 10
267.52525624492591
 20
169.0205220434805
 30
0.0
 42
-0.0025561572847053
 70
     1
  0
VERTEX
  5
F997
  8
0
 10
267.81085230183089
 20
168.97795054491411
 30
0.0
 42
-0.0130283692092224
  0
VERTEX
  5
F9A4
  8
0
 10
268.02331505096481
 20
168.9394775464304
 30
0.0
 42
-0.0083946297483406
 70
     1
  0
VERTEX
  5
F998
  8
0
 10
268.3501623429068
 20
168.86570691884259
 30
0.0
 42
-0.0203257327148221
  0
VERTEX
  5
F9A5
  8
0
 10
268.67473391014482
 20
168.77257915820769
 30
0.0
 42
-0.023414233067384
 70
     1
  0
VERTEX
  5
F999
  8
0
 10
268.94839006788578
 20
168.66741763849839
 30
0.0
 42
-0.0096119267884445
  0
VERTEX
  5
F9A6
  8
0
 10
269.15118125624213
 20
168.5736937604679
 30
0.0
 42
-0.0193023502318512
 70
     1
  0
VERTEX
  5
F99A
  8
0
 10
269.24932603983689
 20
168.52124978892061
 30
0.0
 42
-0.0029187657305227
  0
VERTEX
  5
F9A8
  8
0
 10
269.2984430499036
 20
168.49212792799699
 30
0.0
 42
-0.0010038049907564
 70
     1
  0
VERTEX
  5
F99B
  8
0
 10
269.44059091304212
 20
168.4063330758535
 30
0.0
 42
-0.0064705425846919
  0
VERTEX
  5
F9A7
  8
0
 10
269.47263871857831
 20
168.3863306982002
 30
0.0
 42
-0.0027197725046154
 70
     1
  0
VERTEX
  5
F99C
  8
0
 10
269.54799274962039
 20
168.3373519480354
 30
0.0
  0
SEQEND
  5
F99D
  8
0
  0
POLYLINE
  5
F95E
  8
0
 66
     1
 10
0.0
 20
0.0
 30
0.0
 70
     2
  0
VERTEX
  5
F95F
  8
0
 10
271.4329572224849
 20
169.18558889596849
 30
0.0
 42
0.00166071582663
  0
VERTEX
  5
F979
  8
0
 10
271.36405671778169
 20
169.17742425313361
 30
0.0
 42
0.0034400936989745
 70
     1
  0
VERTEX
  5
F960
  8
0
 10
271.33083642518818
 20
169.17314359425239
 30
0.0
 42
0.0001190082610239
  0
VERTEX
  5
F97A
  8
0
 10
271.22391901580522
 20
169.15859214749
 30
0.0
 42
0.001324488704048
 70
     1
  0
VERTEX
  5
F961
  8
0
 10
271.21431604638911
 20
169.1572569360813
 30
0.0
 42
0.0062429231243701
  0
VERTEX
  5
F97B
  8
0
 10
271.18434033862059
 20
169.15262561485179
 30
0.0
 42
0.0023202771654441
 70
     1
  0
VERTEX
  5
F962
  8
0
 10
271.10391581690402
 20
169.1387856985246
 30
0.0
 42
0.0153174071170172
  0
VERTEX
  5
F97C
  8
0
 10
271.00609635093042
 20
169.11837661138171
 30
0.0
 42
0.0149321305102467
 70
     1
  0
VERTEX
  5
F963
  8
0
 10
270.90720338558339
 20
169.09141302494351
 30
0.0
 42
0.0127391821362667
  0
VERTEX
  5
F97D
  8
0
 10
270.83432665307549
 20
169.0671391972748
 30
0.0
 42
0.0143485884989966
 70
     1
  0
VERTEX
  5
F964
  8
0
 10
270.77088317672838
 20
169.0421151982915
 30
0.0
 42
0.0066654292488498
  0
VERTEX
  5
F97E
  8
0
 10
270.7053539277112
 20
169.0130305639145
 30
0.0
 42
0.0094662528432147
 70
     1
  0
VERTEX
  5
F965
  8
0
 10
270.65989567405472
 20
168.99107263445731
 30
0.0
 42
0.0057720013842315
  0
VERTEX
  5
F97F
  8
0
 10
270.59041816797799
 20
168.95486129694649
 30
0.0
 42
0.0079686781765283
 70
     1
  0
VERTEX
  5
F966
  8
0
 10
270.54083131668881
 20
168.92725838410951
 30
0.0
 42
0.0036105846137898
  0
VERTEX
  5
F980
  8
0
 10
270.46377571177982
 20
168.88199640325541
 30
0.0
 42
0.0048007445505345
 70
     1
  0
VERTEX
  5
F967
  8
0
 10
270.40640333544752
 20
168.84698499036
 30
0.0
 42
0.0023078735360384
  0
VERTEX
  5
F981
  8
0
 10
270.35355803976108
 20
168.8136960273352
 30
0.0
 42
-0.0011796241725775
 70
     1
  0
VERTEX
  5
F968
  8
0
 10
270.30071274407459
 20
168.7804070643104
 30
0.0
 42
-0.0028979151799754
  0
VERTEX
  5
F982
  8
0
 10
270.05001571936918
 20
168.62532607514549
 30
0.0
 42
-0.0058293216411989
 70
     1
  0
VERTEX
  5
F969
  8
0
 10
269.92405756209399
 20
168.55041609523889
 30
0.0
 42
-0.0049044146322692
  0
VERTEX
  5
F983
  8
0
 10
269.7727149783027
 20
168.4647527055923
 30
0.0
 42
0.003443970330993
 70
     1
  0
VERTEX
  5
F96A
  8
0
 10
269.62137239451113
 20
168.37908931594581
 30
0.0
 42
0.0001397609293006
  0
VERTEX
  5
F984
  8
0
 10
269.34276595843949
 20
168.21874420511631
 30
0.0
 42
0.0005818461232982
 70
     1
  0
VERTEX
  5
F96B
  8
0
 10
269.27589961295831
 20
168.1801323438066
 30
0.0
 42
0.0000044524533781
  0
VERTEX
  5
F985
  8
0
 10
269.13329835679718
 20
168.09756436092169
 30
0.0
 42
0.0000069574612479
 70
     1
  0
VERTEX
  5
F96C
  8
0
 10
269.04204135233499
 20
168.04472258645049
 30
0.0
 42
0.0000140628953307
  0
VERTEX
  5
F986
  8
0
 10
268.9770876632665
 20
168.00710792919011
 30
0.0
 42
0.0000077946791427
 70
     1
  0
VERTEX
  5
F96D
  8
0
 10
268.85990340914668
 20
167.9392397312173
 30
0.0
 42
0.001513406128481
  0
VERTEX
  5
F987
  8
0
 10
268.76048670965059
 20
167.8812571209655
 30
0.0
 42
0.0009053866579278
 70
     1
  0
VERTEX
  5
F96E
  8
0
 10
268.59477700138109
 20
167.78353320436639
 30
0.0
 42
0.001888700591853
  0
VERTEX
  5
F988
  8
0
 10
268.5550990088359
 20
167.75983408738281
 30
0.0
 42
0.0005467998850857
 70
     1
  0
VERTEX
  5
F96F
  8
0
 10
268.41844812575391
 20
167.6773086712158
 30
0.0
 42
0.0041932118244388
  0
VERTEX
  5
F989
  8
0
 10
268.34840267824069
 20
167.63409577287351
 30
0.0
 42
0.0023430087969159
 70
     1
  0
VERTEX
  5
F970
  8
0
 10
268.22406762616993
 20
167.55512783735301
 30
0.0
 42
0.0168876478024218
  0
VERTEX
  5
F98A
  8
0
 10
268.14763685810431
 20
167.50235448219971
 30
0.0
 42
0.0114166554265695
 70
     1
  0
VERTEX
  5
F971
  8
0
 10
268.03919379924542
 20
167.41803348811749
 30
0.0
 42
0.0227432321260398
  0
VERTEX
  5
F98B
  8
0
 10
267.9379624478097
 20
167.32758215683131
 30
0.0
 42
0.019244646745252
 70
     1
  0
VERTEX
  5
F972
  8
0
 10
267.82773005491441
 20
167.2110477763332
 30
0.0
 42
0.0105599532514386
  0
VERTEX
  5
F98C
  8
0
 10
267.76059189444459
 20
167.13101602258939
 30
0.0
 42
0.0105096787032101
 70
     1
  0
VERTEX
  5
F973
  8
0
 10
267.69658000177992
 20
167.04783115457499
 30
0.0
 42
0.0159665347690499
  0
VERTEX
  5
F98D
  8
0
 10
267.63982464155202
 20
166.96539044969359
 30
0.0
 42
0.0101031916534384
 70
     1
  0
VERTEX
  5
F974
  8
0
 10
267.55705553808889
 20
166.83062914170401
 30
0.0
 42
0.0266543341465393
  0
VERTEX
  5
F98E
  8
0
 10
267.46333177890938
 20
166.64940376685809
 30
0.0
 42
0.0274217395661457
 70
     1
  0
VERTEX
  5
F975
  8
0
 10
267.39176962842788
 20
166.46443991640521
 30
0.0
 42
0.0175425842270807
  0
VERTEX
  5
F990
  8
0
 10
267.37236029035188
 20
166.39675069747861
 30
0.0
 42
0.0050462752764179
 70
     1
  0
VERTEX
  5
F976
  8
0
 10
267.31559795888393
 20
166.1586999864964
 30
0.0
 42
0.0249410989945146
  0
VERTEX
  5
F98F
  8
0
 10
267.2982220475642
 20
166.05991266187451
 30
0.0
 42
0.0140543963927417
 70
     1
  0
VERTEX
  5
F977
  8
0
 10
267.28114404866051
 20
165.8828093234182
 30
0.0
  0
SEQEND
  5
F978
  8
0
  0
POLYLINE
  5
F9A9
  8
0
 66
     1
 10
0.0
 20
0.0
 30
0.0
 70
     2
  0
VERTEX
  5
F9AA
  8
0
 10
271.43456333467321
 20
169.1857810976648
 30
0.0
 42
-0.0541312575269963
  0
VERTEX
  5
F9C8
  8
0
 10
271.53225665866557
 20
169.17287016414841
 30
0.0
 42
-0.0806477891281632
 70
     1
  0
VERTEX
  5
F9AB
  8
0
 10
271.59338205211321
 20
169.14699068958799
 30
0.0
 42
-0.0351915644354449
  0
VERTEX
  5
F9C9
  8
0
 10
271.65497667218318
 20
169.10191093349641
 30
0.0
 42
0.0654922552164518
 70
     1
  0
VERTEX
  5
F9AC
  8
0
 10
271.68958180734472
 20
169.0796637587913
 30
0.0
 42
0.0224970630327341
  0
VERTEX
  5
F9CA
  8
0
 10
271.79371165121302
 20
169.03618061745459
 30
0.0
 42
-0.0196340838204729
 70
     1
  0
VERTEX
  5
F9AD
  8
0
 10
271.91329416272828
 20
168.9870465223064
 30
0.0
 42
-0.0033303321396015
  0
VERTEX
  5
F9CB
  8
0
 10
272.03641905904618
 20
168.92971605490311
 30
0.0
 42
-0.0071066047614013
 70
     1
  0
VERTEX
  5
F9AE
  8
0
 10
272.09354737670168
 20
168.90165000821409
 30
0.0
 42
-0.016841246604574
  0
VERTEX
  5
F9CC
  8
0
 10
272.208518823747
 20
168.8381613432548
 30
0.0
 42
-0.0141190216909887
 70
     1
  0
VERTEX
  5
F9AF
  8
0
 10
272.34069764022229
 20
168.7540983318496
 30
0.0
 42
-0.0063746079073089
  0
VERTEX
  5
F9CD
  8
0
 10
272.46245372198428
 20
168.66946366872611
 30
0.0
 42
-0.0068157094032828
 70
     1
  0
VERTEX
  5
F9B0
  8
0
 10
272.57420303286062
 20
168.58732975067801
 30
0.0
 42
-0.0040218234761862
  0
VERTEX
  5
F9CE
  8
0
 10
272.7253178693008
 20
168.4711355792551
 30
0.0
 42
-0.0064916377060304
 70
     1
  0
VERTEX
  5
F9B1
  8
0
 10
272.81740758328851
 20
168.39719433126379
 30
0.0
 42
-0.0047405176274754
  0
VERTEX
  5
F9CF
  8
0
 10
272.94542433276911
 20
168.28958885984861
 30
0.0
 42
-0.0068075849110872
 70
     1
  0
VERTEX
  5
F9B2
  8
0
 10
273.03281768920618
 20
168.2126163386578
 30
0.0
 42
-0.0018044449688964
  0
VERTEX
  5
F9D0
  8
0
 10
273.14309396887802
 20
168.11206436730751
 30
0.0
 42
-0.0036077081835793
 70
     1
  0
VERTEX
  5
F9B3
  8
0
 10
273.1977031032543
 20
168.06117734863051
 30
0.0
 42
-0.0001640670668755
  0
VERTEX
  5
F9D1
  8
0
 10
273.25652991125929
 20
168.00552515340129
 30
0.0
 42
-0.0006620909793476
 70
     1
  0
VERTEX
  5
F9B4
  8
0
 10
273.27108447574869
 20
167.99171038850011
 30
0.0
 42
-0.000410975130888
  0
VERTEX
  5
F9D2
  8
0
 10
273.33513908188797
 20
167.93064978545061
 30
0.0
 42
0.0000471501023784
 70
     1
  0
VERTEX
  5
F9B5
  8
0
 10
273.3991936880272
 20
167.86958918240111
 30
0.0
 42
0.0010551725845617
  0
VERTEX
  5
F9D3
  8
0
 10
273.44027373807722
 20
167.830601775106
 30
0.0
 42
-0.0006717556925777
 70
     1
  0
VERTEX
  5
F9B6
  8
0
 10
273.50484787837172
 20
167.769411131157
 30
0.0
 42
-0.0658690515930485
  0
VERTEX
  5
F9D4
  8
0
 10
273.53055723384091
 20
167.73757982692771
 30
0.0
 42
0.0854373213073328
 70
     1
  0
VERTEX
  5
F9B7
  8
0
 10
273.55137910997058
 20
167.7137587049798
 30
0.0
 42
0.1091256055243581
  0
VERTEX
  5
F9D5
  8
0
 10
273.56240186090213
 20
167.7082338069161
 30
0.0
 42
0.0332941871983603
 70
     1
  0
VERTEX
  5
F9B8
  8
0
 10
273.60173233935188
 20
167.70104947795281
 30
0.0
 42
0.0575045072175028
  0
VERTEX
  5
F9D6
  8
0
 10
273.69617470388999
 20
167.70112243635469
 30
0.0
 42
0.0506365337381066
 70
     1
  0
VERTEX
  5
F9B9
  8
0
 10
273.80083740177128
 20
167.72418020155069
 30
0.0
 42
0.0153939985796392
  0
VERTEX
  5
F9D7
  8
0
 10
273.87186216032518
 20
167.75001083341471
 30
0.0
 42
0.0290350242850147
 70
     1
  0
VERTEX
  5
F9BA
  8
0
 10
273.9081770061523
 20
167.7670031569117
 30
0.0
 42
0.0183807562568993
  0
VERTEX
  5
F9D8
  8
0
 10
273.96412729792701
 20
167.7999708633306
 30
0.0
 42
0.0209629814418388
 70
     1
  0
VERTEX
  5
F9BB
  8
0
 10
274.01076664026908
 20
167.8326472865586
 30
0.0
 42
0.0184427344361687
  0
VERTEX
  5
F9D9
  8
0
 10
274.08091401342517
 20
167.89053567620971
 30
0.0
 42
0.0212160889816373
 70
     1
  0
VERTEX
  5
F9BC
  8
0
 10
274.13771969534719
 20
167.94553570960079
 30
0.0
 42
0.0085879289056357
  0
VERTEX
  5
F9DA
  8
0
 10
274.20855573764311
 20
168.02281168381339
 30
0.0
 42
0.0127221547692571
 70
     1
  0
VERTEX
  5
F9BD
  8
0
 10
274.25411082272763
 20
168.0769705170602
 30
0.0
 42
0.0026747999313573
  0
VERTEX
  5
F9DB
  8
0
 10
274.32213128902549
 20
168.16308637192739
 30
0.0
 42
0.0065589116006393
 70
     1
  0
VERTEX
  5
F9BE
  8
0
 10
274.34921854828173
 20
168.1987129448863
 30
0.0
 42
0.0005487554263372
  0
VERTEX
  5
F9DC
  8
0
 10
274.3882005306204
 20
168.25152572923429
 30
0.0
 42
0.00036148978076
 70
     1
  0
VERTEX
  5
F9BF
  8
0
 10
274.44723062280701
 20
168.3318051552186
 30
0.0
 42
0.0016837758984005
  0
VERTEX
  5
F9DD
  8
0
 10
274.52790357115782
 20
168.4424639123452
 30
0.0
 42
-0.0009330933538376
 70
     1
  0
VERTEX
  5
F9C0
  8
0
 10
274.6085765195084
 20
168.55312266947169
 30
0.0
 42
-0.009524633409078
  0
VERTEX
  5
F9DE
  8
0
 10
274.67747891120598
 20
168.64359848069759
 30
0.0
 42
-0.0066318686228709
 70
     1
  0
VERTEX
  5
F9C1
  8
0
 10
274.78057740796879
 20
168.7702683581048
 30
0.0
 42
-0.0176915799759771
  0
VERTEX
  5
F9DF
  8
0
 10
274.84293511840588
 20
168.83969474164039
 30
0.0
 42
-0.0144063271739092
 70
     1
  0
VERTEX
  5
F9C2
  8
0
 10
274.92481568426109
 20
168.9198570707272
 30
0.0
 42
-0.0212094144036204
  0
VERTEX
  5
F9E0
  8
0
 10
275.00085815263992
 20
168.9843724672464
 30
0.0
 42
-0.0223800743458933
 70
     1
  0
VERTEX
  5
F9C3
  8
0
 10
275.07797591576701
 20
169.03901026088889
 30
0.0
 42
-0.0160318981206736
  0
VERTEX
  5
F9E1
  8
0
 10
275.12888229550663
 20
169.06949689361451
 30
0.0
 42
-0.0178346951485867
 70
     1
  0
VERTEX
  5
F9C4
  8
0
 10
275.17639548618348
 20
169.0937436346384
 30
0.0
 42
-0.0262420799350354
  0
VERTEX
  5
F9E3
  8
0
 10
275.20446610473618
 20
169.10507693882619
 30
0.0
 42
-0.0053191751074964
 70
     1
  0
VERTEX
  5
F9C5
  8
0
 10
275.34610922942193
 20
169.1521131710538
 30
0.0
 42
-0.0300900178650982
  0
VERTEX
  5
F9E2
  8
0
 10
275.40971535216158
 20
169.16834215532009
 30
0.0
 42
-0.0176074664756881
 70
     1
  0
VERTEX
  5
F9C6
  8
0
 10
275.52049526163893
 20
169.18558889596841
 30
0.0
  0
SEQEND
  5
F9C7
  8
0
  0
POLYLINE
  5
F9E5
  8
0
 66
     1
 10
0.0
 20
0.0
 30
0.0
 70
     2
  0
VERTEX
  5
F9E6
  8
0
 10
272.61598996537418
 20
158.1941437900233
 30
0.0
 42
0.0144090901115077
  0
VERTEX
  5
F9E7
  8
0
 10
272.63092278179329
 20
157.80811489092309
 30
0.0
 42
0.0226418489576117
 70
     1
  0
VERTEX
  5
F9E8
  8
0
 10
272.65859351816363
 20
157.5637521752912
 30
0.0
 42
0.0007824954090131
  0
VERTEX
  5
F9E9
  8
0
 10
272.71706335122781
 20
157.2005087356782
 30
0.0
 42
0.0104947599462146
 70
     1
  0
VERTEX
  5
F9EA
  8
0
 10
272.72203311716538
 20
157.17352734231361
 30
0.0
 42
0.0033419133933676
  0
VERTEX
  5
F9EB
  8
0
 10
272.74815744437552
 20
157.0508535529415
 30
0.0
 42
0.0062850387688749
 70
     1
  0
VERTEX
  5
F9EC
  8
0
 10
272.76330207945938
 20
156.98590249560519
 30
0.0
 42
0.0090548981673334
  0
VERTEX
  5
F9ED
  8
0
 10
272.77398932410318
 20
156.94568867713389
 30
0.0
 42
0.0042961535195144
 70
     1
  0
VERTEX
  5
F9EE
  8
0
 10
272.79876785882612
 20
156.8615679363829
 30
0.0
 42
0.0253787673150249
  0
VERTEX
  5
F9EF
  8
0
 10
272.81451463715621
 20
156.81785994993771
 30
0.0
 42
0.0148184838952896
 70
     1
  0
VERTEX
  5
F9F0
  8
0
 10
272.8473927786394
 20
156.74544166404851
 30
0.0
 42
0.0804623356708956
  0
VERTEX
  5
F9F1
  8
0
 10
272.86190885290171
 20
156.7249524958078
 30
0.0
 42
0.0366848674155582
 70
     1
  0
VERTEX
  5
F9F2
  8
0
 10
272.90308603345437
 20
156.6888016626223
 30
0.0
  0
VERTEX
  5
F9F3
  8
0
 10
272.90308603345437
 20
156.6888016626223
 30
0.0
  0
VERTEX
  5
F9F4
  8
0
 10
272.90308603345437
 20
156.6888016626223
 30
0.0
 42
0.0335114362192282
  0
VERTEX
  5
F9F5
  8
0
 10
272.95925722228662
 20
156.68830114366651
 30
0.0
 42
0.0649158922353551
 70
     1
  0
VERTEX
  5
F9F6
  8
0
 10
272.98783397783677
 20
156.6937299976961
 30
0.0
 42
0.0202141569972139
  0
VERTEX
  5
F9F7
  8
0
 10
273.06458135477533
 20
156.72242619609671
 30
0.0
 42
0.0343086741492179
 70
     1
  0
VERTEX
  5
F9F8
  8
0
 10
273.10772497730909
 20
156.74416954058921
 30
0.0
 42
0.017466500420534
  0
VERTEX
  5
F9F9
  8
0
 10
273.1723407806694
 20
156.78561752632311
 30
0.0
 42
0.0340760567859706
 70
     1
  0
VERTEX
  5
F9FA
  8
0
 10
273.20312621501938
 20
156.8101781608226
 30
0.0
 42
0.013965034363665
  0
VERTEX
  5
F9FB
  8
0
 10
273.24271823609888
 20
156.84852724166271
 30
0.0
 42
0.0213447428065784
 70
     1
  0
VERTEX
  5
F9FC
  8
0
 10
273.26679328834513
 20
156.87538958589539
 30
0.0
 42
0.0055975185490975
  0
VERTEX
  5
F9FD
  8
0
 10
273.32076339046938
 20
156.94256064006629
 30
0.0
 42
0.005477521871446
 70
     1
  0
VERTEX
  5
F9FE
  8
0
 10
273.37438192277932
 20
157.01240780567849
 30
0.0
 42
0.0027401664711356
  0
VERTEX
  5
F9FF
  8
0
 10
273.43249716517812
 20
157.09074524898131
 30
0.0
 42
-0.0042117444144612
 70
     1
  0
VERTEX
  5
FA00
  8
0
 10
273.47045724353302
 20
157.14160071406349
 30
0.0
 42
-0.003185945970069
  0
VERTEX
  5
FA01
  8
0
 10
273.50970108643929
 20
157.19258473412339
 30
0.0
 42
-0.002435757140029
 70
     1
  0
VERTEX
  5
FA02
  8
0
 10
273.56177794282462
 20
157.25868971196081
 30
0.0
 42
-0.0064426154284332
  0
VERTEX
  5
FA03
  8
0
 10
273.61538131307861
 20
157.32430146967531
 30
0.0
 42
-0.0047847792525285
 70
     1
  0
VERTEX
  5
FA04
  8
0
 10
273.6895212492218
 20
157.41100204373481
 30
0.0
 42
-0.0065529992193886
  0
VERTEX
  5
FA05
  8
0
 10
273.74505788869828
 20
157.4730426559552
 30
0.0
 42
-0.0054665181898582
 70
     1
  0
VERTEX
  5
FA06
  8
0
 10
273.81340003548439
 20
157.54579130580791
 30
0.0
 42
-0.0077397112263291
  0
VERTEX
  5
FA07
  8
0
 10
273.88019457615701
 20
157.6132314523355
 30
0.0
 42
-0.0076230451661911
 70
     1
  0
VERTEX
  5
FA08
  8
0
 10
273.9500827070749
 20
157.6795879563623
 30
0.0
 42
-0.0077443760791215
  0
VERTEX
  5
FA09
  8
0
 10
274.01254131297719
 20
157.73534264720081
 30
0.0
 42
-0.0070997823518462
 70
     1
  0
VERTEX
  5
FA0A
  8
0
 10
274.08244513198719
 20
157.79410967185851
 30
0.0
 42
-0.0075630174402684
  0
VERTEX
  5
FA0B
  8
0
 10
274.11239089530682
 20
157.81782144664689
 30
0.0
 42
-0.0034127462844126
 70
     1
  0
VERTEX
  5
FA0C
  8
0
 10
274.17988830231371
 20
157.86889770265481
 30
0.0
 42
-0.0199340927126558
  0
VERTEX
  5
FA0D
  8
0
 10
274.2630027997202
 20
157.92589322965151
 30
0.0
 42
-0.0118627978217288
 70
     1
  0
VERTEX
  5
FA0E
  8
0
 10
274.40843370125867
 20
158.01257705640859
 30
0.0
 42
-0.0272056963367485
  0
VERTEX
  5
FA0F
  8
0
 10
274.5110156228402
 20
158.06332275134389
 30
0.0
 42
-0.0181650434109713
 70
     1
  0
VERTEX
  5
FA10
  8
0
 10
274.6708403987725
 20
158.12506703753581
 30
0.0
 42
-0.0326549673662778
  0
VERTEX
  5
FA11
  8
0
 10
274.81320963859071
 20
158.1640169921277
 30
0.0
 42
-0.0332537605848061
 70
     1
  0
VERTEX
  5
FA12
  8
0
 10
274.956834377446
 20
158.18356588542349
 30
0.0
 42
-0.0358981652255479
  0
VERTEX
  5
FA13
  8
0
 10
275.10250478346831
 20
158.1831333964063
 30
0.0
 42
-0.0435502898813937
 70
     1
  0
VERTEX
  5
FA14
  8
0
 10
275.22108431850461
 20
158.16378045941661
 30
0.0
 42
-0.0170412113481307
  0
VERTEX
  5
FA15
  8
0
 10
275.29207903339187
 20
158.14314216183161
 30
0.0
 42
-0.0214180783959199
 70
     1
  0
VERTEX
  5
FA16
  8
0
 10
275.3471463368171
 20
158.1224263979332
 30
0.0
 42
-0.0326122977332001
  0
VERTEX
  5
FA17
  8
0
 10
275.45078067336999
 20
158.07006439712501
 30
0.0
 42
-0.0332270478255513
 70
     1
  0
VERTEX
  5
FA18
  8
0
 10
275.54487605301279
 20
158.00576268206291
 30
0.0
 42
-0.0198602217810781
  0
VERTEX
  5
FA19
  8
0
 10
275.63976498410187
 20
157.92492278828999
 30
0.0
 42
-0.0266457090809939
 70
     1
  0
VERTEX
  5
FA1A
  8
0
 10
275.7046095990359
 20
157.85834108187149
 30
0.0
 42
-0.0073730564081007
  0
VERTEX
  5
FA1B
  8
0
 10
275.78915540676638
 20
157.7588074686181
 30
0.0
 42
-0.0156350996950669
 70
     1
  0
VERTEX
  5
FA1C
  8
0
 10
275.82683072149302
 20
157.7100768619151
 30
0.0
 42
-0.0008991860073734
  0
VERTEX
  5
FA1D
  8
0
 10
275.87736691378632
 20
157.6400435624426
 30
0.0
 42
-0.0007543590229385
 70
     1
  0
VERTEX
  5
FA1E
  8
0
 10
275.93732897350679
 20
157.55636605587571
 30
0.0
 42
-0.0021475337376588
  0
VERTEX
  5
FA1F
  8
0
 10
276.01007006339682
 20
157.45360081105761
 30
0.0
 42
0.0016129439956272
 70
     1
  0
VERTEX
  5
FA20
  8
0
 10
276.10677372312011
 20
157.31667213507751
 30
0.0
 42
0.0166453935065424
  0
VERTEX
  5
FA21
  8
0
 10
276.16580049194448
 20
157.2392532124567
 30
0.0
 42
0.0069655530485651
 70
     1
  0
VERTEX
  5
FA22
  8
0
 10
276.31539622910958
 20
157.061152146837
 30
0.0
 42
0.0356283084368995
  0
VERTEX
  5
FA23
  8
0
 10
276.45622360543302
 20
156.9198702590723
 30
0.0
 42
0.041512434011524
 70
     1
  0
VERTEX
  5
FA24
  8
0
 10
276.5943421184586
 20
156.81857129968901
 30
0.0
 42
0.038667497180678
  0
VERTEX
  5
FA25
  8
0
 10
276.72013792959751
 20
156.7542701226381
 30
0.0
 42
0.0425879143670161
 70
     1
  0
VERTEX
  5
FA26
  8
0
 10
276.84233008456482
 20
156.7151136617135
 30
0.0
 42
0.029820107880921
  0
VERTEX
  5
FA27
  8
0
 10
276.92492920132872
 20
156.7013288584717
 30
0.0
 42
-0.0429819767205665
 70
     1
  0
VERTEX
  5
FA28
  8
0
 10
276.98201837204692
 20
156.6902516139192
 30
0.0
 42
-0.0178541340944556
  0
VERTEX
  5
FA29
  8
0
 10
277.03430016115522
 20
156.67331572546351
 30
0.0
 42
-0.0288669921016711
 70
     1
  0
VERTEX
  5
FA2A
  8
0
 10
277.06553415777381
 20
156.6598631737574
 30
0.0
 42
-0.03290715674065
  0
VERTEX
  5
FA2B
  8
0
 10
277.10252744938998
 20
156.6381782809643
 30
0.0
 42
-0.029565645950562
 70
     1
  0
VERTEX
  5
FA2C
  8
0
 10
277.14036623554011
 20
156.60910715580209
 30
0.0
 42
-0.018883430291872
  0
VERTEX
  5
FA2D
  8
0
 10
277.1663392443989
 20
156.5848145488043
 30
0.0
 42
-0.0216403545167003
 70
     1
  0
VERTEX
  5
FA2E
  8
0
 10
277.1872154040575
 20
156.5618491479452
 30
0.0
 42
-0.0319156652654022
  0
VERTEX
  5
FA2F
  8
0
 10
277.2402533792847
 20
156.4892124560682
 30
0.0
 42
-0.0203451907867061
 70
     1
  0
VERTEX
  5
FA30
  8
0
 10
277.31107280497122
 20
156.36728367497321
 30
0.0
 42
-0.0002579344595051
  0
VERTEX
  5
FA31
  8
0
 10
277.35913874835887
 20
156.27607420087571
 30
0.0
 42
0.0006893601720743
 70
     1
  0
VERTEX
  5
FA32
  8
0
 10
277.4072046917463
 20
156.1848647267781
 30
0.0
 42
0.0000325291581689
  0
VERTEX
  5
FA33
  8
0
 10
277.44555754308931
 20
156.11234079020949
 30
0.0
 42
0.0000889499173626
 70
     1
  0
VERTEX
  5
FA34
  8
0
 10
277.45958969772551
 20
156.08582205370899
 30
0.0
 42
0.0034624939542651
  0
VERTEX
  5
FA35
  8
0
 10
277.47536423909878
 20
156.05651589941851
 30
0.0
 42
0.0010748836994966
 70
     1
  0
VERTEX
  5
FA36
  8
0
 10
277.52703236377903
 20
155.96257879540039
 30
0.0
 42
0.0106403908523346
  0
VERTEX
  5
FA37
  8
0
 10
277.55058204742448
 20
155.9220423632695
 30
0.0
 42
0.0058163078074111
 70
     1
  0
VERTEX
  5
FA38
  8
0
 10
277.59607731546089
 20
155.84934836303981
 30
0.0
 42
0.0315612967675031
  0
VERTEX
  5
FA39
  8
0
 10
277.63364417323152
 20
155.79824876879491
 30
0.0
 42
0.0356046671780684
 70
     1
  0
VERTEX
  5
FA3A
  8
0
 10
277.6727198525216
 20
155.75780720768401
 30
0.0
 42
0.0357750338290589
  0
VERTEX
  5
FA3B
  8
0
 10
277.69338504595453
 20
155.74177299419429
 30
0.0
 42
0.0152874063410532
 70
     1
  0
VERTEX
  5
FA3C
  8
0
 10
277.74526303391491
 20
155.709408125854
 30
0.0
 42
0.036303615163235
  0
VERTEX
  5
FA3D
  8
0
 10
277.76420965514558
 20
155.70014731076711
 30
0.0
 42
0.020610091096348
 70
     1
  0
VERTEX
  5
FA3E
  8
0
 10
277.79918828198271
 20
155.68774080227499
 30
0.0
  0
SEQEND
  5
FA3F
  8
0
  0
POLYLINE
  5
FA40
  8
0
 66
     1
 10
0.0
 20
0.0
 30
0.0
 70
     2
  0
VERTEX
  5
FA41
  8
0
 10
270.81408270785158
 20
162.1855890873552
 30
0.0
 42
0.0013757409964405
  0
VERTEX
  5
FA42
  8
0
 10
270.815727560906
 20
161.5803624531153
 30
0.0
 42
0.0030971503423002
 70
     1
  0
VERTEX
  5
FA43
  8
0
 10
270.81886313078257
 20
161.3115385820426
 30
0.0
 42
0.0000656687902283
  0
VERTEX
  5
FA44
  8
0
 10
270.8386062198378
 20
160.21415532460821
 30
0.0
 42
0.0019050986697739
 70
     1
  0
VERTEX
  5
FA45
  8
0
 10
270.83943585743049
 20
160.1763313401423
 30
0.0
 42
0.0021758928598624
  0
VERTEX
  5
FA46
  8
0
 10
270.85700630893371
 20
159.59262855019631
 30
0.0
 42
0.002441963813337
 70
     1
  0
VERTEX
  5
FA47
  8
0
 10
270.87746513347878
 20
159.07269085481551
 30
0.0
 42
0.0012721720653087
  0
VERTEX
  5
FA48
  8
0
 10
270.89327205761401
 20
158.7348688047976
 30
0.0
 42
0.0013795620383316
 70
     1
  0
VERTEX
  5
FA49
  8
0
 10
270.9095004677792
 20
158.42342561198581
 30
0.0
 42
0.0022321147863135
  0
VERTEX
  5
FA4A
  8
0
 10
270.92801588100519
 20
158.11147115905339
 30
0.0
 42
0.0016530679166935
 70
     1
  0
VERTEX
  5
FA4B
  8
0
 10
270.95628922603299
 20
157.6904512971102
 30
0.0
 42
0.0036658715019442
  0
VERTEX
  5
FA4C
  8
0
 10
270.98229548082958
 20
157.35638797986471
 30
0.0
 42
0.0028008497762586
 70
     1
  0
VERTEX
  5
FA4D
  8
0
 10
271.0219852983239
 20
156.9196309065772
 30
0.0
 42
0.0048038534847539
  0
VERTEX
  5
FA4E
  8
0
 10
271.05541692990658
 20
156.60492464589049
 30
0.0
 42
0.0049943167156655
 70
     1
  0
VERTEX
  5
FA4F
  8
0
 10
271.09349898572918
 20
156.30290768446929
 30
0.0
 42
0.0063756636995778
  0
VERTEX
  5
FA50
  8
0
 10
271.13933225268738
 20
155.99584618022061
 30
0.0
 42
0.0097529170926477
 70
     1
  0
VERTEX
  5
FA51
  8
0
 10
271.17575446882529
 20
155.79617419481119
 30
0.0
 42
0.0019900077126386
  0
VERTEX
  5
FA52
  8
0
 10
271.19494337363182
 20
155.70337815396931
 30
0.0
 42
0.0040462947943194
 70
     1
  0
VERTEX
  5
FA53
  8
0
 10
271.20493105665668
 20
155.65785683547321
 30
0.0
 42
0.0043797966083286
  0
VERTEX
  5
FA54
  8
0
 10
271.21824978045152
 20
155.60169222226691
 30
0.0
 42
0.0029790421888619
 70
     1
  0
VERTEX
  5
FA55
  8
0
 10
271.23904391082829
 20
155.51941681167321
 30
0.0
 42
0.0096235753588662
  0
VERTEX
  5
FA56
  8
0
 10
271.24934077288162
 20
155.4826068566079
 30
0.0
 42
0.004260865919857
 70
     1
  0
VERTEX
  5
FA57
  8
0
 10
271.27489467939859
 20
155.4001519319103
 30
0.0
 42
0.0269767377258119
  0
VERTEX
  5
FA58
  8
0
 10
271.30180672729063
 20
155.32929702984879
 30
0.0
 42
0.0258950424860134
 70
     1
  0
VERTEX
  5
FA59
  8
0
 10
271.33747346578429
 20
155.25885693352339
 30
0.0
 42
0.0389929602187735
  0
VERTEX
  5
FA5A
  8
0
 10
271.35102007644258
 20
155.2389891653755
 30
0.0
 42
0.0244011426278397
 70
     1
  0
VERTEX
  5
FA5B
  8
0
 10
271.37648338525418
 20
155.21025796911329
 30
0.0
 42
0.0965471850589729
  0
VERTEX
  5
FA5C
  8
0
 10
271.39622549211072
 20
155.19662567956919
 30
0.0
 42
0.0600510363809721
 70
     1
  0
VERTEX
  5
FA5D
  8
0
 10
271.43295722248422
 20
155.18558927874199
 30
0.0
  0
SEQEND
  5
FA5E
  8
0
  0
POLYLINE
  5
FA5F
  8
0
 66
     1
 10
0.0
 20
0.0
 30
0.0
 70
     2
  0
VERTEX
  5
FA60
  8
0
 10
271.4329572224849
 20
155.1855892787419
 30
0.0
 42
-0.00166071582663
  0
VERTEX
  5
FA61
  8
0
 10
271.36405671778169
 20
155.1937539215769
 30
0.0
 42
-0.0034400936989745
 70
     1
  0
VERTEX
  5
FA62
  8
0
 10
271.33083642518818
 20
155.19803458045811
 30
0.0
 42
-0.0001190082610239
  0
VERTEX
  5
FA63
  8
0
 10
271.22391901580522
 20
155.2125860272204
 30
0.0
 42
-0.001324488704048
 70
     1
  0
VERTEX
  5
FA64
  8
0
 10
271.21431604638911
 20
155.21392123862921
 30
0.0
 42
-0.0062429231243701
  0
VERTEX
  5
FA65
  8
0
 10
271.18434033862059
 20
155.21855255985861
 30
0.0
 42
-0.0023202771654441
 70
     1
  0
VERTEX
  5
FA66
  8
0
 10
271.10391581690402
 20
155.23239247618579
 30
0.0
 42
-0.0153174071170172
  0
VERTEX
  5
FA67
  8
0
 10
271.00609635093042
 20
155.25280156332869
 30
0.0
 42
-0.0149321305102467
 70
     1
  0
VERTEX
  5
FA68
  8
0
 10
270.90720338558339
 20
155.27976514976689
 30
0.0
 42
-0.0127391821362667
  0
VERTEX
  5
FA69
  8
0
 10
270.83432665307549
 20
155.3040389774356
 30
0.0
 42
-0.0143485884989966
 70
     1
  0
VERTEX
  5
FA6A
  8
0
 10
270.77088317672838
 20
155.3290629764189
 30
0.0
 42
-0.0066654292488498
  0
VERTEX
  5
FA6B
  8
0
 10
270.7053539277112
 20
155.35814761079601
 30
0.0
 42
-0.0094662528432147
 70
     1
  0
VERTEX
  5
FA6C
  8
0
 10
270.65989567405472
 20
155.38010554025311
 30
0.0
 42
-0.0057720013842315
  0
VERTEX
  5
FA6D
  8
0
 10
270.59041816797799
 20
155.4163168777639
 30
0.0
 42
-0.0079686781765283
 70
     1
  0
VERTEX
  5
FA6E
  8
0
 10
270.54083131668881
 20
155.443919790601
 30
0.0
 42
-0.0036105846137898
  0
VERTEX
  5
FA6F
  8
0
 10
270.46377571177982
 20
155.48918177145501
 30
0.0
 42
-0.0048007445505345
 70
     1
  0
VERTEX
  5
FA70
  8
0
 10
270.40640333544752
 20
155.52419318435051
 30
0.0
 42
-0.0023078735360384
  0
VERTEX
  5
FA71
  8
0
 10
270.35355803976108
 20
155.55748214737531
 30
0.0
 42
0.0011796241725775
 70
     1
  0
VERTEX
  5
FA72
  8
0
 10
270.30071274407459
 20
155.59077111040011
 30
0.0
 42
0.0028979151799754
  0
VERTEX
  5
FA73
  8
0
 10
270.05001571936918
 20
155.74585209956501
 30
0.0
 42
0.0058293216411989
 70
     1
  0
VERTEX
  5
FA74
  8
0
 10
269.92405756209399
 20
155.82076207947159
 30
0.0
 42
0.0049044146322692
  0
VERTEX
  5
FA75
  8
0
 10
269.7727149783027
 20
155.90642546911809
 30
0.0
 42
-0.003443970330993
 70
     1
  0
VERTEX
  5
FA76
  8
0
 10
269.62137239451113
 20
155.9920888587647
 30
0.0
 42
-0.0001397609293006
  0
VERTEX
  5
FA77
  8
0
 10
269.34276595843949
 20
156.1524339695942
 30
0.0
 42
-0.0005818461232982
 70
     1
  0
VERTEX
  5
FA78
  8
0
 10
269.27589961295831
 20
156.1910458309039
 30
0.0
 42
-0.0000044524533781
  0
VERTEX
  5
FA79
  8
0
 10
269.13329835679718
 20
156.2736138137887
 30
0.0
 42
-0.0000069574612479
 70
     1
  0
VERTEX
  5
FA7A
  8
0
 10
269.04204135233499
 20
156.3264555882599
 30
0.0
 42
-0.0000140628953307
  0
VERTEX
  5
FA7B
  8
0
 10
268.9770876632665
 20
156.36407024552031
 30
0.0
 42
-0.0000077946791427
 70
     1
  0
VERTEX
  5
FA7C
  8
0
 10
268.85990340914668
 20
156.4319384434931
 30
0.0
 42
-0.001513406128481
  0
VERTEX
  5
FA7D
  8
0
 10
268.76048670965059
 20
156.48992105374501
 30
0.0
 42
-0.0009053866579278
 70
     1
  0
VERTEX
  5
FA7E
  8
0
 10
268.59477700138109
 20
156.587644970344
 30
0.0
 42
-0.001888700591853
  0
VERTEX
  5
FA7F
  8
0
 10
268.5550990088359
 20
156.61134408732761
 30
0.0
 42
-0.0005467998850857
 70
     1
  0
VERTEX
  5
FA80
  8
0
 10
268.41844812575391
 20
156.69386950349471
 30
0.0
 42
-0.0041932118244388
  0
VERTEX
  5
FA81
  8
0
 10
268.34840267824069
 20
156.737082401837
 30
0.0
 42
-0.0023430087969159
 70
     1
  0
VERTEX
  5
FA82
  8
0
 10
268.22406762616993
 20
156.8160503373575
 30
0.0
 42
-0.0168876478024218
  0
VERTEX
  5
FA83
  8
0
 10
268.14763685810431
 20
156.8688236925108
 30
0.0
 42
-0.0114166554265695
 70
     1
  0
VERTEX
  5
FA84
  8
0
 10
268.03919379924542
 20
156.95314468659291
 30
0.0
 42
-0.0227432321260398
  0
VERTEX
  5
FA85
  8
0
 10
267.9379624478097
 20
157.04359601787911
 30
0.0
 42
-0.019244646745252
 70
     1
  0
VERTEX
  5
FA86
  8
0
 10
267.82773005491441
 20
157.16013039837731
 30
0.0
 42
-0.0105599532514386
  0
VERTEX
  5
FA87
  8
0
 10
267.76059189444459
 20
157.24016215212109
 30
0.0
 42
-0.0105096787032101
 70
     1
  0
VERTEX
  5
FA88
  8
0
 10
267.69658000177992
 20
157.32334702013549
 30
0.0
 42
-0.0159665347690499
  0
VERTEX
  5
FA89
  8
0
 10
267.63982464155202
 20
157.40578772501689
 30
0.0
 42
-0.0101031916534384
 70
     1
  0
VERTEX
  5
FA8A
  8
0
 10
267.55705553808889
 20
157.5405490330065
 30
0.0
 42
-0.0266543341465393
  0
VERTEX
  5
FA8B
  8
0
 10
267.46333177890938
 20
157.72177440785239
 30
0.0
 42
-0.0274217395661457
 70
     1
  0
VERTEX
  5
FA8C
  8
0
 10
267.39176962842788
 20
157.9067382583053
 30
0.0
 42
-0.0175425842270807
  0
VERTEX
  5
FA8D
  8
0
 10
267.37236029035188
 20
157.97442747723181
 30
0.0
 42
-0.0050462752764179
 70
     1
  0
VERTEX
  5
FA8E
  8
0
 10
267.31559795888393
 20
158.21247818821411
 30
0.0
 42
-0.0249410989945146
  0
VERTEX
  5
FA8F
  8
0
 10
267.2982220475642
 20
158.311265512836
 30
0.0
 42
-0.0140543963927417
 70
     1
  0
VERTEX
  5
FA90
  8
0
 10
267.29252108523201
 20
158.4635928768397
 30
0.0
  0
SEQEND
  5
FA91
  8
0
  0
POLYLINE
  5
FA92
  8
0
 66
     1
 10
0.0
 20
0.0
 30
0.0
 70
     2
  0
VERTEX
  5
FA93
  8
0
 10
263.92483257839041
 20
155.18558927874199
 30
0.0
 42
0.0044813573879193
  0
VERTEX
  5
FA94
  8
0
 10
264.82918664720461
 20
155.1885382657463
 30
0.0
 42
0.0070423216002113
 70
     1
  0
VERTEX
  5
FA95
  8
0
 10
265.40449018130221
 20
155.20367680360599
 30
0.0
 42
0.0001124364838927
  0
VERTEX
  5
FA96
  8
0
 10
266.26516599395291
 20
155.23865429376119
 30
0.0
 42
0.0045271925213481
 70
     1
  0
VERTEX
  5
FA97
  8
0
 10
266.28653302984208
 20
155.23972131779041
 30
0.0
 42
0.0021653599162762
  0
VERTEX
  5
FA98
  8
0
 10
266.61547633585178
 20
155.260565156589
 30
0.0
 42
0.0037697294713231
 70
     1
  0
VERTEX
  5
FA99
  8
0
 10
266.80427012411161
 20
155.27478007939629
 30
0.0
 42
0.0020518444775785
  0
VERTEX
  5
FA9A
  8
0
 10
267.00536677738819
 20
155.29227816242869
 30
0.0
 42
0.0027545358028251
 70
     1
  0
VERTEX
  5
FA9B
  8
0
 10
267.15503129121089
 20
155.3067518025353
 30
0.0
 42
0.0026122456585096
  0
VERTEX
  5
FA9C
  8
0
 10
267.24166649548528
 20
155.31606966320021
 30
0.0
 42
0.0013552796323169
 70
     1
  0
VERTEX
  5
FA9D
  8
0
 10
267.4085036833817
 20
155.33535381868509
 30
0.0
 42
0.0062684636031934
  0
VERTEX
  5
FA9E
  8
0
 10
267.52525624492591
 20
155.35065613123001
 30
0.0
 42
0.0025561572847053
 70
     1
  0
VERTEX
  5
FA9F
  8
0
 10
267.81085230183089
 20
155.39322762979631
 30
0.0
 42
0.0130283692092224
  0
VERTEX
  5
FAA0
  8
0
 10
268.02331505096481
 20
155.43170062828
 30
0.0
 42
0.0083946297483406
 70
     1
  0
VERTEX
  5
FAA1
  8
0
 10
268.3501623429068
 20
155.50547125586789
 30
0.0
 42
0.0203257327148221
  0
VERTEX
  5
FAA2
  8
0
 10
268.67473391014482
 20
155.59859901650279
 30
0.0
 42
0.023414233067384
 70
     1
  0
VERTEX
  5
FAA3
  8
0
 10
268.94839006788578
 20
155.70376053621209
 30
0.0
 42
0.0096119267884445
  0
VERTEX
  5
FAA4
  8
0
 10
269.15118125624213
 20
155.7974844142426
 30
0.0
 42
0.0193023502318512
 70
     1
  0
VERTEX
  5
FAA5
  8
0
 10
269.24932603983689
 20
155.84992838578989
 30
0.0
 42
0.0029187657305227
  0
VERTEX
  5
FAA6
  8
0
 10
269.2984430499036
 20
155.87905024671349
 30
0.0
 42
0.0010038049907564
 70
     1
  0
VERTEX
  5
FAA7
  8
0
 10
269.44059091304212
 20
155.9648450988569
 30
0.0
 42
0.0064705425846919
  0
VERTEX
  5
FAA8
  8
0
 10
269.47263871857831
 20
155.9848474765102
 30
0.0
 42
0.0027197725046154
 70
     1
  0
VERTEX
  5
FAA9
  8
0
 10
269.54799274962039
 20
156.0338262266751
 30
0.0
  0
SEQEND
  5
FAAA
  8
0
  0
POLYLINE
  5
FAAB
  8
0
 66
     1
 10
0.0
 20
0.0
 30
0.0
 70
     2
  0
VERTEX
  5
FAAC
  8
0
 10
271.43456333467321
 20
155.18539707704571
 30
0.0
 42
0.0541312575269963
  0
VERTEX
  5
FAAD
  8
0
 10
271.53225665866557
 20
155.19830801056199
 30
0.0
 42
0.0806477891281632
 70
     1
  0
VERTEX
  5
FAAE
  8
0
 10
271.59338205211321
 20
155.22418748512251
 30
0.0
 42
0.0351915644354449
  0
VERTEX
  5
FAAF
  8
0
 10
271.65497667218318
 20
155.2692672412141
 30
0.0
 42
-0.0654922552164518
 70
     1
  0
VERTEX
  5
FAB0
  8
0
 10
271.68958180734472
 20
155.2915144159191
 30
0.0
 42
-0.0224970630327341
  0
VERTEX
  5
FAB1
  8
0
 10
271.79371165121302
 20
155.33499755725589
 30
0.0
 42
0.0196340838204729
 70
     1
  0
VERTEX
  5
FAB2
  8
0
 10
271.91329416272828
 20
155.38413165240411
 30
0.0
 42
0.0033303321396015
  0
VERTEX
  5
FAB3
  8
0
 10
272.03641905904618
 20
155.4414621198074
 30
0.0
 42
0.0071066047614013
 70
     1
  0
VERTEX
  5
FAB4
  8
0
 10
272.09354737670168
 20
155.46952816649639
 30
0.0
 42
0.016841246604574
  0
VERTEX
  5
FAB5
  8
0
 10
272.208518823747
 20
155.53301683145571
 30
0.0
 42
0.0141190216909887
 70
     1
  0
VERTEX
  5
FAB6
  8
0
 10
272.34069764022229
 20
155.6170798428609
 30
0.0
 42
0.0063746079073089
  0
VERTEX
  5
FAB7
  8
0
 10
272.46245372198428
 20
155.70171450598431
 30
0.0
 42
0.0068157094032828
 70
     1
  0
VERTEX
  5
FAB8
  8
0
 10
272.57420303286062
 20
155.7838484240325
 30
0.0
 42
0.0040218234761862
  0
VERTEX
  5
FAB9
  8
0
 10
272.7253178693008
 20
155.9000425954554
 30
0.0
 42
0.0064916377060304
 70
     1
  0
VERTEX
  5
FABA
  8
0
 10
272.81740758328851
 20
155.9739838434466
 30
0.0
 42
0.0047405176274754
  0
VERTEX
  5
FABB
  8
0
 10
272.94542433276911
 20
156.08158931486179
 30
0.0
 42
0.0068075849110872
 70
     1
  0
VERTEX
  5
FABC
  8
0
 10
273.03281768920618
 20
156.1585618360526
 30
0.0
 42
0.0018044449688964
  0
VERTEX
  5
FABD
  8
0
 10
273.14309396887802
 20
156.259113807403
 30
0.0
 42
0.0036077081835793
 70
     1
  0
VERTEX
  5
FABE
  8
0
 10
273.1977031032543
 20
156.31000082608
 30
0.0
 42
0.0001640670668755
  0
VERTEX
  5
FABF
  8
0
 10
273.25652991125929
 20
156.36565302130921
 30
0.0
 42
0.0006620909793476
 70
     1
  0
VERTEX
  5
FAC0
  8
0
 10
273.27108447574869
 20
156.3794677862104
 30
0.0
 42
0.000410975130888
  0
VERTEX
  5
FAC1
  8
0
 10
273.33513908188797
 20
156.4405283892599
 30
0.0
 42
-0.0000471501023784
 70
     1
  0
VERTEX
  5
FAC2
  8
0
 10
273.3991936880272
 20
156.50158899230931
 30
0.0
 42
-0.0010551725845617
  0
VERTEX
  5
FAC3
  8
0
 10
273.44027373807722
 20
156.5405763996045
 30
0.0
 42
0.0006717556925777
 70
     1
  0
VERTEX
  5
FAC4
  8
0
 10
273.50484787837172
 20
156.60176704355351
 30
0.0
 42
0.0658690515930485
  0
VERTEX
  5
FAC5
  8
0
 10
273.53055723384091
 20
156.63359834778271
 30
0.0
 42
-0.0854373213073328
 70
     1
  0
VERTEX
  5
FAC6
  8
0
 10
273.55137910997058
 20
156.65741946973071
 30
0.0
 42
-0.1091256055243581
  0
VERTEX
  5
FAC7
  8
0
 10
273.56240186090213
 20
156.66294436779441
 30
0.0
 42
-0.0332941871983603
 70
     1
  0
VERTEX
  5
FAC8
  8
0
 10
273.60173233935188
 20
156.67012869675759
 30
0.0
 42
-0.0575045072175028
  0
VERTEX
  5
FAC9
  8
0
 10
273.69617470388999
 20
156.6700557383557
 30
0.0
 42
-0.0506365337381066
 70
     1
  0
VERTEX
  5
FACA
  8
0
 10
273.80083740177128
 20
156.64699797315981
 30
0.0
 42
-0.0153939985796392
  0
VERTEX
  5
FACB
  8
0
 10
273.87186216032518
 20
156.62116734129569
 30
0.0
 42
-0.0290350242850147
 70
     1
  0
VERTEX
  5
FACC
  8
0
 10
273.9081770061523
 20
156.6041750177987
 30
0.0
 42
-0.0183807562568993
  0
VERTEX
  5
FACD
  8
0
 10
273.96412729792701
 20
156.57120731137991
 30
0.0
 42
-0.0209629814418388
 70
     1
  0
VERTEX
  5
FACE
  8
0
 10
274.01076664026908
 20
156.53853088815191
 30
0.0
 42
-0.0184427344361687
  0
VERTEX
  5
FACF
  8
0
 10
274.08091401342517
 20
156.48064249850071
 30
0.0
 42
-0.0212160889816373
 70
     1
  0
VERTEX
  5
FAD0
  8
0
 10
274.13771969534719
 20
156.4256424651096
 30
0.0
 42
-0.0085879289056357
  0
VERTEX
  5
FAD1
  8
0
 10
274.20855573764311
 20
156.34836649089709
 30
0.0
 42
-0.0127221547692571
 70
     1
  0
VERTEX
  5
FAD2
  8
0
 10
274.25411082272763
 20
156.29420765765019
 30
0.0
 42
-0.0026747999313573
  0
VERTEX
  5
FAD3
  8
0
 10
274.32213128902549
 20
156.20809180278309
 30
0.0
 42
-0.0065589116006393
 70
     1
  0
VERTEX
  5
FAD4
  8
0
 10
274.34921854828173
 20
156.1724652298241
 30
0.0
 42
-0.0005487554263372
  0
VERTEX
  5
FAD5
  8
0
 10
274.3882005306204
 20
156.11965244547611
 30
0.0
 42
-0.00036148978076
 70
     1
  0
VERTEX
  5
FAD6
  8
0
 10
274.44723062280701
 20
156.03937301949179
 30
0.0
 42
-0.0016837758984005
  0
VERTEX
  5
FAD7
  8
0
 10
274.52790357115782
 20
155.9287142623653
 30
0.0
 42
0.0009330933538376
 70
     1
  0
VERTEX
  5
FAD8
  8
0
 10
274.6085765195084
 20
155.8180555052387
 30
0.0
 42
0.009524633409078
  0
VERTEX
  5
FAD9
  8
0
 10
274.67747891120598
 20
155.72757969401289
 30
0.0
 42
0.0066318686228709
 70
     1
  0
VERTEX
  5
FADA
  8
0
 10
274.78057740796879
 20
155.60090981660571
 30
0.0
 42
0.0176915799759771
  0
VERTEX
  5
FADB
  8
0
 10
274.84293511840588
 20
155.53148343307009
 30
0.0
 42
0.0144063271739092
 70
     1
  0
VERTEX
  5
FADC
  8
0
 10
274.92481568426109
 20
155.45132110398319
 30
0.0
 42
0.0212094144036204
  0
VERTEX
  5
FADD
  8
0
 10
275.00085815263992
 20
155.38680570746411
 30
0.0
 42
0.0223800743458933
 70
     1
  0
VERTEX
  5
FADE
  8
0
 10
275.07797591576701
 20
155.33216791382159
 30
0.0
 42
0.0160318981206736
  0
VERTEX
  5
FADF
  8
0
 10
275.12888229550663
 20
155.30168128109591
 30
0.0
 42
0.0178346951485867
 70
     1
  0
VERTEX
  5
FAE0
  8
0
 10
275.17639548618348
 20
155.27743454007211
 30
0.0
 42
0.0262420799350354
  0
VERTEX
  5
FAE1
  8
0
 10
275.20446610473618
 20
155.26610123588429
 30
0.0
 42
0.0053191751074964
 70
     1
  0
VERTEX
  5
FAE2
  8
0
 10
275.34610922942193
 20
155.21906500365671
 30
0.0
 42
0.0300900178650982
  0
VERTEX
  5
FAE3
  8
0
 10
275.40971535216158
 20
155.20283601939039
 30
0.0
 42
0.0176074664756881
 70
     1
  0
VERTEX
  5
FAE4
  8
0
 10
275.52049526163893
 20
155.18558927874199
 30
0.0
  0
SEQEND
  5
FAE5
  8
0
  0
ARC
  5
FAE6
  8
0
 10
277.29811290739798
 20
155.68666505238801
 30
0.0
 40
0.5010765293375182
 50
269.90049201251259
 51
0.1230071088502485
  0
LINE
  5
FAE7
  8
0
 10
259.3339187371123
 20
155.18558927874199
 30
0.0
 11
277.29724266718398
 21
155.18558927874199
 31
0.0
  0
ARC
  5
FAE8
  8
0
 10
259.3339187371123
 20
155.68558637881929
 30
0.0
 40
0.4999971000928768
 50
180.0
 51
270.00045172451672
  0
POLYLINE
  5
FAE9
  8
0
 66
     1
 10
0.0
 20
0.0
 30
0.0
 70
     2
  0
VERTEX
  5
FAEA
  8
0
 10
259.98936512657951
 20
158.939673335451
 30
0.0
 42
0.0168167518055725
  0
VERTEX
  5
FAEB
  8
0
 10
260.22920525109788
 20
158.96245189253969
 30
0.0
 42
0.0248378181315185
 70
     1
  0
VERTEX
  5
FAEC
  8
0
 10
260.38979944300883
 20
158.99134106076781
 30
0.0
 42
0.0016939732727654
  0
VERTEX
  5
FAED
  8
0
 10
260.59238308583917
 20
159.0389967597242
 30
0.0
 42
0.0139918036860348
 70
     1
  0
VERTEX
  5
FAEE
  8
0
 10
260.61672134421087
 20
159.04553407466091
 30
0.0
 42
0.0156413764183301
  0
VERTEX
  5
FAEF
  8
0
 10
260.71365561508168
 20
159.07783690160869
 30
0.0
 42
0.0145509498174239
 70
     1
  0
VERTEX
  5
FAF0
  8
0
 10
260.81556542303969
 20
159.11878351034741
 30
0.0
 42
0.0181272970959487
  0
VERTEX
  5
FAF1
  8
0
 10
260.92330425572072
 20
159.1704824129182
 30
0.0
 42
0.0159604115384232
 70
     1
  0
VERTEX
  5
FAF2
  8
0
 10
261.04137783892043
 20
159.2373940498091
 30
0.0
 42
0.0147037087632538
  0
VERTEX
  5
FAF3
  8
0
 10
261.09619836355341
 20
159.27306781333289
 30
0.0
 42
0.0092082717496354
 70
     1
  0
VERTEX
  5
FAF4
  8
0
 10
261.18090118069131
 20
159.33414284361399
 30
0.0
 42
0.0361553346505858
  0
VERTEX
  5
FAF5
  8
0
 10
261.31993104172489
 20
159.4549569338522
 30
0.0
 42
0.0344720862927079
 70
     1
  0
VERTEX
  5
FAF6
  8
0
 10
261.44645144260448
 20
159.6009126283858
 30
0.0
 42
0.0199421910146661
  0
VERTEX
  5
FAF7
  8
0
 10
261.52257220576581
 20
159.71090016475759
 30
0.0
 42
0.0257800167137474
 70
     1
  0
VERTEX
  5
FAF8
  8
0
 10
261.57345529801768
 20
159.80102604244769
 30
0.0
 42
0.0159533189403685
  0
VERTEX
  5
FAF9
  8
0
 10
261.62859759764802
 20
159.9210981019886
 30
0.0
 42
0.0214337281518475
 70
     1
  0
VERTEX
  5
FAFA
  8
0
 10
261.66285730907128
 20
160.01330375609999
 30
0.0
 42
0.0130882390127521
  0
VERTEX
  5
FAFB
  8
0
 10
261.66984694433268
 20
160.0370105344017
 30
0.0
 42
0.0026619725247205
 70
     1
  0
VERTEX
  5
FAFC
  8
0
 10
261.70052019929108
 20
160.15457590332909
 30
0.0
 42
0.0375175642551524
  0
VERTEX
  5
FAFD
  8
0
 10
261.72090260045047
 20
160.2699289726414
 30
0.0
 42
0.0264811138635261
 70
     1
  0
VERTEX
  5
FAFE
  8
0
 10
261.72868454047989
 20
160.43558926616919
 30
0.0
  0
SEQEND
  5
FAFF
  8
0
  0
LINE
  5
FB00
  8
0
 10
259.3339187371123
 20
169.18558889596849
 30
0.0
 11
277.29724266718398
 21
169.18558889596841
 31
0.0
  0
LINE
  5
FB09
  8
0
 10
272.43910943849619
 20
212.54405174844609
 30
0.0
 11
277.01486670253331
 21
264.84426590387801
 31
0.0
  0
POLYLINE
  5
FB0A
  8
0
 66
     1
 10
0.0
 20
0.0
 30
0.0
 70
     2
  0
VERTEX
  5
FB0B
  8
0
 10
258.83392163702803
 20
270.09442755953239
 30
0.0
 42
0.0130445769429693
  0
VERTEX
  5
FB4C
  8
0
 10
258.84920929105152
 20
269.83199007450997
 30
0.0
 42
0.0207427888135754
 70
     1
  0
VERTEX
  5
FB0C
  8
0
 10
258.86994954891378
 20
269.66793329475991
 30
0.0
 42
0.0016833641491106
  0
VERTEX
  5
FB4D
  8
0
 10
258.91705610614463
 20
269.39449520081871
 30
0.0
 42
0.0153751186247568
 70
     1
  0
VERTEX
  5
FB0D
  8
0
 10
258.92323318135777
 20
269.36474387241179
 30
0.0
 42
0.0129325197990165
  0
VERTEX
  5
FB4E
  8
0
 10
258.95273801477919
 20
269.25442164070591
 30
0.0
 42
0.0098318494573796
 70
     1
  0
VERTEX
  5
FB0E
  8
0
 10
258.99810867158482
 20
269.1112338238994
 30
0.0
 42
0.0121370880005086
  0
VERTEX
  5
FB4F
  8
0
 10
259.01707886175433
 20
269.05939179944289
 30
0.0
 42
0.0040874863984976
 70
     1
  0
VERTEX
  5
FB0F
  8
0
 10
259.07836394943888
 20
268.90738413286311
 30
0.0
 42
0.0381965835490145
  0
VERTEX
  5
FB50
  8
0
 10
259.27522501165731
 20
268.51768461126721
 30
0.0
 42
0.0432838359070239
 70
     1
  0
VERTEX
  5
FB10
  8
0
 10
259.502506648088
 20
268.2063791068968
 30
0.0
 42
0.0117705638441986
  0
VERTEX
  5
FB51
  8
0
 10
259.67526793871002
 20
268.01743643440932
 30
0.0
 42
0.0233176977315094
 70
     1
  0
VERTEX
  5
FB11
  8
0
 10
259.76898643641812
 20
267.92837262767353
 30
0.0
 42
0.0011902807675355
  0
VERTEX
  5
FB52
  8
0
 10
259.94556617877788
 20
267.77631138458128
 30
0.0
 42
0.0009900651870451
 70
     1
  0
VERTEX
  5
FB12
  8
0
 10
260.15864976832222
 20
267.59442714975052
 30
0.0
 42
0.0023419898716862
  0
VERTEX
  5
FB53
  8
0
 10
260.5421231072844
 20
267.2714938859437
 30
0.0
 42
-0.002625264868574
 70
     1
  0
VERTEX
  5
FB13
  8
0
 10
260.88405558325672
 20
266.98321204458063
 30
0.0
 42
-0.0133832540436242
  0
VERTEX
  5
FB54
  8
0
 10
261.26711655141111
 20
266.63868419101891
 30
0.0
 42
-0.0106141893776865
 70
     1
  0
VERTEX
  5
FB14
  8
0
 10
261.72868454047989
 20
266.1816340871232
 30
0.0
 42
-0.0058451228432312
  0
VERTEX
  5
FB55
  8
0
 10
262.05586424243478
 20
265.8355997322742
 30
0.0
 42
-0.0056397684443633
 70
     1
  0
VERTEX
  5
FB15
  8
0
 10
262.38663000116031
 20
265.46927297391642
 30
0.0
 42
-0.0041263575396279
  0
VERTEX
  5
FB56
  8
0
 10
262.74615414336398
 20
265.0551125783914
 30
0.0
 42
-0.0059239773083261
 70
     1
  0
VERTEX
  5
FB16
  8
0
 10
262.99073690967248
 20
264.76164798063411
 30
0.0
 42
-0.0066237541685874
  0
VERTEX
  5
FB57
  8
0
 10
263.268738026336
 20
264.41053368752358
 30
0.0
 42
-0.0064714366212272
 70
     1
  0
VERTEX
  5
FB17
  8
0
 10
263.54377324940521
 20
264.04382786108539
 30
0.0
 42
-0.0047413696716028
  0
VERTEX
  5
FB58
  8
0
 10
263.67374280967312
 20
263.86219190149308
 30
0.0
 42
-0.0028482507400461
 70
     1
  0
VERTEX
  5
FB18
  8
0
 10
263.88548057280309
 20
263.55658500830219
 30
0.0
 42
-0.0111522476629353
  0
VERTEX
  5
FB59
  8
0
 10
264.25284315646792
 20
262.9933016411324
 30
0.0
 42
-0.0091292191242964
 70
     1
  0
VERTEX
  5
FB19
  8
0
 10
264.67332368103581
 20
262.28759221065889
 30
0.0
 42
-0.0083657888539909
  0
VERTEX
  5
FB5A
  8
0
 10
264.89578689333388
 20
261.88264666665231
 30
0.0
 42
-0.0066894921247882
 70
     1
  0
VERTEX
  5
FB1A
  8
0
 10
265.15861768508421
 20
261.36809413313358
 30
0.0
 42
-0.0117498263019365
  0
VERTEX
  5
FB5B
  8
0
 10
265.45578282096722
 20
260.72921503576617
 30
0.0
 42
-0.0101398977008621
 70
     1
  0
VERTEX
  5
FB1B
  8
0
 10
265.76738955381438
 20
259.97456603456061
 30
0.0
 42
-0.0108717336192095
  0
VERTEX
  5
FB5C
  8
0
 10
266.01160045398319
 20
259.30465193762387
 30
0.0
 42
-0.0103359747250291
 70
     1
  0
VERTEX
  5
FB1C
  8
0
 10
266.2383588277998
 20
258.58976353271493
 30
0.0
 42
-0.0102216977091177
  0
VERTEX
  5
FB5D
  8
0
 10
266.43195309087599
 20
257.87932923622611
 30
0.0
 42
-0.0102255830703451
 70
     1
  0
VERTEX
  5
FB1D
  8
0
 10
266.59627926821281
 20
257.16184706249078
 30
0.0
 42
-0.0104204489356286
  0
VERTEX
  5
FB5E
  8
0
 10
266.735640886824
 20
256.4124220813265
 30
0.0
 42
-0.0109035160135695
 70
     1
  0
VERTEX
  5
FB1E
  8
0
 10
266.83817322252997
 20
255.69116501063431
 30
0.0
 42
-0.0097880477912494
  0
VERTEX
  5
FB5F
  8
0
 10
266.91252608804348
 20
254.94884619078769
 30
0.0
 42
-0.0101570707746898
 70
     1
  0
VERTEX
  5
FB1F
  8
0
 10
266.95559397916901
 20
254.23120343244759
 30
0.0
 42
-0.0087004960631794
  0
VERTEX
  5
FB60
  8
0
 10
266.97193348177137
 20
253.49620847589
 30
0.0
 42
-0.0136260960518163
 70
     1
  0
VERTEX
  5
FB20
  8
0
 10
266.96140689148928
 20
253.02685204483791
 30
0.0
 42
-0.0079332243756424
  0
VERTEX
  5
FB61
  8
0
 10
266.88723963740858
 20
251.8968493090961
 30
0.0
 42
-0.0036324279519264
 70
     1
  0
VERTEX
  5
FB21
  8
0
 10
266.6682321747889
 20
249.43345196472001
 30
0.0
 42
-0.0001532707476831
  0
VERTEX
  5
FB62
  8
0
 10
266.59983063774388
 20
248.7249298012224
 30
0.0
 42
0.0005579341963227
 70
     1
  0
VERTEX
  5
FB22
  8
0
 10
266.58119750113218
 20
248.53027567317841
 30
0.0
 42
0.0003403195124975
  0
VERTEX
  5
FB63
  8
0
 10
266.45718780596331
 20
247.20978281173481
 30
0.0
 42
0.0015658781384903
 70
     1
  0
VERTEX
  5
FB23
  8
0
 10
266.43133045420342
 20
246.92269267744189
 30
0.0
 42
0.0000357332420893
  0
VERTEX
  5
FB64
  8
0
 10
266.41096663709141
 20
246.688191127827
 30
0.0
 42
0.0000104120529807
 70
     1
  0
VERTEX
  5
FB24
  8
0
 10
266.34115409977272
 20
245.88339616806499
 30
0.0
 42
0.0000341327220075
  0
VERTEX
  5
FB65
  8
0
 10
266.24869602119543
 20
244.81644067569781
 30
0.0
 42
-0.000011488494441
 70
     1
  0
VERTEX
  5
FB25
  8
0
 10
266.15623794261842
 20
243.74948518333071
 30
0.0
 42
-0.0024968682589794
  0
VERTEX
  5
FB66
  8
0
 10
266.09412326506691
 20
243.07220989558829
 30
0.0
 42
0.0024011783216083
 70
     1
  0
VERTEX
  5
FB26
  8
0
 10
266.02939849002018
 20
242.3679570454668
 30
0.0
 42
0.008225624770909
  0
VERTEX
  5
FB67
  8
0
 10
265.99916594506539
 20
241.93919604561421
 30
0.0
 42
0.0084093089684724
 70
     1
  0
VERTEX
  5
FB27
  8
0
 10
265.98356042498682
 20
241.5190475921913
 30
0.0
 42
0.0061762083618464
  0
VERTEX
  5
FB68
  8
0
 10
265.98208295028712
 20
241.333330009229
 30
0.0
 42
0.0053672690997925
 70
     1
  0
VERTEX
  5
FB28
  8
0
 10
265.98531660006978
 20
241.11964130790949
 30
0.0
 42
0.0093383319038704
  0
VERTEX
  5
FB69
  8
0
 10
265.99358125137883
 20
240.9342163496058
 30
0.0
 42
0.0068289626499889
 70
     1
  0
VERTEX
  5
FB29
  8
0
 10
266.01307330828013
 20
240.68116333317931
 30
0.0
 42
0.0162574386176893
  0
VERTEX
  5
FB6A
  8
0
 10
266.04670815420877
 20
240.40919132367159
 30
0.0
 42
0.0161249266332823
 70
     1
  0
VERTEX
  5
FB2A
  8
0
 10
266.09829308555749
 20
240.1377547593132
 30
0.0
 42
0.0118641276494369
  0
VERTEX
  5
FB6B
  8
0
 10
266.1691051291736
 20
239.85305516791959
 30
0.0
 42
0.0136115979100001
 70
     1
  0
VERTEX
  5
FB2B
  8
0
 10
266.24338688894471
 20
239.60835994485521
 30
0.0
 42
0.0034043181649066
  0
VERTEX
  5
FB6C
  8
0
 10
266.32479640726342
 20
239.36971839112269
 30
0.0
 42
0.0042317922093526
 70
     1
  0
VERTEX
  5
FB2C
  8
0
 10
266.39321191174957
 20
239.1787615378565
 30
0.0
 42
0.0070482976277518
  0
VERTEX
  5
FB6D
  8
0
 10
266.54698620715038
 20
238.77825012629469
 30
0.0
 42
-0.0047752138447693
 70
     1
  0
VERTEX
  5
FB2D
  8
0
 10
266.77663860614462
 20
238.18814219317679
 30
0.0
 42
-0.0053027850730376
  0
VERTEX
  5
FB6E
  8
0
 10
267.06721008848211
 20
237.3945328773207
 30
0.0
 42
-0.0045164999758453
 70
     1
  0
VERTEX
  5
FB2E
  8
0
 10
267.39000206711239
 20
236.45625033109479
 30
0.0
 42
-0.008892918963802
  0
VERTEX
  5
FB6F
  8
0
 10
267.63399414092243
 20
235.67994492090111
 30
0.0
 42
-0.0069719950268402
 70
     1
  0
VERTEX
  5
FB2F
  8
0
 10
267.91363304465108
 20
234.6804077277763
 30
0.0
 42
-0.0071609448485276
  0
VERTEX
  5
FB70
  8
0
 10
268.12606840197799
 20
233.82903765434639
 30
0.0
 42
-0.0071168031121583
 70
     1
  0
VERTEX
  5
FB30
  8
0
 10
268.31527577846077
 20
232.9666338682581
 30
0.0
 42
-0.0073708273723784
  0
VERTEX
  5
FB71
  8
0
 10
268.48875205259628
 20
232.04978556989411
 30
0.0
 42
-0.0079681483224452
 70
     1
  0
VERTEX
  5
FB31
  8
0
 10
268.62313571913302
 20
231.19713666486291
 30
0.0
 42
-0.0063770167734819
  0
VERTEX
  5
FB72
  8
0
 10
268.72077890592942
 20
230.4362558486701
 30
0.0
 42
-0.0071370431604741
 70
     1
  0
VERTEX
  5
FB32
  8
0
 10
268.78962021110601
 20
229.7542850622265
 30
0.0
 42
-0.0072017889831225
  0
VERTEX
  5
FB73
  8
0
 10
268.84382408778811
 20
229.0019861793935
 30
0.0
 42
-0.0071595346660626
 70
     1
  0
VERTEX
  5
FB33
  8
0
 10
268.8765931775863
 20
228.2439941144128
 30
0.0
 42
-0.0067375965276112
  0
VERTEX
  5
FB74
  8
0
 10
268.88943620420332
 20
227.4106777393408
 30
0.0
 42
-0.0061907824691966
 70
     1
  0
VERTEX
  5
FB34
  8
0
 10
268.87996192244623
 20
226.5037051108325
 30
0.0
 42
-0.0055370493274183
  0
VERTEX
  5
FB75
  8
0
 10
268.85114774616318
 20
225.65408168839531
 30
0.0
 42
-0.006168333921458
 70
     1
  0
VERTEX
  5
FB35
  8
0
 10
268.80743639156162
 20
224.8922199253949
 30
0.0
 42
-0.0072410455141349
  0
VERTEX
  5
FB76
  8
0
 10
268.73817249288368
 20
224.0708662654161
 30
0.0
 42
-0.0075496054687925
 70
     1
  0
VERTEX
  5
FB36
  8
0
 10
268.64846827697062
 20
223.28538806101321
 30
0.0
 42
-0.0062058346366839
  0
VERTEX
  5
FB77
  8
0
 10
268.52429830274377
 20
222.4119816563925
 30
0.0
 42
-0.008292886860102
 70
     1
  0
VERTEX
  5
FB37
  8
0
 10
268.41246391797972
 20
221.7613325805803
 30
0.0
 42
-0.0032468180416414
  0
VERTEX
  5
FB78
  8
0
 10
268.29875604989138
 20
221.18042270864129
 30
0.0
 42
-0.0051470956673817
 70
     1
  0
VERTEX
  5
FB38
  8
0
 10
268.2208859035577
 20
220.8152312610172
 30
0.0
 42
-0.0034558627648482
  0
VERTEX
  5
FB79
  8
0
 10
268.09932184771611
 20
220.28963330052829
 30
0.0
 42
-0.0049189920597591
 70
     1
  0
VERTEX
  5
FB39
  8
0
 10
268.00774256850241
 20
219.92184952412489
 30
0.0
 42
-0.0058294416702062
  0
VERTEX
  5
FB7A
  8
0
 10
267.83296579149618
 20
219.27919087350489
 30
0.0
 42
0.0047141485326983
 70
     1
  0
VERTEX
  5
FB3A
  8
0
 10
267.61507008829039
 20
218.48498272057
 30
0.0
 42
0.0013674489724014
  0
VERTEX
  5
FB7B
  8
0
 10
267.5244503014892
 20
218.1382057926476
 30
0.0
 42
0.0019824651557032
 70
     1
  0
VERTEX
  5
FB3B
  8
0
 10
267.4635471518136
 20
217.89859486666819
 30
0.0
 42
0.0110131476662155
  0
VERTEX
  5
FB7C
  8
0
 10
267.41668315457258
 20
217.6918551740473
 30
0.0
 42
0.0066524523851056
 70
     1
  0
VERTEX
  5
FB3C
  8
0
 10
267.35124267077248
 20
217.34709689637771
 30
0.0
 42
0.0141393738754737
  0
VERTEX
  5
FB7D
  8
0
 10
267.32197567939011
 20
217.14806765585129
 30
0.0
 42
0.0092659185536763
 70
     1
  0
VERTEX
  5
FB3D
  8
0
 10
267.29157885566161
 20
216.84263580502889
 30
0.0
 42
0.0213884881637316
  0
VERTEX
  5
FB7E
  8
0
 10
267.28041480753433
 20
216.54815197418429
 30
0.0
 42
0.0154768878401149
 70
     1
  0
VERTEX
  5
FB3E
  8
0
 10
267.29500029874703
 20
216.14124387531899
 30
0.0
 42
0.0193170807210771
  0
VERTEX
  5
FB7F
  8
0
 10
267.3390151285555
 20
215.72523318078311
 30
0.0
 42
0.017299632982773
 70
     1
  0
VERTEX
  5
FB3F
  8
0
 10
267.42200957829442
 20
215.26558257211931
 30
0.0
 42
0.0130146232743247
  0
VERTEX
  5
FB80
  8
0
 10
267.48817535508903
 20
214.9943348983015
 30
0.0
 42
0.0087768797877343
 70
     1
  0
VERTEX
  5
FB40
  8
0
 10
267.6037075333204
 20
214.59681374180519
 30
0.0
 42
0.0246501823910497
  0
VERTEX
  5
FB81
  8
0
 10
267.85982431562837
 20
213.8944887854413
 30
0.0
 42
0.0442602784247587
 70
     1
  0
VERTEX
  5
FB41
  8
0
 10
268.05508933371198
 20
213.52613381602541
 30
0.0
 42
0.0066901339288054
  0
VERTEX
  5
FB82
  8
0
 10
268.24921686684502
 20
213.23574667690451
 30
0.0
 42
0.007967767792089
 70
     1
  0
VERTEX
  5
FB42
  8
0
 10
268.41929587102749
 20
212.9968011648495
 30
0.0
 42
0.001195442477537
  0
VERTEX
  5
FB83
  8
0
 10
268.52506928794719
 20
212.85381946325111
 30
0.0
 42
0.0035880803170269
 70
     1
  0
VERTEX
  5
FB43
  8
0
 10
268.5607644045262
 20
212.80652096033779
 30
0.0
 42
0.0170010419458204
  0
VERTEX
  5
FB84
  8
0
 10
268.69231415887231
 20
212.64637071825931
 30
0.0
 42
0.0098950940005907
 70
     1
  0
VERTEX
  5
FB44
  8
0
 10
268.93275389434888
 20
212.3838115108386
 30
0.0
 42
0.0083846470096121
  0
VERTEX
  5
FB85
  8
0
 10
269.08577894552758
 20
212.2285083572369
 30
0.0
 42
0.0077021537797229
 70
     1
  0
VERTEX
  5
FB45
  8
0
 10
269.25771392096141
 20
212.06489155969669
 30
0.0
 42
0.013877005075235
  0
VERTEX
  5
FB86
  8
0
 10
269.43927233932482
 20
211.90646740419831
 30
0.0
 42
0.0104068069516932
 70
     1
  0
VERTEX
  5
FB46
  8
0
 10
269.69132098187629
 20
211.70723482525889
 30
0.0
 42
0.0162892418688535
  0
VERTEX
  5
FB87
  8
0
 10
269.8858575194954
 20
211.56966966115581
 30
0.0
 42
0.0135076628754963
 70
     1
  0
VERTEX
  5
FB47
  8
0
 10
270.12989719629672
 20
211.41805443997299
 30
0.0
 42
0.0226992775838891
  0
VERTEX
  5
FB88
  8
0
 10
270.37378767114291
 20
211.28999228724891
 30
0.0
 42
0.0411482493142772
 70
     1
  0
VERTEX
  5
FB48
  8
0
 10
270.51639485964853
 20
211.2369860186794
 30
0.0
 42
0.0143851443607864
  0
VERTEX
  5
FB8A
  8
0
 10
270.59662645611212
 20
211.21693900969149
 30
0.0
 42
0.0088747091223963
 70
     1
  0
VERTEX
  5
FB49
  8
0
 10
270.72802850195723
 20
211.19053037837909
 30
0.0
 42
0.0161228424884914
  0
VERTEX
  5
FB89
  8
0
 10
270.75432829693
 20
211.1866001482058
 30
0.0
 42
0.0071363121136205
 70
     1
  0
VERTEX
  5
FB4A
  8
0
 10
270.81408270785192
 20
211.18049444631509
 30
0.0
  0
SEQEND
  5
FB4B
  8
0
  0
LINE
  5
FB8B
  8
0
 10
271.42414369770842
 20
218.1535114534276
 30
0.0
 11
270.81408361306097
 21
211.18049332982369
 31
0.0
  0
LINE
  5
FB8C
  8
0
 10
271.42418760630522
 20
218.15401333046279
 30
0.0
 11
275.52049526163893
 21
264.97500697151588
 31
0.0
  0
POLYLINE
  5
FB8D
  8
0
 66
     1
 10
0.0
 20
0.0
 30
0.0
 70
     2
  0
VERTEX
  5
FB8E
  8
0
 10
260.29679098316979
 20
268.1228204630392
 30
0.0
 42
0.0237206795019099
  0
VERTEX
  5
FBB4
  8
0
 10
260.46898666744983
 20
268.01191659849201
 30
0.0
 42
0.0467691182735666
 70
     1
  0
VERTEX
  5
FB8F
  8
0
 10
260.56350918177668
 20
267.9684196577528
 30
0.0
 42
0.0060031977753754
  0
VERTEX
  5
FBB5
  8
0
 10
260.84933447464749
 20
267.87185449564959
 30
0.0
 42
0.0240775113098949
 70
     1
  0
VERTEX
  5
FB90
  8
0
 10
260.92195666689082
 20
267.85209500469
 30
0.0
 42
0.0023889764820791
  0
VERTEX
  5
FBB6
  8
0
 10
261.10721778009429
 20
267.81207865315451
 30
0.0
 42
0.0053780431869809
 70
     1
  0
VERTEX
  5
FB91
  8
0
 10
261.18978058081598
 20
267.79558309006069
 30
0.0
 42
0.0031329780607529
  0
VERTEX
  5
FBB7
  8
0
 10
261.32609091605582
 20
267.77075402130367
 30
0.0
 42
-0.0023622109054127
 70
     1
  0
VERTEX
  5
FB92
  8
0
 10
261.50692781008269
 20
267.73810232638073
 30
0.0
 42
-0.0064361186454827
  0
VERTEX
  5
FBB8
  8
0
 10
261.68878026265338
 20
267.70195210312158
 30
0.0
 42
-0.0034815245638478
 70
     1
  0
VERTEX
  5
FB93
  8
0
 10
262.02356029511537
 20
267.62847056117181
 30
0.0
 42
-0.0242852771403166
  0
VERTEX
  5
FBB9
  8
0
 10
262.18146490693471
 20
267.58449880051381
 30
0.0
 42
-0.0190020758575698
 70
     1
  0
VERTEX
  5
FB94
  8
0
 10
262.37761336974631
 20
267.51108188413809
 30
0.0
 42
-0.0556139544592282
  0
VERTEX
  5
FBBA
  8
0
 10
262.61247331025919
 20
267.38055346710013
 30
0.0
 42
-0.0443985949498337
 70
     1
  0
VERTEX
  5
FB95
  8
0
 10
262.86805975717471
 20
267.16214822919881
 30
0.0
 42
-0.005805869560656
  0
VERTEX
  5
FBBB
  8
0
 10
263.14573690129868
 20
266.8719368424554
 30
0.0
 42
-0.0072416894109491
 70
     1
  0
VERTEX
  5
FB96
  8
0
 10
263.36221608230312
 20
266.63353222300958
 30
0.0
 42
-0.0007963716249478
  0
VERTEX
  5
FBBC
  8
0
 10
263.68179130974568
 20
266.27001561845282
 30
0.0
 42
-0.0039647894091986
 70
     1
  0
VERTEX
  5
FB97
  8
0
 10
263.74528429067141
 20
266.19639027606371
 30
0.0
 42
-0.0028606037632442
  0
VERTEX
  5
FBBD
  8
0
 10
263.9774220585295
 20
265.9196576493942
 30
0.0
 42
-0.0039660403907613
 70
     1
  0
VERTEX
  5
FB98
  8
0
 10
264.1421176432745
 20
265.71778858672099
 30
0.0
 42
-0.0014553361839522
  0
VERTEX
  5
FBBE
  8
0
 10
264.28279868569922
 20
265.54148581150548
 30
0.0
 42
-0.0011288265746818
 70
     1
  0
VERTEX
  5
FB99
  8
0
 10
264.46299396876952
 20
265.31325384207929
 30
0.0
 42
-0.0018867036398069
  0
VERTEX
  5
FBBF
  8
0
 10
264.58405665313882
 20
265.15800201436832
 30
0.0
 42
-0.0008232827814486
 70
     1
  0
VERTEX
  5
FB9A
  8
0
 10
264.85956080073151
 20
264.80071650983211
 30
0.0
 42
-0.0063968845883573
  0
VERTEX
  5
FBC0
  8
0
 10
265.02504121213678
 20
264.57958337682982
 30
0.0
 42
-0.002672280885683
 70
     1
  0
VERTEX
  5
FB9B
  8
0
 10
265.411487842528
 20
264.0431572558191
 30
0.0
 42
-0.0135374047750105
  0
VERTEX
  5
FBC1
  8
0
 10
265.87334992467908
 20
263.35614352737872
 30
0.0
 42
-0.010386161660856
 70
     1
  0
VERTEX
  5
FB9C
  8
0
 10
266.43178695450712
 20
262.43298744408122
 30
0.0
 42
-0.0076024050282556
  0
VERTEX
  5
FBC2
  8
0
 10
266.74036131602952
 20
261.8788020367374
 30
0.0
 42
-0.0071238359695552
 70
     1
  0
VERTEX
  5
FB9D
  8
0
 10
267.05210445146821
 20
261.27795072732192
 30
0.0
 42
-0.0101310435853145
  0
VERTEX
  5
FBC3
  8
0
 10
267.41199703634078
 20
260.52154185976718
 30
0.0
 42
-0.0094725294227319
 70
     1
  0
VERTEX
  5
FB9E
  8
0
 10
267.76489923339682
 20
259.69809409490222
 30
0.0
 42
-0.0098784650238983
  0
VERTEX
  5
FBC4
  8
0
 10
268.072454627345
 20
258.89608860088453
 30
0.0
 42
-0.0089421013315908
 70
     1
  0
VERTEX
  5
FB9F
  8
0
 10
268.37862866655968
 20
257.99795965128322
 30
0.0
 42
-0.0083120372644969
  0
VERTEX
  5
FBC5
  8
0
 10
268.6599388699197
 20
257.06898305696268
 30
0.0
 42
-0.0082244657027127
 70
     1
  0
VERTEX
  5
FBA0
  8
0
 10
268.91304372095283
 20
256.12122887856532
 30
0.0
 42
-0.0084334136982066
  0
VERTEX
  5
FBC6
  8
0
 10
269.3332262353515
 20
254.30750380874269
 30
0.0
 42
-0.0073792933141218
 70
     1
  0
VERTEX
  5
FBA1
  8
0
 10
269.74764288434682
 20
252.22057838552431
 30
0.0
 42
-0.0012703316091467
  0
VERTEX
  5
FBC7
  8
0
 10
270.0201508292285
 20
250.712144826577
 30
0.0
 42
-0.0027601579928463
 70
     1
  0
VERTEX
  5
FBA2
  8
0
 10
270.13997000515411
 20
250.0169126771348
 30
0.0
 42
-0.0023475535519308
  0
VERTEX
  5
FBC8
  8
0
 10
270.42084709073612
 20
248.28142611373369
 30
0.0
 42
-0.0032702721681377
 70
     1
  0
VERTEX
  5
FBA3
  8
0
 10
270.60846479354001
 20
247.03341990627729
 30
0.0
 42
-0.0021814150076839
  0
VERTEX
  5
FBC9
  8
0
 10
270.7876196260695
 20
245.7464064885371
 30
0.0
 42
-0.0025021550278351
 70
     1
  0
VERTEX
  5
FBA4
  8
0
 10
270.93329266744848
 20
244.62295405294819
 30
0.0
 42
-0.0017282732474074
  0
VERTEX
  5
FBCA
  8
0
 10
271.03802431406979
 20
243.75791544651469
 30
0.0
 42
-0.0015532536872422
 70
     1
  0
VERTEX
  5
FBA5
  8
0
 10
271.14823752014831
 20
242.7946613613916
 30
0.0
 42
-0.0034219409902495
  0
VERTEX
  5
FBCB
  8
0
 10
271.31389341090932
 20
241.20712979534619
 30
0.0
 42
-0.0035027954189371
 70
     1
  0
VERTEX
  5
FBA6
  8
0
 10
271.45423186089852
 20
239.65414960413511
 30
0.0
 42
-0.0019345988098877
  0
VERTEX
  5
FBCC
  8
0
 10
271.55930186516889
 20
238.33108238216121
 30
0.0
 42
-0.0026335140481309
 70
     1
  0
VERTEX
  5
FBA7
  8
0
 10
271.6276043838925
 20
237.35847974752869
 30
0.0
 42
-0.0011325902796231
  0
VERTEX
  5
FBCD
  8
0
 10
271.6788429461522
 20
236.54076991952931
 30
0.0
 42
-0.001419072426086
 70
     1
  0
VERTEX
  5
FBA8
  8
0
 10
271.71640639903148
 20
235.88793856355309
 30
0.0
 42
-0.0022351302116588
  0
VERTEX
  5
FBCE
  8
0
 10
271.77123057099737
 20
234.79603347512059
 30
0.0
 42
-0.0022440752238902
 70
     1
  0
VERTEX
  5
FBA9
  8
0
 10
271.81609142410298
 20
233.70803520613501
 30
0.0
 42
-0.0017605831746546
  0
VERTEX
  5
FBCF
  8
0
 10
271.8483847346651
 20
232.73569722582209
 30
0.0
 42
-0.0020202265914417
 70
     1
  0
VERTEX
  5
FBAA
  8
0
 10
271.8701194334194
 20
231.88813658723399
 30
0.0
 42
-0.0014158652878068
  0
VERTEX
  5
FBD0
  8
0
 10
271.88680583098039
 20
230.99906005568661
 30
0.0
 42
-0.0017379895629816
 70
     1
  0
VERTEX
  5
FBAB
  8
0
 10
271.89583066769342
 20
230.27469560294509
 30
0.0
 42
-0.0014287555715393
  0
VERTEX
  5
FBD1
  8
0
 10
271.90108732632331
 20
229.41645435084681
 30
0.0
 42
-0.0017424746235535
 70
     1
  0
VERTEX
  5
FBAC
  8
0
 10
271.90093418507701
 20
228.71271890158519
 30
0.0
 42
-0.0011756526698188
  0
VERTEX
  5
FBD2
  8
0
 10
271.89631102166072
 20
227.9490564670505
 30
0.0
 42
-0.0014997740904227
 70
     1
  0
VERTEX
  5
FBAD
  8
0
 10
271.88948389653177
 20
227.35045923274151
 30
0.0
 42
-0.0009499923580818
  0
VERTEX
  5
FBD3
  8
0
 10
271.88058479225771
 20
226.8046923329039
 30
0.0
 42
-0.0009870514324101
 70
     1
  0
VERTEX
  5
FBAE
  8
0
 10
271.86998491109262
 20
226.2794534627069
 30
0.0
 42
-0.0013637076713911
  0
VERTEX
  5
FBD4
  8
0
 10
271.8564491366123
 20
225.7355199388785
 30
0.0
 42
-0.0010208428340154
 70
     1
  0
VERTEX
  5
FBAF
  8
0
 10
271.83490208335729
 20
225.00899356200279
 30
0.0
 42
-0.0018317836576139
  0
VERTEX
  5
FBD5
  8
0
 10
271.81147511012023
 20
224.3466332870394
 30
0.0
 42
-0.0011786976812269
 70
     1
  0
VERTEX
  5
FBB0
  8
0
 10
271.7688709216909
 20
223.3175161582912
 30
0.0
 42
-0.0019883562821329
  0
VERTEX
  5
FBD7
  8
0
 10
271.7678501044702
 20
223.29613576396699
 30
0.0
 42
-0.000028170480532
 70
     1
  0
VERTEX
  5
FBB1
  8
0
 10
271.68971246091519
 20
221.78735278389831
 30
0.0
 42
-0.0052884912156335
  0
VERTEX
  5
FBD6
  8
0
 10
271.59558433019947
 20
220.2802548216587
 30
0.0
 42
-0.0037427516415422
 70
     1
  0
VERTEX
  5
FBB2
  8
0
 10
271.42414369770842
 20
218.1535114534276
 30
0.0
  0
SEQEND
  5
FBB3
  8
0
  0
LINE
  5
FBD8
  8
0
 10
259.9941853916489
 20
267.73468235478299
 30
0.0
 11
260.29679098316979
 21
268.1228204630392
 31
0.0
  0
LINE
  5
FBD9
  8
0
 10
277.29724266716789
 20
273.81042372436087
 30
0.0
 11
277.79918828198271
 21
273.8100257003756
 31
0.0
  0
LINE
  5
FBDA
  8
0
 10
277.79918828198271
 20
273.8100257003756
 30
0.0
 11
277.01486670253331
 21
264.84426590387801
 31
0.0
  0
POLYLINE
  5
FBDB
  8
0
 66
     1
 10
0.0
 20
0.0
 30
0.0
 70
     2
  0
VERTEX
  5
FBDC
  8
0
 10
277.29724266716789
 20
273.81042372436087
 30
0.0
 42
-0.000101410227939
  0
VERTEX
  5
FBED
  8
0
 10
277.28304357944398
 20
273.70362829240372
 30
0.0
 42
-0.0002595874820416
 70
     1
  0
VERTEX
  5
FBDD
  8
0
 10
277.277466454766
 20
273.6619116915341
 30
0.0
 42
-0.0000021680839263
  0
VERTEX
  5
FBEE
  8
0
 10
277.24720835454173
 20
273.43648127359671
 30
0.0
 42
-0.0000522343279129
 70
     1
  0
VERTEX
  5
FBDE
  8
0
 10
277.24595141644551
 20
273.42712448927858
 30
0.0
 42
-0.0012681247434688
  0
VERTEX
  5
FBEF
  8
0
 10
277.22129586656052
 20
273.24718815237611
 30
0.0
 42
-0.0007263875534146
 70
     1
  0
VERTEX
  5
FBDF
  8
0
 10
277.17699961049522
 20
272.93323049062963
 30
0.0
 42
-0.0022929314519472
  0
VERTEX
  5
FBF0
  8
0
 10
277.15555975464849
 20
272.78763277416328
 30
0.0
 42
-0.001210359932805
 70
     1
  0
VERTEX
  5
FBE0
  8
0
 10
277.11301223560048
 20
272.51210177395097
 30
0.0
 42
-0.0036692697316113
  0
VERTEX
  5
FBF1
  8
0
 10
277.07353569249238
 20
272.2720168566247
 30
0.0
 42
-0.0031285303954598
 70
     1
  0
VERTEX
  5
FBE1
  8
0
 10
277.02341229784179
 20
271.99109185071171
 30
0.0
 42
-0.0042472587770917
  0
VERTEX
  5
FBF2
  8
0
 10
276.9708544743425
 20
271.71973474331929
 30
0.0
 42
-0.0040143417483764
 70
     1
  0
VERTEX
  5
FBE2
  8
0
 10
276.91051129397471
 20
271.43359166831419
 30
0.0
 42
-0.0021425739896621
  0
VERTEX
  5
FBF3
  8
0
 10
276.85280145257821
 20
271.17570538154717
 30
0.0
 42
-0.0030187201233283
 70
     1
  0
VERTEX
  5
FBE3
  8
0
 10
276.80995377885142
 20
270.99309912957642
 30
0.0
 42
-0.0019370622288368
  0
VERTEX
  5
FBF4
  8
0
 10
276.7044526584632
 20
270.5627056571048
 30
0.0
 42
-0.0018844362687676
 70
     1
  0
VERTEX
  5
FBE4
  8
0
 10
276.59262711342348
 20
270.12113460883711
 30
0.0
 42
-0.0002036346482054
  0
VERTEX
  5
FBF5
  8
0
 10
276.49884589289923
 20
269.75720907685081
 30
0.0
 42
0.0004831702842751
 70
     1
  0
VERTEX
  5
FBE5
  8
0
 10
276.4050646723752
 20
269.39328354486457
 30
0.0
 42
0.000078532253195
  0
VERTEX
  5
FBF6
  8
0
 10
276.35738043767742
 20
269.2073770341031
 30
0.0
 42
0.0000573914770624
 70
     1
  0
VERTEX
  5
FBE6
  8
0
 10
276.29220035223619
 20
268.95297210400003
 30
0.0
 42
0.0010102741528037
  0
VERTEX
  5
FBF7
  8
0
 10
276.24496748724602
 20
268.7669660039046
 30
0.0
 42
0.0003449088567254
 70
     1
  0
VERTEX
  5
FBE7
  8
0
 10
276.10809480216972
 20
268.22176217631898
 30
0.0
 42
0.0030521471862582
  0
VERTEX
  5
FBF8
  8
0
 10
276.02159238755672
 20
267.86700934136212
 30
0.0
 42
0.0022419401264823
 70
     1
  0
VERTEX
  5
FBE8
  8
0
 10
275.90894975745891
 20
267.38283587217421
 30
0.0
 42
0.0060216289266875
  0
VERTEX
  5
FBF9
  8
0
 10
275.82780811950943
 20
267.00594645375708
 30
0.0
 42
0.0059036451948742
 70
     1
  0
VERTEX
  5
FBE9
  8
0
 10
275.75423620209182
 20
266.61966107602808
 30
0.0
 42
0.0042009229398587
  0
VERTEX
  5
FBFB
  8
0
 10
275.75010382606888
 20
266.59529499751261
 30
0.0
 42
0.0001737995115396
 70
     1
  0
VERTEX
  5
FBEA
  8
0
 10
275.65537823216761
 20
266.0054994367643
 30
0.0
 42
0.0071871504945612
  0
VERTEX
  5
FBFA
  8
0
 10
275.59692256091512
 20
265.60385445066822
 30
0.0
 42
0.0046047720312455
 70
     1
  0
VERTEX
  5
FBEB
  8
0
 10
275.52049526163893
 20
264.97500697151588
 30
0.0
  0
SEQEND
  5
FBEC
  8
0
  0
POLYLINE
  5
FC0F
  8
0
 66
     1
 10
0.0
 20
0.0
 30
0.0
 70
     2
  0
VERTEX
  5
FC10
  8
0
 10
258.87197175213652
 20
275.4659424419591
 30
0.0
 42
-0.0089229398747224
  0
VERTEX
  5
FC25
  8
0
 10
258.95493332968732
 20
276.01933678277601
 30
0.0
 42
-0.0149997819015796
 70
     1
  0
VERTEX
  5
FC11
  8
0
 10
259.01998151596467
 20
276.34584576228877
 30
0.0
 42
-0.0011193934277799
  0
VERTEX
  5
FC26
  8
0
 10
259.16808982254042
 20
276.98159318197031
 30
0.0
 42
-0.0109351708877024
 70
     1
  0
VERTEX
  5
FC12
  8
0
 10
259.18481749375752
 20
277.04629558531269
 30
0.0
 42
-0.0122485959594465
  0
VERTEX
  5
FC27
  8
0
 10
259.31205128790589
 20
277.45854456107742
 30
0.0
 42
-0.0114973926683782
 70
     1
  0
VERTEX
  5
FC13
  8
0
 10
259.468291426127
 20
277.890791059751
 30
0.0
 42
-0.0030838305433861
  0
VERTEX
  5
FC28
  8
0
 10
259.49877637426653
 20
277.96800861009427
 30
0.0
 42
-0.0015651976947035
 70
     1
  0
VERTEX
  5
FC14
  8
0
 10
259.56025087156848
 20
278.11958037209467
 30
0.0
 42
-0.0209078793602905
  0
VERTEX
  5
FC29
  8
0
 10
259.89761668776282
 20
278.85470903614618
 30
0.0
 42
-0.0219245677705457
 70
     1
  0
VERTEX
  5
FC15
  8
0
 10
260.27814717741421
 20
279.52568518608263
 30
0.0
 42
-0.0085172757536042
  0
VERTEX
  5
FC2A
  8
0
 10
260.54600576832308
 20
279.93741441254502
 30
0.0
 42
-0.0124848292030567
 70
     1
  0
VERTEX
  5
FC16
  8
0
 10
260.74039105098109
 20
280.2104021267059
 30
0.0
 42
-0.0042078106701823
  0
VERTEX
  5
FC2B
  8
0
 10
260.92227707689563
 20
280.44859080841519
 30
0.0
 42
-0.006273662483427
 70
     1
  0
VERTEX
  5
FC17
  8
0
 10
261.04759450548107
 20
280.60575762128718
 30
0.0
 42
-0.0106321131924042
  0
VERTEX
  5
FC2C
  8
0
 10
261.30530553653813
 20
280.907451386498
 30
0.0
 42
-0.0099133018000679
 70
     1
  0
VERTEX
  5
FC18
  8
0
 10
261.59475710143829
 20
281.21938937648059
 30
0.0
 42
-0.0073113710533924
  0
VERTEX
  5
FC2D
  8
0
 10
261.73354929552261
 20
281.35899587089989
 30
0.0
 42
-0.0047042018356934
 70
     1
  0
VERTEX
  5
FC19
  8
0
 10
261.95440757978213
 20
281.57072270908861
 30
0.0
 42
-0.015695198950038
  0
VERTEX
  5
FC2E
  8
0
 10
262.3599892452948
 20
281.92896182742243
 30
0.0
 42
-0.0142701616489028
 70
     1
  0
VERTEX
  5
FC1A
  8
0
 10
262.82884967679178
 20
282.29553616044342
 30
0.0
 42
-0.0111769336629333
  0
VERTEX
  5
FC2F
  8
0
 10
263.22464851890982
 20
282.57374847397978
 30
0.0
 42
-0.0158826943214829
 70
     1
  0
VERTEX
  5
FC1B
  8
0
 10
263.51339795416379
 20
282.75420226633338
 30
0.0
 42
-0.0061496315299857
  0
VERTEX
  5
FC30
  8
0
 10
263.72597146539192
 20
282.87436648144472
 30
0.0
 42
-0.0035073172840539
 70
     1
  0
VERTEX
  5
FC1C
  8
0
 10
264.1026817608651
 20
283.0778163839513
 30
0.0
 42
-0.0085600651904096
  0
VERTEX
  5
FC31
  8
0
 10
264.49504459910889
 20
283.27764341050442
 30
0.0
 42
-0.0146446750253048
 70
     1
  0
VERTEX
  5
FC1D
  8
0
 10
264.72959214040588
 20
283.38369568810629
 30
0.0
 42
-0.0374967020501627
  0
VERTEX
  5
FC32
  8
0
 10
265.00025289866221
 20
283.47351013775727
 30
0.0
 42
-0.0153107156097706
 70
     1
  0
VERTEX
  5
FC1E
  8
0
 10
265.68180500117001
 20
283.62221801761967
 30
0.0
 42
-0.0065873836498594
  0
VERTEX
  5
FC33
  8
0
 10
266.23241731710408
 20
283.71731811467981
 30
0.0
 42
-0.0127269926115844
 70
     1
  0
VERTEX
  5
FC1F
  8
0
 10
266.51913187231639
 20
283.75550321730299
 30
0.0
 42
-0.0131111190771208
  0
VERTEX
  5
FC34
  8
0
 10
266.9812305874475
 20
283.79288928219671
 30
0.0
 42
-0.0125937373939215
 70
     1
  0
VERTEX
  5
FC20
  8
0
 10
267.463671483599
 20
283.80703957522911
 30
0.0
 42
-0.0076215598120099
  0
VERTEX
  5
FC35
  8
0
 10
267.8251575848808
 20
283.80302447461639
 30
0.0
 42
-0.0108245524712421
 70
     1
  0
VERTEX
  5
FC21
  8
0
 10
268.07941727108351
 20
283.79081118018883
 30
0.0
 42
-0.0131906583007597
  0
VERTEX
  5
FC37
  8
0
 10
268.20240531237317
 20
283.7789647109858
 30
0.0
 42
-0.0020259443280788
 70
     1
  0
VERTEX
  5
FC22
  8
0
 10
269.00031117924118
 20
283.67752217333532
 30
0.0
 42
-0.0143191797771218
  0
VERTEX
  5
FC36
  8
0
 10
269.19618577607253
 20
283.64608367946022
 30
0.0
 42
-0.0066003304851486
 70
     1
  0
VERTEX
  5
FC23
  8
0
 10
269.6178361136611
 20
283.56017945335083
 30
0.0
  0
SEQEND
  5
FC24
  8
0
  0
POLYLINE
  5
FC38
  8
0
 66
     1
 10
0.0
 20
0.0
 30
0.0
 70
     2
  0
VERTEX
  5
FC39
  8
0
 10
272.6370013613398
 20
282.75119727478187
 30
0.0
 42
-0.0100822152101117
  0
VERTEX
  5
FC44
  8
0
 10
273.09519905423082
 20
282.52327881111069
 30
0.0
 42
-0.020529694852637
 70
     1
  0
VERTEX
  5
FC3A
  8
0
 10
273.3130220115961
 20
282.39774998664529
 30
0.0
 42
-0.0046096373014441
  0
VERTEX
  5
FC45
  8
0
 10
274.02490076301729
 20
281.93836384507091
 30
0.0
 42
-0.0133941524368326
 70
     1
  0
VERTEX
  5
FC3B
  8
0
 10
274.26408370410007
 20
281.77152146086132
 30
0.0
 42
-0.0244052104596548
  0
VERTEX
  5
FC46
  8
0
 10
274.86473322572238
 20
281.28114431349508
 30
0.0
 42
-0.0246892109501182
 70
     1
  0
VERTEX
  5
FC3C
  8
0
 10
275.40811259635302
 20
280.7405409359402
 30
0.0
 42
-0.0091856835997094
  0
VERTEX
  5
FC47
  8
0
 10
275.77560038613592
 20
280.32173086940202
 30
0.0
 42
-0.0150478826834436
 70
     1
  0
VERTEX
  5
FC3D
  8
0
 10
275.98730747127928
 20
280.05547133540438
 30
0.0
 42
-0.0090757719559423
  0
VERTEX
  5
FC48
  8
0
 10
276.26960715418858
 20
279.66296470435373
 30
0.0
 42
-0.0125126548019479
 70
     1
  0
VERTEX
  5
FC3E
  8
0
 10
276.4619023745779
 20
279.36967465735609
 30
0.0
 42
-0.0094319180647885
  0
VERTEX
  5
FC49
  8
0
 10
276.66752023307532
 20
279.0238731663722
 30
0.0
 42
-0.0106727405818941
 70
     1
  0
VERTEX
  5
FC3F
  8
0
 10
276.83680595978308
 20
278.71120974614342
 30
0.0
 42
-0.009336147802623
  0
VERTEX
  5
FC4A
  8
0
 10
277.0188213265028
 20
278.34032124372419
 30
0.0
 42
-0.0132433516740647
 70
     1
  0
VERTEX
  5
FC40
  8
0
 10
277.1352129884624
 20
278.07330711459412
 30
0.0
 42
-0.0074089803460408
  0
VERTEX
  5
FC4C
  8
0
 10
277.16046745064341
 20
278.00814982133488
 30
0.0
 42
-0.00097772338258
 70
     1
  0
VERTEX
  5
FC41
  8
0
 10
277.34352229732258
 20
277.5112881564321
 30
0.0
 42
-0.0121716507762321
  0
VERTEX
  5
FC4B
  8
0
 10
277.41339150194648
 20
277.30508391600051
 30
0.0
 42
-0.0066612232697613
 70
     1
  0
VERTEX
  5
FC42
  8
0
 10
277.52676897832703
 20
276.92379876972012
 30
0.0
  0
SEQEND
  5
FC43
  8
0
  0
POLYLINE
  5
FC4D
  8
0
 66
     1
 10
0.0
 20
0.0
 30
0.0
 70
     2
  0
VERTEX
  5
FC4E
  8
0
 10
272.63700136133963
 20
32.426517474621477
 30
0.0
 42
0.0100822152101117
  0
VERTEX
  5
FC4F
  8
0
 10
273.09519905423048
 20
32.654435938292721
 30
0.0
 42
0.020529694852637
 70
     1
  0
VERTEX
  5
FC50
  8
0
 10
273.31302201159588
 20
32.779964762758119
 30
0.0
 42
0.0046096373014441
  0
VERTEX
  5
FC51
  8
0
 10
274.02490076301711
 20
33.239350904332561
 30
0.0
 42
0.0133941524368326
 70
     1
  0
VERTEX
  5
FC52
  8
0
 10
274.2640837040999
 20
33.406193288542077
 30
0.0
 42
0.0244052104596548
  0
VERTEX
  5
FC53
  8
0
 10
274.86473322572209
 20
33.896570435908266
 30
0.0
 42
0.0246892109501182
 70
     1
  0
VERTEX
  5
FC54
  8
0
 10
275.40811259635279
 20
34.437173813463261
 30
0.0
 42
0.0091856835997094
  0
VERTEX
  5
FC55
  8
0
 10
275.77560038613569
 20
34.855983880001389
 30
0.0
 42
0.0150478826834436
 70
     1
  0
VERTEX
  5
FC56
  8
0
 10
275.98730747127911
 20
35.122243413998973
 30
0.0
 42
0.0090757719559423
  0
VERTEX
  5
FC57
  8
0
 10
276.26960715418841
 20
35.514750045049681
 30
0.0
 42
0.0125126548019479
 70
     1
  0
VERTEX
  5
FC58
  8
0
 10
276.46190237457768
 20
35.808040092047257
 30
0.0
 42
0.0094319180647885
  0
VERTEX
  5
FC59
  8
0
 10
276.66752023307509
 20
36.153841583031273
 30
0.0
 42
0.0106727405818941
 70
     1
  0
VERTEX
  5
FC5A
  8
0
 10
276.83680595978291
 20
36.466505003259989
 30
0.0
 42
0.009336147802623
  0
VERTEX
  5
FC5B
  8
0
 10
277.01882132650258
 20
36.837393505679159
 30
0.0
 42
0.0132433516740647
 70
     1
  0
VERTEX
  5
FC5C
  8
0
 10
277.13521298846217
 20
37.104407634809348
 30
0.0
 42
0.0074089803460408
  0
VERTEX
  5
FC5D
  8
0
 10
277.16046745064318
 20
37.169564928068532
 30
0.0
 42
0.00097772338258
 70
     1
  0
VERTEX
  5
FC5E
  8
0
 10
277.34352229732229
 20
37.666426592971362
 30
0.0
 42
0.0121716507762321
  0
VERTEX
  5
FC5F
  8
0
 10
277.41339150194631
 20
37.872630833402901
 30
0.0
 42
0.0066612232697613
 70
     1
  0
VERTEX
  5
FC60
  8
0
 10
277.5267689783268
 20
38.253915979683342
 30
0.0
  0
SEQEND
  5
FC61
  8
0
  0
POLYLINE
  5
FC62
  8
0
 66
     1
 10
0.0
 20
0.0
 30
0.0
 70
     2
  0
VERTEX
  5
FC63
  8
0
 10
258.87197175213618
 20
39.711772307444299
 30
0.0
 42
0.0089229398747224
  0
VERTEX
  5
FC64
  8
0
 10
258.95493332968698
 20
39.158377966627398
 30
0.0
 42
0.0149997819015796
 70
     1
  0
VERTEX
  5
FC65
  8
0
 10
259.01998151596439
 20
38.831868987114632
 30
0.0
 42
0.0011193934277799
  0
VERTEX
  5
FC66
  8
0
 10
259.1680898225402
 20
38.196121567433103
 30
0.0
 42
0.0109351708877024
 70
     1
  0
VERTEX
  5
FC67
  8
0
 10
259.18481749375729
 20
38.131419164090723
 30
0.0
 42
0.0122485959594465
  0
VERTEX
  5
FC68
  8
0
 10
259.31205128790572
 20
37.719170188326054
 30
0.0
 42
0.0114973926683782
 70
     1
  0
VERTEX
  5
FC69
  8
0
 10
259.46829142612683
 20
37.286923689652362
 30
0.0
 42
0.0030838305433861
  0
VERTEX
  5
FC6A
  8
0
 10
259.4987763742663
 20
37.209706139309077
 30
0.0
 42
0.0015651976947035
 70
     1
  0
VERTEX
  5
FC6B
  8
0
 10
259.56025087156831
 20
37.058134377308683
 30
0.0
 42
0.0209078793602905
  0
VERTEX
  5
FC6C
  8
0
 10
259.89761668776259
 20
36.323005713257182
 30
0.0
 42
0.0219245677705457
 70
     1
  0
VERTEX
  5
FC6D
  8
0
 10
260.27814717741398
 20
35.652029563320781
 30
0.0
 42
0.0085172757536042
  0
VERTEX
  5
FC6E
  8
0
 10
260.54600576832291
 20
35.240300336858439
 30
0.0
 42
0.0124848292030567
 70
     1
  0
VERTEX
  5
FC6F
  8
0
 10
260.74039105098092
 20
34.96731262269757
 30
0.0
 42
0.0042078106701823
  0
VERTEX
  5
FC70
  8
0
 10
260.9222770768954
 20
34.72912394098816
 30
0.0
 42
0.006273662483427
 70
     1
  0
VERTEX
  5
FC71
  8
0
 10
261.0475945054809
 20
34.571957128116168
 30
0.0
 42
0.0106321131924042
  0
VERTEX
  5
FC72
  8
0
 10
261.30530553653779
 20
34.270263362905411
 30
0.0
 42
0.0099133018000679
 70
     1
  0
VERTEX
  5
FC73
  8
0
 10
261.59475710143801
 20
33.958325372922822
 30
0.0
 42
0.0073113710533924
  0
VERTEX
  5
FC74
  8
0
 10
261.73354929552238
 20
33.818718878503518
 30
0.0
 42
0.0047042018356934
 70
     1
  0
VERTEX
  5
FC75
  8
0
 10
261.9544075797819
 20
33.60699204031485
 30
0.0
 42
0.015695198950038
  0
VERTEX
  5
FC76
  8
0
 10
262.35998924529463
 20
33.24875292198098
 30
0.0
 42
0.0142701616489028
 70
     1
  0
VERTEX
  5
FC77
  8
0
 10
262.82884967679161
 20
32.882178588960038
 30
0.0
 42
0.0111769336629333
  0
VERTEX
  5
FC78
  8
0
 10
263.22464851890959
 20
32.60396627542363
 30
0.0
 42
0.0158826943214829
 70
     1
  0
VERTEX
  5
FC79
  8
0
 10
263.51339795416351
 20
32.423512483070027
 30
0.0
 42
0.0061496315299857
  0
VERTEX
  5
FC7A
  8
0
 10
263.72597146539169
 20
32.303348267958739
 30
0.0
 42
0.0035073172840539
 70
     1
  0
VERTEX
  5
FC7B
  8
0
 10
264.10268176086493
 20
32.099898365452049
 30
0.0
 42
0.0085600651904096
  0
VERTEX
  5
FC7C
  8
0
 10
264.49504459910872
 20
31.900071338898979
 30
0.0
 42
0.0146446750253048
 70
     1
  0
VERTEX
  5
FC7D
  8
0
 10
264.72959214040571
 20
31.794019061297121
 30
0.0
 42
0.0374967020501627
  0
VERTEX
  5
FC7E
  8
0
 10
265.00025289866198
 20
31.70420461164608
 30
0.0
 42
0.0153107156097706
 70
     1
  0
VERTEX
  5
FC7F
  8
0
 10
265.68180500116978
 20
31.555496731783741
 30
0.0
 42
0.0065873836498594
  0
VERTEX
  5
FC80
  8
0
 10
266.23241731710391
 20
31.460396634723601
 30
0.0
 42
0.0127269926115844
 70
     1
  0
VERTEX
  5
FC81
  8
0
 10
266.51913187231622
 20
31.42221153210042
 30
0.0
 42
0.0131111190771208
  0
VERTEX
  5
FC82
  8
0
 10
266.98123058744733
 20
31.384825467206699
 30
0.0
 42
0.0125937373939215
 70
     1
  0
VERTEX
  5
FC83
  8
0
 10
267.46367148359877
 20
31.370675174174352
 30
0.0
 42
0.0076215598120099
  0
VERTEX
  5
FC84
  8
0
 10
267.82515758488063
 20
31.374690274787071
 30
0.0
 42
0.0108245524712421
 70
     1
  0
VERTEX
  5
FC85
  8
0
 10
268.07941727108317
 20
31.386903569214638
 30
0.0
 42
0.0131906583007597
  0
VERTEX
  5
FC86
  8
0
 10
268.202405312373
 20
31.39875003841766
 30
0.0
 42
0.0020259443280788
 70
     1
  0
VERTEX
  5
FC87
  8
0
 10
269.0003111792409
 20
31.500192576068091
 30
0.0
 42
0.0143191797771218
  0
VERTEX
  5
FC88
  8
0
 10
269.1961857760723
 20
31.531631069943248
 30
0.0
 42
0.0066003304851486
 70
     1
  0
VERTEX
  5
FC89
  8
0
 10
269.61783611366081
 20
31.61753529605264
 30
0.0
  0
SEQEND
  5
FC8A
  8
0
  0
POLYLINE
  5
FC8B
  8
0
 66
     1
 10
0.0
 20
0.0
 30
0.0
 70
     2
  0
VERTEX
  5
FC8C
  8
0
 10
277.29724266716772
 20
41.367291025042469
 30
0.0
 42
0.000101410227939
  0
VERTEX
  5
FC8D
  8
0
 10
277.28304357944381
 20
41.474086456999743
 30
0.0
 42
0.0002595874820416
 70
     1
  0
VERTEX
  5
FC8E
  8
0
 10
277.27746645476577
 20
41.515803057869242
 30
0.0
 42
0.0000021680839263
  0
VERTEX
  5
FC8F
  8
0
 10
277.2472083545415
 20
41.741233475806752
 30
0.0
 42
0.0000522343279129
 70
     1
  0
VERTEX
  5
FC90
  8
0
 10
277.24595141644522
 20
41.750590260124817
 30
0.0
 42
0.0012681247434688
  0
VERTEX
  5
FC91
  8
0
 10
277.2212958665603
 20
41.930526597027288
 30
0.0
 42
0.0007263875534146
 70
     1
  0
VERTEX
  5
FC92
  8
0
 10
277.17699961049499
 20
42.244484258773781
 30
0.0
 42
0.0022929314519472
  0
VERTEX
  5
FC93
  8
0
 10
277.15555975464832
 20
42.390081975240122
 30
0.0
 42
0.001210359932805
 70
     1
  0
VERTEX
  5
FC94
  8
0
 10
277.11301223560031
 20
42.665612975452433
 30
0.0
 42
0.0036692697316113
  0
VERTEX
  5
FC95
  8
0
 10
277.07353569249221
 20
42.90569789277864
 30
0.0
 42
0.0031285303954598
 70
     1
  0
VERTEX
  5
FC96
  8
0
 10
277.02341229784162
 20
43.186622898691638
 30
0.0
 42
0.0042472587770917
  0
VERTEX
  5
FC97
  8
0
 10
276.97085447434227
 20
43.457980006084057
 30
0.0
 42
0.0040143417483764
 70
     1
  0
VERTEX
  5
FC98
  8
0
 10
276.91051129397442
 20
43.74412308108927
 30
0.0
 42
0.0021425739896621
  0
VERTEX
  5
FC99
  8
0
 10
276.85280145257798
 20
44.002009367856168
 30
0.0
 42
0.0030187201233283
 70
     1
  0
VERTEX
  5
FC9A
  8
0
 10
276.8099537788512
 20
44.184615619826978
 30
0.0
 42
0.0019370622288368
  0
VERTEX
  5
FC9B
  8
0
 10
276.70445265846303
 20
44.615009092298664
 30
0.0
 42
0.0018844362687676
 70
     1
  0
VERTEX
  5
FC9C
  8
0
 10
276.5926271134233
 20
45.056580140566354
 30
0.0
 42
0.0002036346482054
  0
VERTEX
  5
FC9D
  8
0
 10
276.498845892899
 20
45.420505672552594
 30
0.0
 42
-0.0004831702842751
 70
     1
  0
VERTEX
  5
FC9E
  8
0
 10
276.40506467237492
 20
45.784431204538777
 30
0.0
 42
-0.000078532253195
  0
VERTEX
  5
FC9F
  8
0
 10
276.35738043767719
 20
45.97033771530036
 30
0.0
 42
-0.0000573914770624
 70
     1
  0
VERTEX
  5
FCA0
  8
0
 10
276.29220035223602
 20
46.224742645403381
 30
0.0
 42
-0.0010102741528037
  0
VERTEX
  5
FCA1
  8
0
 10
276.24496748724567
 20
46.410748745498807
 30
0.0
 42
-0.0003449088567254
 70
     1
  0
VERTEX
  5
FCA2
  8
0
 10
276.10809480216949
 20
46.955952573084367
 30
0.0
 42
-0.0030521471862582
  0
VERTEX
  5
FCA3
  8
0
 10
276.0215923875565
 20
47.310705408041343
 30
0.0
 42
-0.0022419401264823
 70
     1
  0
VERTEX
  5
FCA4
  8
0
 10
275.90894975745869
 20
47.794878877229188
 30
0.0
 42
-0.0060216289266875
  0
VERTEX
  5
FCA5
  8
0
 10
275.8278081195092
 20
48.171768295646267
 30
0.0
 42
-0.0059036451948742
 70
     1
  0
VERTEX
  5
FCA6
  8
0
 10
275.75423620209148
 20
48.558053673375269
 30
0.0
 42
-0.0042009229398587
  0
VERTEX
  5
FCA7
  8
0
 10
275.75010382606871
 20
48.582419751890797
 30
0.0
 42
-0.0001737995115396
 70
     1
  0
VERTEX
  5
FCA8
  8
0
 10
275.65537823216732
 20
49.172215312639111
 30
0.0
 42
-0.0071871504945612
  0
VERTEX
  5
FCA9
  8
0
 10
275.59692256091489
 20
49.573860298735177
 30
0.0
 42
-0.0046047720312455
 70
     1
  0
VERTEX
  5
FCAA
  8
0
 10
275.5204952616387
 20
50.202707777887518
 30
0.0
  0
SEQEND
  5
FCAB
  8
0
  0
LINE
  5
FCAC
  8
0
 10
277.79918828198242
 20
41.367689049027803
 30
0.0
 11
277.01486670253303
 21
50.333448845525453
 31
0.0
  0
LINE
  5
FCAD
  8
0
 10
277.29724266716772
 20
41.367291025042469
 30
0.0
 11
277.79918828198242
 21
41.367689049027803
 31
0.0
  0
LINE
  5
FCAE
  8
0
 10
259.99418539164873
 20
47.44303239462036
 30
0.0
 11
260.29679098316961
 21
47.054894286364203
 31
0.0
  0
POLYLINE
  5
FCAF
  8
0
 66
     1
 10
0.0
 20
0.0
 30
0.0
 70
     2
  0
VERTEX
  5
FCB0
  8
0
 10
260.29679098316961
 20
47.054894286364203
 30
0.0
 42
-0.0237206795019099
  0
VERTEX
  5
FCB1
  8
0
 10
260.4689866674496
 20
47.165798150911392
 30
0.0
 42
-0.0467691182735666
 70
     1
  0
VERTEX
  5
FCB2
  8
0
 10
260.5635091817764
 20
47.209295091650603
 30
0.0
 42
-0.0060031977753754
  0
VERTEX
  5
FCB3
  8
0
 10
260.84933447464732
 20
47.305860253753821
 30
0.0
 42
-0.0240775113098949
 70
     1
  0
VERTEX
  5
FCB4
  8
0
 10
260.92195666689048
 20
47.32561974471335
 30
0.0
 42
-0.0023889764820791
  0
VERTEX
  5
FCB5
  8
0
 10
261.10721778009412
 20
47.365636096248942
 30
0.0
 42
-0.0053780431869809
 70
     1
  0
VERTEX
  5
FCB6
  8
0
 10
261.18978058081569
 20
47.382131659342711
 30
0.0
 42
-0.0031329780607529
  0
VERTEX
  5
FCB7
  8
0
 10
261.32609091605559
 20
47.406960728099669
 30
0.0
 42
0.0023622109054127
 70
     1
  0
VERTEX
  5
FCB8
  8
0
 10
261.50692781008252
 20
47.43961242302273
 30
0.0
 42
0.0064361186454827
  0
VERTEX
  5
FCB9
  8
0
 10
261.68878026265321
 20
47.475762646281822
 30
0.0
 42
0.0034815245638478
 70
     1
  0
VERTEX
  5
FCBA
  8
0
 10
262.0235602951152
 20
47.549244188231597
 30
0.0
 42
0.0242852771403166
  0
VERTEX
  5
FCBB
  8
0
 10
262.18146490693448
 20
47.59321594888965
 30
0.0
 42
0.0190020758575698
 70
     1
  0
VERTEX
  5
FCBC
  8
0
 10
262.37761336974609
 20
47.666632865265314
 30
0.0
 42
0.0556139544592282
  0
VERTEX
  5
FCBD
  8
0
 10
262.61247331025902
 20
47.797161282303328
 30
0.0
 42
0.0443985949498337
 70
     1
  0
VERTEX
  5
FCBE
  8
0
 10
262.86805975717448
 20
48.015566520204601
 30
0.0
 42
0.005805869560656
  0
VERTEX
  5
FCBF
  8
0
 10
263.14573690129851
 20
48.305777906948009
 30
0.0
 42
0.0072416894109491
 70
     1
  0
VERTEX
  5
FCC0
  8
0
 10
263.36221608230289
 20
48.544182526393762
 30
0.0
 42
0.0007963716249478
  0
VERTEX
  5
FCC1
  8
0
 10
263.68179130974551
 20
48.90769913095059
 30
0.0
 42
0.0039647894091986
 70
     1
  0
VERTEX
  5
FCC2
  8
0
 10
263.74528429067118
 20
48.981324473339697
 30
0.0
 42
0.0028606037632442
  0
VERTEX
  5
FCC3
  8
0
 10
263.97742205852933
 20
49.25805710000926
 30
0.0
 42
0.0039660403907613
 70
     1
  0
VERTEX
  5
FCC4
  8
0
 10
264.14211764327428
 20
49.459926162682422
 30
0.0
 42
0.0014553361839522
  0
VERTEX
  5
FCC5
  8
0
 10
264.28279868569888
 20
49.636228937897933
 30
0.0
 42
0.0011288265746818
 70
     1
  0
VERTEX
  5
FCC6
  8
0
 10
264.4629939687693
 20
49.864460907324059
 30
0.0
 42
0.0018867036398069
  0
VERTEX
  5
FCC7
  8
0
 10
264.58405665313848
 20
50.019712735035078
 30
0.0
 42
0.0008232827814486
 70
     1
  0
VERTEX
  5
FCC8
  8
0
 10
264.85956080073129
 20
50.3769982395713
 30
0.0
 42
0.0063968845883573
  0
VERTEX
  5
FCC9
  8
0
 10
265.02504121213661
 20
50.59813137257364
 30
0.0
 42
0.002672280885683
 70
     1
  0
VERTEX
  5
FCCA
  8
0
 10
265.41148784252778
 20
51.134557493584261
 30
0.0
 42
0.0135374047750105
  0
VERTEX
  5
FCCB
  8
0
 10
265.87334992467891
 20
51.821571222024737
 30
0.0
 42
0.010386161660856
 70
     1
  0
VERTEX
  5
FCCC
  8
0
 10
266.43178695450678
 20
52.744727305322243
 30
0.0
 42
0.0076024050282556
  0
VERTEX
  5
FCCD
  8
0
 10
266.74036131602929
 20
53.298912712666009
 30
0.0
 42
0.0071238359695552
 70
     1
  0
VERTEX
  5
FCCE
  8
0
 10
267.05210445146798
 20
53.899764022081541
 30
0.0
 42
0.0101310435853145
  0
VERTEX
  5
FCCF
  8
0
 10
267.41199703634061
 20
54.656172889636167
 30
0.0
 42
0.0094725294227319
 70
     1
  0
VERTEX
  5
FCD0
  8
0
 10
267.76489923339659
 20
55.47962065450119
 30
0.0
 42
0.0098784650238983
  0
VERTEX
  5
FCD1
  8
0
 10
268.07245462734483
 20
56.281626148518939
 30
0.0
 42
0.0089421013315908
 70
     1
  0
VERTEX
  5
FCD2
  8
0
 10
268.37862866655951
 20
57.179755098120182
 30
0.0
 42
0.0083120372644969
  0
VERTEX
  5
FCD3
  8
0
 10
268.65993886991942
 20
58.10873169244072
 30
0.0
 42
0.0082244657027127
 70
     1
  0
VERTEX
  5
FCD4
  8
0
 10
268.9130437209526
 20
59.056485870838088
 30
0.0
 42
0.0084334136982066
  0
VERTEX
  5
FCD5
  8
0
 10
269.33322623535128
 20
60.870210940660712
 30
0.0
 42
0.0073792933141218
 70
     1
  0
VERTEX
  5
FCD6
  8
0
 10
269.74764288434648
 20
62.957136363879073
 30
0.0
 42
0.0012703316091467
  0
VERTEX
  5
FCD7
  8
0
 10
270.02015082922821
 20
64.465569922826333
 30
0.0
 42
0.0027601579928463
 70
     1
  0
VERTEX
  5
FCD8
  8
0
 10
270.13997000515383
 20
65.160802072268581
 30
0.0
 42
0.0023475535519308
  0
VERTEX
  5
FCD9
  8
0
 10
270.42084709073578
 20
66.89628863566972
 30
0.0
 42
0.0032702721681377
 70
     1
  0
VERTEX
  5
FCDA
  8
0
 10
270.60846479353972
 20
68.144294843126104
 30
0.0
 42
0.0021814150076839
  0
VERTEX
  5
FCDB
  8
0
 10
270.78761962606927
 20
69.431308260866302
 30
0.0
 42
0.0025021550278351
 70
     1
  0
VERTEX
  5
FCDC
  8
0
 10
270.93329266744831
 20
70.55476069645519
 30
0.0
 42
0.0017282732474074
  0
VERTEX
  5
FCDD
  8
0
 10
271.03802431406962
 20
71.419799302888663
 30
0.0
 42
0.0015532536872422
 70
     1
  0
VERTEX
  5
FCDE
  8
0
 10
271.14823752014809
 20
72.383053388011803
 30
0.0
 42
0.0034219409902495
  0
VERTEX
  5
FCDF
  8
0
 10
271.31389341090897
 20
73.970584954057216
 30
0.0
 42
0.0035027954189371
 70
     1
  0
VERTEX
  5
FCE0
  8
0
 10
271.45423186089829
 20
75.523565145268293
 30
0.0
 42
0.0019345988098877
  0
VERTEX
  5
FCE1
  8
0
 10
271.55930186516872
 20
76.846632367242222
 30
0.0
 42
0.0026335140481309
 70
     1
  0
VERTEX
  5
FCE2
  8
0
 10
271.62760438389228
 20
77.819235001874716
 30
0.0
 42
0.0011325902796231
  0
VERTEX
  5
FCE3
  8
0
 10
271.67884294615192
 20
78.636944829874068
 30
0.0
 42
0.001419072426086
 70
     1
  0
VERTEX
  5
FCE4
  8
0
 10
271.7164063990312
 20
79.289776185850343
 30
0.0
 42
0.0022351302116588
  0
VERTEX
  5
FCE5
  8
0
 10
271.7712305709972
 20
80.381681274282826
 30
0.0
 42
0.0022440752238902
 70
     1
  0
VERTEX
  5
FCE6
  8
0
 10
271.81609142410269
 20
81.469679543268427
 30
0.0
 42
0.0017605831746546
  0
VERTEX
  5
FCE7
  8
0
 10
271.84838473466488
 20
82.442017523581256
 30
0.0
 42
0.0020202265914417
 70
     1
  0
VERTEX
  5
FCE8
  8
0
 10
271.87011943341918
 20
83.289578162169406
 30
0.0
 42
0.0014158652878068
  0
VERTEX
  5
FCE9
  8
0
 10
271.88680583098011
 20
84.178654693716766
 30
0.0
 42
0.0017379895629816
 70
     1
  0
VERTEX
  5
FCEA
  8
0
 10
271.89583066769319
 20
84.903019146458348
 30
0.0
 42
0.0014287555715393
  0
VERTEX
  5
FCEB
  8
0
 10
271.90108732632302
 20
85.761260398556558
 30
0.0
 42
0.0017424746235535
 70
     1
  0
VERTEX
  5
FCEC
  8
0
 10
271.90093418507672
 20
86.464995847818244
 30
0.0
 42
0.0011756526698188
  0
VERTEX
  5
FCED
  8
0
 10
271.89631102166049
 20
87.228658282352939
 30
0.0
 42
0.0014997740904227
 70
     1
  0
VERTEX
  5
FCEE
  8
0
 10
271.8894838965316
 20
87.827255516661864
 30
0.0
 42
0.0009499923580818
  0
VERTEX
  5
FCEF
  8
0
 10
271.88058479225742
 20
88.373022416499538
 30
0.0
 42
0.0009870514324101
 70
     1
  0
VERTEX
  5
FCF0
  8
0
 10
271.86998491109239
 20
88.898261286696524
 30
0.0
 42
0.0013637076713911
  0
VERTEX
  5
FCF1
  8
0
 10
271.85644913661213
 20
89.442194810524896
 30
0.0
 42
0.0010208428340154
 70
     1
  0
VERTEX
  5
FCF2
  8
0
 10
271.83490208335712
 20
90.168721187400649
 30
0.0
 42
0.0018317836576139
  0
VERTEX
  5
FCF3
  8
0
 10
271.81147511012
 20
90.831081462364025
 30
0.0
 42
0.0011786976812269
 70
     1
  0
VERTEX
  5
FCF4
  8
0
 10
271.76887092169068
 20
91.860198591112166
 30
0.0
 42
0.0019883562821329
  0
VERTEX
  5
FCF5
  8
0
 10
271.76785010447003
 20
91.881578985436448
 30
0.0
 42
0.000028170480532
 70
     1
  0
VERTEX
  5
FCF6
  8
0
 10
271.68971246091502
 20
93.390361965505136
 30
0.0
 42
0.0052884912156335
  0
VERTEX
  5
FCF7
  8
0
 10
271.59558433019919
 20
94.897459927744734
 30
0.0
 42
0.0037427516415422
 70
     1
  0
VERTEX
  5
FCF8
  8
0
 10
271.42414369770808
 20
97.024203295975866
 30
0.0
  0
SEQEND
  5
FCF9
  8
0
  0
LINE
  5
FCFA
  8
0
 10
271.424187606305
 20
97.023701418940647
 30
0.0
 11
275.5204952616387
 21
50.202707777887518
 31
0.0
  0
LINE
  5
FCFB
  8
0
 10
271.42414369770808
 20
97.024203295975866
 30
0.0
 11
270.8140836130608
 21
103.9972214195797
 31
0.0
  0
POLYLINE
  5
FCFC
  8
0
 66
     1
 10
0.0
 20
0.0
 30
0.0
 70
     2
  0
VERTEX
  5
FCFD
  8
0
 10
258.8339216370278
 20
45.083287189871008
 30
0.0
 42
-0.0130445769429693
  0
VERTEX
  5
FCFE
  8
0
 10
258.8492092910513
 20
45.345724674893368
 30
0.0
 42
-0.0207427888135754
 70
     1
  0
VERTEX
  5
FCFF
  8
0
 10
258.86994954891361
 20
45.509781454643502
 30
0.0
 42
-0.0016833641491106
  0
VERTEX
  5
FD00
  8
0
 10
258.9170561061444
 20
45.78321954858469
 30
0.0
 42
-0.0153751186247568
 70
     1
  0
VERTEX
  5
FD01
  8
0
 10
258.9232331813576
 20
45.812970876991614
 30
0.0
 42
-0.0129325197990165
  0
VERTEX
  5
FD02
  8
0
 10
258.95273801477902
 20
45.923293108697493
 30
0.0
 42
-0.0098318494573796
 70
     1
  0
VERTEX
  5
FD03
  8
0
 10
258.99810867158448
 20
46.066480925503953
 30
0.0
 42
-0.0121370880005086
  0
VERTEX
  5
FD04
  8
0
 10
259.0170788617541
 20
46.118322949960508
 30
0.0
 42
-0.0040874863984976
 70
     1
  0
VERTEX
  5
FD05
  8
0
 10
259.0783639494386
 20
46.270330616540292
 30
0.0
 42
-0.0381965835490145
  0
VERTEX
  5
FD06
  8
0
 10
259.27522501165708
 20
46.660030138136193
 30
0.0
 42
-0.0432838359070239
 70
     1
  0
VERTEX
  5
FD07
  8
0
 10
259.50250664808777
 20
46.971335642506602
 30
0.0
 42
-0.0117705638441986
  0
VERTEX
  5
FD08
  8
0
 10
259.67526793870979
 20
47.160278314994088
 30
0.0
 42
-0.0233176977315094
 70
     1
  0
VERTEX
  5
FD09
  8
0
 10
259.76898643641789
 20
47.249342121729882
 30
0.0
 42
-0.0011902807675355
  0
VERTEX
  5
FD0A
  8
0
 10
259.9455661787776
 20
47.40140336482213
 30
0.0
 42
-0.0009900651870451
 70
     1
  0
VERTEX
  5
FD0B
  8
0
 10
260.15864976832199
 20
47.583287599652941
 30
0.0
 42
-0.0023419898716862
  0
VERTEX
  5
FD0C
  8
0
 10
260.54212310728423
 20
47.906220863459708
 30
0.0
 42
0.002625264868574
 70
     1
  0
VERTEX
  5
FD0D
  8
0
 10
260.88405558325638
 20
48.194502704822838
 30
0.0
 42
0.0133832540436242
  0
VERTEX
  5
FD0E
  8
0
 10
261.26711655141088
 20
48.539030558384503
 30
0.0
 42
0.0106141893776865
 70
     1
  0
VERTEX
  5
FD0F
  8
0
 10
261.72868454047972
 20
48.996080662280256
 30
0.0
 42
0.0058451228432312
  0
VERTEX
  5
FD10
  8
0
 10
262.05586424243461
 20
49.342115017129203
 30
0.0
 42
0.0056397684443633
 70
     1
  0
VERTEX
  5
FD11
  8
0
 10
262.38663000115997
 20
49.708441775487053
 30
0.0
 42
0.0041263575396279
  0
VERTEX
  5
FD12
  8
0
 10
262.74615414336381
 20
50.122602171012062
 30
0.0
 42
0.0059239773083261
 70
     1
  0
VERTEX
  5
FD13
  8
0
 10
262.99073690967231
 20
50.416066768769348
 30
0.0
 42
0.0066237541685874
  0
VERTEX
  5
FD14
  8
0
 10
263.26873802633582
 20
50.767181061879768
 30
0.0
 42
0.0064714366212272
 70
     1
  0
VERTEX
  5
FD15
  8
0
 10
263.54377324940492
 20
51.13388688831796
 30
0.0
 42
0.0047413696716028
  0
VERTEX
  5
FD16
  8
0
 10
263.67374280967277
 20
51.315522847910273
 30
0.0
 42
0.0028482507400461
 70
     1
  0
VERTEX
  5
FD17
  8
0
 10
263.88548057280281
 20
51.621129741101207
 30
0.0
 42
0.0111522476629353
  0
VERTEX
  5
FD18
  8
0
 10
264.25284315646758
 20
52.184413108271059
 30
0.0
 42
0.0091292191242964
 70
     1
  0
VERTEX
  5
FD19
  8
0
 10
264.67332368103553
 20
52.890122538744521
 30
0.0
 42
0.0083657888539909
  0
VERTEX
  5
FD1A
  8
0
 10
264.89578689333371
 20
53.295068082751037
 30
0.0
 42
0.0066894921247882
 70
     1
  0
VERTEX
  5
FD1B
  8
0
 10
265.15861768508398
 20
53.809620616269768
 30
0.0
 42
0.0117498263019365
  0
VERTEX
  5
FD1C
  8
0
 10
265.45578282096699
 20
54.448499713637233
 30
0.0
 42
0.0101398977008621
 70
     1
  0
VERTEX
  5
FD1D
  8
0
 10
265.76738955381421
 20
55.203148714842847
 30
0.0
 42
0.0108717336192095
  0
VERTEX
  5
FD1E
  8
0
 10
266.01160045398302
 20
55.873062811779477
 30
0.0
 42
0.0103359747250291
 70
     1
  0
VERTEX
  5
FD1F
  8
0
 10
266.23835882779957
 20
56.587951216688481
 30
0.0
 42
0.0102216977091177
  0
VERTEX
  5
FD20
  8
0
 10
266.43195309087582
 20
57.298385513177301
 30
0.0
 42
0.0102255830703451
 70
     1
  0
VERTEX
  5
FD21
  8
0
 10
266.59627926821258
 20
58.015867686912621
 30
0.0
 42
0.0104204489356286
  0
VERTEX
  5
FD22
  8
0
 10
266.73564088682377
 20
58.765292668076967
 30
0.0
 42
0.0109035160135695
 70
     1
  0
VERTEX
  5
FD23
  8
0
 10
266.8381732225298
 20
59.486549738769071
 30
0.0
 42
0.0097880477912494
  0
VERTEX
  5
FD24
  8
0
 10
266.91252608804331
 20
60.228868558615751
 30
0.0
 42
0.0101570707746898
 70
     1
  0
VERTEX
  5
FD25
  8
0
 10
266.95559397916873
 20
60.946511316955792
 30
0.0
 42
0.0087004960631794
  0
VERTEX
  5
FD26
  8
0
 10
266.9719334817712
 20
61.681506273513463
 30
0.0
 42
0.0136260960518163
 70
     1
  0
VERTEX
  5
FD27
  8
0
 10
266.9614068914891
 20
62.150862704565519
 30
0.0
 42
0.0079332243756424
  0
VERTEX
  5
FD28
  8
0
 10
266.88723963740841
 20
63.280865440307338
 30
0.0
 42
0.0036324279519264
 70
     1
  0
VERTEX
  5
FD29
  8
0
 10
266.66823217478873
 20
65.744262784683457
 30
0.0
 42
0.0001532707476831
  0
VERTEX
  5
FD2A
  8
0
 10
266.59983063774371
 20
66.452784948181005
 30
0.0
 42
-0.0005579341963227
 70
     1
  0
VERTEX
  5
FD2B
  8
0
 10
266.58119750113201
 20
66.647439076225027
 30
0.0
 42
-0.0003403195124975
  0
VERTEX
  5
FD2C
  8
0
 10
266.45718780596297
 20
67.967931937668567
 30
0.0
 42
-0.0015658781384903
 70
     1
  0
VERTEX
  5
FD2D
  8
0
 10
266.43133045420308
 20
68.255022071961463
 30
0.0
 42
-0.0000357332420893
  0
VERTEX
  5
FD2E
  8
0
 10
266.41096663709118
 20
68.489523621576467
 30
0.0
 42
-0.0000104120529807
 70
     1
  0
VERTEX
  5
FD2F
  8
0
 10
266.34115409977238
 20
69.294318581338445
 30
0.0
 42
-0.0000341327220075
  0
VERTEX
  5
FD30
  8
0
 10
266.2486960211952
 20
70.36127407370563
 30
0.0
 42
0.000011488494441
 70
     1
  0
VERTEX
  5
FD31
  8
0
 10
266.15623794261819
 20
71.428229566072744
 30
0.0
 42
0.0024968682589794
  0
VERTEX
  5
FD32
  8
0
 10
266.09412326506663
 20
72.10550485381512
 30
0.0
 42
-0.0024011783216083
 70
     1
  0
VERTEX
  5
FD33
  8
0
 10
266.0293984900199
 20
72.809757703936583
 30
0.0
 42
-0.008225624770909
  0
VERTEX
  5
FD34
  8
0
 10
265.99916594506522
 20
73.238518703789254
 30
0.0
 42
-0.0084093089684724
 70
     1
  0
VERTEX
  5
FD35
  8
0
 10
265.98356042498648
 20
73.658667157212136
 30
0.0
 42
-0.0061762083618464
  0
VERTEX
  5
FD36
  8
0
 10
265.98208295028689
 20
73.844384740174377
 30
0.0
 42
-0.0053672690997925
 70
     1
  0
VERTEX
  5
FD37
  8
0
 10
265.98531660006961
 20
74.058073441493903
 30
0.0
 42
-0.0093383319038704
  0
VERTEX
  5
FD38
  8
0
 10
265.9935812513786
 20
74.24349839979763
 30
0.0
 42
-0.0068289626499889
 70
     1
  0
VERTEX
  5
FD39
  8
0
 10
266.0130733082799
 20
74.49655141622415
 30
0.0
 42
-0.0162574386176893
  0
VERTEX
  5
FD3A
  8
0
 10
266.0467081542086
 20
74.768523425731786
 30
0.0
 42
-0.0161249266332823
 70
     1
  0
VERTEX
  5
FD3B
  8
0
 10
266.09829308555732
 20
75.039959990090239
 30
0.0
 42
-0.0118641276494369
  0
VERTEX
  5
FD3C
  8
0
 10
266.16910512917337
 20
75.324659581483814
 30
0.0
 42
-0.0136115979100001
 70
     1
  0
VERTEX
  5
FD3D
  8
0
 10
266.24338688894449
 20
75.569354804548169
 30
0.0
 42
-0.0034043181649066
  0
VERTEX
  5
FD3E
  8
0
 10
266.32479640726319
 20
75.807996358280747
 30
0.0
 42
-0.0042317922093526
 70
     1
  0
VERTEX
  5
FD3F
  8
0
 10
266.3932119117494
 20
75.998953211546933
 30
0.0
 42
-0.0070482976277518
  0
VERTEX
  5
FD40
  8
0
 10
266.54698620715021
 20
76.399464623108742
 30
0.0
 42
0.0047752138447693
 70
     1
  0
VERTEX
  5
FD41
  8
0
 10
266.77663860614439
 20
76.989572556226648
 30
0.0
 42
0.0053027850730376
  0
VERTEX
  5
FD42
  8
0
 10
267.06721008848189
 20
77.783181872082736
 30
0.0
 42
0.0045164999758453
 70
     1
  0
VERTEX
  5
FD43
  8
0
 10
267.39000206711222
 20
78.721464418308614
 30
0.0
 42
0.008892918963802
  0
VERTEX
  5
FD44
  8
0
 10
267.63399414092208
 20
79.4977698285023
 30
0.0
 42
0.0069719950268402
 70
     1
  0
VERTEX
  5
FD45
  8
0
 10
267.91363304465091
 20
80.497307021627094
 30
0.0
 42
0.0071609448485276
  0
VERTEX
  5
FD46
  8
0
 10
268.12606840197782
 20
81.348677095057013
 30
0.0
 42
0.0071168031121583
 70
     1
  0
VERTEX
  5
FD47
  8
0
 10
268.31527577846049
 20
82.211080881145307
 30
0.0
 42
0.0073708273723784
  0
VERTEX
  5
FD48
  8
0
 10
268.48875205259611
 20
83.127929179509323
 30
0.0
 42
0.0079681483224452
 70
     1
  0
VERTEX
  5
FD49
  8
0
 10
268.62313571913268
 20
83.980578084540497
 30
0.0
 42
0.0063770167734819
  0
VERTEX
  5
FD4A
  8
0
 10
268.72077890592919
 20
84.741458900733349
 30
0.0
 42
0.0071370431604741
 70
     1
  0
VERTEX
  5
FD4B
  8
0
 10
268.78962021110578
 20
85.423429687176849
 30
0.0
 42
0.0072017889831225
  0
VERTEX
  5
FD4C
  8
0
 10
268.84382408778788
 20
86.175728570009909
 30
0.0
 42
0.0071595346660626
 70
     1
  0
VERTEX
  5
FD4D
  8
0
 10
268.87659317758607
 20
86.933720634990664
 30
0.0
 42
0.0067375965276112
  0
VERTEX
  5
FD4E
  8
0
 10
268.88943620420309
 20
87.76703701006258
 30
0.0
 42
0.0061907824691966
 70
     1
  0
VERTEX
  5
FD4F
  8
0
 10
268.879961922446
 20
88.674009638570837
 30
0.0
 42
0.0055370493274183
  0
VERTEX
  5
FD50
  8
0
 10
268.85114774616289
 20
89.523633061008098
 30
0.0
 42
0.006168333921458
 70
     1
  0
VERTEX
  5
FD51
  8
0
 10
268.8074363915614
 20
90.285494824008524
 30
0.0
 42
0.0072410455141349
  0
VERTEX
  5
FD52
  8
0
 10
268.73817249288339
 20
91.106848483987363
 30
0.0
 42
0.0075496054687925
 70
     1
  0
VERTEX
  5
FD53
  8
0
 10
268.64846827697028
 20
91.892326688390156
 30
0.0
 42
0.0062058346366839
  0
VERTEX
  5
FD54
  8
0
 10
268.5242983027436
 20
92.76573309301088
 30
0.0
 42
0.008292886860102
 70
     1
  0
VERTEX
  5
FD55
  8
0
 10
268.41246391797949
 20
93.416382168823077
 30
0.0
 42
0.0032468180416414
  0
VERTEX
  5
FD56
  8
0
 10
268.2987560498911
 20
93.997292040762076
 30
0.0
 42
0.0051470956673817
 70
     1
  0
VERTEX
  5
FD57
  8
0
 10
268.22088590355747
 20
94.362483488386147
 30
0.0
 42
0.0034558627648482
  0
VERTEX
  5
FD58
  8
0
 10
268.09932184771583
 20
94.888081448875127
 30
0.0
 42
0.0049189920597591
 70
     1
  0
VERTEX
  5
FD59
  8
0
 10
268.00774256850218
 20
95.255865225278541
 30
0.0
 42
0.0058294416702062
  0
VERTEX
  5
FD5A
  8
0
 10
267.83296579149601
 20
95.898523875898476
 30
0.0
 42
-0.0047141485326983
 70
     1
  0
VERTEX
  5
FD5B
  8
0
 10
267.61507008829022
 20
96.692732028833404
 30
0.0
 42
-0.0013674489724014
  0
VERTEX
  5
FD5C
  8
0
 10
267.52445030148903
 20
97.039508956755839
 30
0.0
 42
-0.0019824651557032
 70
     1
  0
VERTEX
  5
FD5D
  8
0
 10
267.46354715181337
 20
97.279119882735273
 30
0.0
 42
-0.0110131476662155
  0
VERTEX
  5
FD5E
  8
0
 10
267.41668315457241
 20
97.485859575356102
 30
0.0
 42
-0.0066524523851056
 70
     1
  0
VERTEX
  5
FD5F
  8
0
 10
267.35124267077231
 20
97.830617853025714
 30
0.0
 42
-0.0141393738754737
  0
VERTEX
  5
FD60
  8
0
 10
267.32197567938988
 20
98.029647093552157
 30
0.0
 42
-0.0092659185536763
 70
     1
  0
VERTEX
  5
FD61
  8
0
 10
267.29157885566133
 20
98.335078944374487
 30
0.0
 42
-0.0213884881637316
  0
VERTEX
  5
FD62
  8
0
 10
267.2804148075341
 20
98.629562775219114
 30
0.0
 42
-0.0154768878401149
 70
     1
  0
VERTEX
  5
FD63
  8
0
 10
267.2950002987468
 20
99.036470874084415
 30
0.0
 42
-0.0193170807210771
  0
VERTEX
  5
FD64
  8
0
 10
267.33901512855527
 20
99.4524815686203
 30
0.0
 42
-0.017299632982773
 70
     1
  0
VERTEX
  5
FD65
  8
0
 10
267.42200957829419
 20
99.912132177284136
 30
0.0
 42
-0.0130146232743247
  0
VERTEX
  5
FD66
  8
0
 10
267.48817535508869
 20
100.1833798511019
 30
0.0
 42
-0.0087768797877343
 70
     1
  0
VERTEX
  5
FD67
  8
0
 10
267.60370753332018
 20
100.5809010075982
 30
0.0
 42
-0.0246501823910497
  0
VERTEX
  5
FD68
  8
0
 10
267.8598243156282
 20
101.283225963962
 30
0.0
 42
-0.0442602784247587
 70
     1
  0
VERTEX
  5
FD69
  8
0
 10
268.05508933371169
 20
101.651580933378
 30
0.0
 42
-0.0066901339288054
  0
VERTEX
  5
FD6A
  8
0
 10
268.24921686684479
 20
101.9419680724989
 30
0.0
 42
-0.007967767792089
 70
     1
  0
VERTEX
  5
FD6B
  8
0
 10
268.41929587102732
 20
102.18091358455391
 30
0.0
 42
-0.001195442477537
  0
VERTEX
  5
FD6C
  8
0
 10
268.52506928794702
 20
102.32389528615229
 30
0.0
 42
-0.0035880803170269
 70
     1
  0
VERTEX
  5
FD6D
  8
0
 10
268.56076440452603
 20
102.3711937890655
 30
0.0
 42
-0.0170010419458204
  0
VERTEX
  5
FD6E
  8
0
 10
268.69231415887202
 20
102.5313440311441
 30
0.0
 42
-0.0098950940005907
 70
     1
  0
VERTEX
  5
FD6F
  8
0
 10
268.93275389434871
 20
102.79390323856479
 30
0.0
 42
-0.0083846470096121
  0
VERTEX
  5
FD70
  8
0
 10
269.08577894552741
 20
102.9492063921664
 30
0.0
 42
-0.0077021537797229
 70
     1
  0
VERTEX
  5
FD71
  8
0
 10
269.25771392096112
 20
103.1128231897067
 30
0.0
 42
-0.013877005075235
  0
VERTEX
  5
FD72
  8
0
 10
269.43927233932459
 20
103.271247345205
 30
0.0
 42
-0.0104068069516932
 70
     1
  0
VERTEX
  5
FD73
  8
0
 10
269.691320981876
 20
103.4704799241445
 30
0.0
 42
-0.0162892418688535
  0
VERTEX
  5
FD74
  8
0
 10
269.88585751949518
 20
103.60804508824759
 30
0.0
 42
-0.0135076628754963
 70
     1
  0
VERTEX
  5
FD75
  8
0
 10
270.1298971962965
 20
103.7596603094304
 30
0.0
 42
-0.0226992775838891
  0
VERTEX
  5
FD76
  8
0
 10
270.37378767114268
 20
103.8877224621545
 30
0.0
 42
-0.0411482493142772
 70
     1
  0
VERTEX
  5
FD77
  8
0
 10
270.51639485964819
 20
103.9407287307239
 30
0.0
 42
-0.0143851443607864
  0
VERTEX
  5
FD78
  8
0
 10
270.59662645611178
 20
103.96077573971191
 30
0.0
 42
-0.0088747091223963
 70
     1
  0
VERTEX
  5
FD79
  8
0
 10
270.728028501957
 20
103.9871843710243
 30
0.0
 42
-0.0161228424884914
  0
VERTEX
  5
FD7A
  8
0
 10
270.75432829692983
 20
103.99111460119759
 30
0.0
 42
-0.0071363121136205
 70
     1
  0
VERTEX
  5
FD7B
  8
0
 10
270.81408270785158
 20
103.9972203030884
 30
0.0
  0
SEQEND
  5
FD7C
  8
0
  0
LINE
  5
FD7D
  8
0
 10
272.43910943849602
 20
102.6336630009573
 30
0.0
 11
277.01486670253303
 21
50.333448845525453
 31
0.0
  0
LINE
  5
FD7E
  8
0
 10
256.33343600818449
 20
46.78328756165498
 30
0.0
 11
256.33343600818449
 21
34.383287205517227
 31
0.0
  0
LINE
  5
FD7F
  8
0
 10
259.44417261668968
 20
37.38328746442491
 30
0.0
 11
258.8334336239987
 21
37.38328746442491
 31
0.0
  0
LINE
  5
FD80
  8
0
 10
256.8334370214634
 20
47.383287473738129
 30
0.0
 11
256.8334370214634
 21
33.783287293434078
 31
0.0
  0
LINE
  5
FD81
  8
0
 10
257.03343668171692
 20
33.583287167519273
 30
0.0
 11
257.03343668171692
 21
47.583287599652941
 31
0.0
  0
LINE
  5
FD82
  8
0
 10
259.3827500302487
 20
46.783085930317583
 30
0.0
 11
258.8334336239987
 21
46.783085930317583
 31
0.0
  0
LINE
  5
FD83
  8
0
 10
258.8334336239987
 20
34.383488836854639
 30
0.0
 11
258.8334336239987
 21
46.783085930317583
 31
0.0
  0
LINE
  5
FD84
  8
0
 10
261.2334332723313
 20
34.383488836854639
 30
0.0
 11
258.8334336239987
 21
34.383488836854639
 31
0.0
  0
LINE
  5
FD85
  8
0
 10
261.33343496510321
 20
34.241074714034738
 30
0.0
 11
261.33343496510321
 21
33.583287167519273
 31
0.0
  0
LINE
  5
FD86
  8
0
 10
258.8339216370278
 20
40.583287383586111
 30
0.0
 11
258.87197175213618
 21
39.711772307444299
 31
0.0
  0
POLYLINE
  5
FD87
  8
0
 66
     1
 10
0.0
 20
0.0
 30
0.0
 70
   128
  0
VERTEX
  5
10862
  8
0
 10
269.61783611366081
 20
31.61753529605264
 30
0.0
  0
VERTEX
  5
10863
  8
0
 10
271.30856656619841
 20
32.070565055280873
 30
0.0
  0
VERTEX
  5
10864
  8
0
 10
272.63700136133963
 20
32.426517474621477
 30
0.0
  0
SEQEND
  5
10865
  8
0
  0
POLYLINE
  5
FD88
  8
0
 66
     1
 10
0.0
 20
0.0
 30
0.0
 70
   128
  0
VERTEX
  5
10866
  8
0
 10
277.5267689783268
 20
38.253915979683342
 30
0.0
  0
VERTEX
  5
10867
  8
0
 10
277.67932334133911
 20
39.997628907829458
 30
0.0
  0
VERTEX
  5
10868
  8
0
 10
277.79918828198242
 20
41.367689049027803
 30
0.0
  0
SEQEND
  5
10869
  8
0
  0
CIRCLE
  5
FD89
  8
0
 10
268.83343533465182
 20
40.583287383586168
 30
0.0
 40
6.4999999999999796
  0
ARC
  5
FD8A
  8
0
 10
270.9448173913608
 20
102.5029293868058
 30
0.0
 40
1.5000000000000571
 50
5.0000000011507071
 51
95.000000001144087
  0
CIRCLE
  5
FD8D
  8
0
 10
268.83343533465199
 20
40.583287383586168
 30
0.0
 40
6.0000000000001128
  0
LINE
  5
FD94
  8
0
 10
261.6543836254769
 20
33.904236759215543
 30
0.0
 11
261.33343496510321
 21
33.583287167519273
 31
0.0
  0
LINE
  5
FD95
  8
0
 10
255.8834358412914
 20
46.78328756165498
 30
0.0
 11
256.33343600818449
 21
46.78328756165498
 31
0.0
  0
LINE
  5
FD96
  8
0
 10
256.33343600818449
 20
34.383287205517227
 30
0.0
 11
255.8834358412914
 21
34.383287205517227
 31
0.0
  0
ARC
  5
FD97
  8
0
 10
256.33343533465182
 20
47.283287383586149
 30
0.0
 40
0.5
 50
270.0
 51
0.0
  0
ARC
  5
FD98
  8
0
 10
256.33343533465182
 20
33.883287383586122
 30
0.0
 40
0.5
 50
0.0
 51
90.000000000000028
  0
LINE
  5
FD99
  8
0
 10
256.8334370214634
 20
47.383287473738129
 30
0.0
 11
257.03343668171692
 21
47.583287599652941
 31
0.0
  0
LINE
  5
FD9A
  8
0
 10
257.03343668171692
 20
33.583287167519273
 30
0.0
 11
256.8334370214634
 21
33.783287293434078
 31
0.0
  0
LINE
  5
FD9B
  8
0
 10
261.33343496510321
 20
33.583287167519273
 30
0.0
 11
257.03343668171692
 21
33.583287167519273
 31
0.0
  0
LINE
  5
FD9C
  8
0
 10
257.03343668171692
 20
47.583287599652941
 30
0.0
 11
260.15864976832199
 21
47.583287599652941
 31
0.0
  0
LINE
  5
FD9D
  8
0
 10
259.37968784162331
 20
37.583287357509079
 30
0.0
 11
258.8334336239987
 21
37.583287357509079
 31
0.0
  0
CIRCLE
  5
FD9E
  8
0
 10
249.18411492337799
 20
40.583033574415147
 30
0.0
 40
1.650270088832708
  0
LINE
  5
FDA7
  8
0
 10
117.2349388513272
 20
162.1855890873552
 30
0.0
 11
117.4487407121365
 21
162.1855890873552
 31
0.0
  0
POLYLINE
  5
FDA8
  8
0
 66
     1
 10
0.0
 20
0.0
 30
0.0
 70
     2
  0
VERTEX
  5
FE12
  8
0
 10
67.034808060855312
 20
167.29369992685619
 30
0.0
 42
-0.000996910701316
  0
VERTEX
  5
FE41
  8
0
 10
67.369498907717571
 20
167.2610215276263
 30
0.0
 42
-0.0022365488418489
 70
     1
  0
VERTEX
  5
FE13
  8
0
 10
67.518586004001008
 20
167.24549107391519
 30
0.0
 42
-0.0000201291712912
  0
VERTEX
  5
FE42
  8
0
 10
68.118868577015746
 20
167.1802194423617
 30
0.0
 42
-0.0011530711820885
 70
     1
  0
VERTEX
  5
FE14
  8
0
 10
68.129345025353587
 20
167.1790554084254
 30
0.0
 42
-0.0006275252060718
  0
VERTEX
  5
FE43
  8
0
 10
68.469237605151633
 20
167.1400642254884
 30
0.0
 42
-0.0006980023166515
 70
     1
  0
VERTEX
  5
FE15
  8
0
 10
68.774717344606756
 20
167.10420000020559
 30
0.0
 42
-0.0004633201090917
  0
VERTEX
  5
FE44
  8
0
 10
69.025787971373575
 20
167.07413221780911
 30
0.0
 42
-0.0003895328190121
 70
     1
  0
VERTEX
  5
FE16
  8
0
 10
69.324356219716492
 20
167.0378595231214
 30
0.0
 42
-0.0009974874109299
  0
VERTEX
  5
FE45
  8
0
 10
69.618586005291945
 20
167.0012853697408
 30
0.0
 42
-0.0006328415395804
 70
     1
  0
VERTEX
  5
FE17
  8
0
 10
70.082161478933244
 20
166.94212520211201
 30
0.0
 42
-0.0015226251831068
  0
VERTEX
  5
FE46
  8
0
 10
70.41653303961175
 20
166.89798792212241
 30
0.0
 42
-0.0009506165980693
 70
     1
  0
VERTEX
  5
FE18
  8
0
 10
70.951746907082324
 20
166.82464398097369
 30
0.0
 42
-0.0019543563234517
  0
VERTEX
  5
FE47
  8
0
 10
71.404555680519465
 20
166.75991020027411
 30
0.0
 42
-0.001441654737008
 70
     1
  0
VERTEX
  5
FE19
  8
0
 10
72.01778743776606
 20
166.66798786484929
 30
0.0
 42
-0.0021672276601978
  0
VERTEX
  5
FE48
  8
0
 10
72.614930266272495
 20
166.5740655057125
 30
0.0
 42
-0.0020342128927237
 70
     1
  0
VERTEX
  5
FE1A
  8
0
 10
73.250255927468061
 20
166.46865951434049
 30
0.0
 42
-0.00173472565303
  0
VERTEX
  5
FE49
  8
0
 10
73.702006099802006
 20
166.3902068632469
 30
0.0
 42
-0.001722556327465
 70
     1
  0
VERTEX
  5
FE1B
  8
0
 10
74.156390558809221
 20
166.3080561657633
 30
0.0
 42
-0.0024527402600616
  0
VERTEX
  5
FE4A
  8
0
 10
74.746997811866095
 20
166.19617604810719
 30
0.0
 42
-0.0025545458609599
 70
     1
  0
VERTEX
  5
FE1C
  8
0
 10
75.31296385310111
 20
166.0830811303114
 30
0.0
 42
-0.0016369468954497
  0
VERTEX
  5
FE4B
  8
0
 10
75.785747493622694
 20
165.9844779072809
 30
0.0
 42
-0.0019855987860794
 70
     1
  0
VERTEX
  5
FE1D
  8
0
 10
76.174916230067765
 20
165.90036660853531
 30
0.0
 42
-0.0015922146765998
  0
VERTEX
  5
FE4C
  8
0
 10
76.725638106667247
 20
165.77720742366179
 30
0.0
 42
-0.0022144676152586
 70
     1
  0
VERTEX
  5
FE1E
  8
0
 10
77.120925523059313
 20
165.68564297904899
 30
0.0
 42
-0.0008383069717187
  0
VERTEX
  5
FE4D
  8
0
 10
77.445274634183065
 20
165.60842112865251
 30
0.0
 42
-0.0002920964439509
 70
     1
  0
VERTEX
  5
FE1F
  8
0
 10
78.375641673656332
 20
165.3846932019168
 30
0.0
 42
-0.0014523104035537
  0
VERTEX
  5
FE4E
  8
0
 10
79.355026034282218
 20
165.1455604187733
 30
0.0
 42
0.0013149406847758
 70
     1
  0
VERTEX
  5
FE20
  8
0
 10
80.334410394908218
 20
164.90642763562991
 30
0.0
 42
0.0041993224891287
  0
VERTEX
  5
FE4F
  8
0
 10
81.070056408267178
 20
164.7353815662982
 30
0.0
 42
0.0032578172530164
 70
     1
  0
VERTEX
  5
FE21
  8
0
 10
82.02147922398467
 20
164.52907118434439
 30
0.0
 42
0.0043284341672677
  0
VERTEX
  5
FE50
  8
0
 10
82.335770746938579
 20
164.46589573296481
 30
0.0
 42
0.0020817311051775
 70
     1
  0
VERTEX
  5
FE22
  8
0
 10
82.990881459668913
 20
164.3429285874337
 30
0.0
 42
0.0092224515181161
  0
VERTEX
  5
FE51
  8
0
 10
83.792964054444383
 20
164.21107026697021
 30
0.0
 42
0.0076938722932224
 70
     1
  0
VERTEX
  5
FE23
  8
0
 10
84.759171440643385
 20
164.0856296335532
 30
0.0
 42
0.0108821005904245
  0
VERTEX
  5
FE52
  8
0
 10
85.620276658825787
 20
164.00622282001521
 30
0.0
 42
0.0132093694639507
 70
     1
  0
VERTEX
  5
FE24
  8
0
 10
86.332036881473073
 20
163.9750460346483
 30
0.0
 42
0.0049170584622311
  0
VERTEX
  5
FE53
  8
0
 10
86.933973358026378
 20
163.9705174912331
 30
0.0
 42
0.0075673080904368
 70
     1
  0
VERTEX
  5
FE25
  8
0
 10
87.325061986010496
 20
163.97734080890331
 30
0.0
 42
0.0034102092874519
  0
VERTEX
  5
FE54
  8
0
 10
87.828353044249525
 20
163.99718071119261
 30
0.0
 42
0.004665915475401
 70
     1
  0
VERTEX
  5
FE26
  8
0
 10
88.195918333497374
 20
164.01762076196059
 30
0.0
 42
0.0046337106488591
  0
VERTEX
  5
FE55
  8
0
 10
88.822038731400426
 20
164.064133626315
 30
0.0
 42
0.0046619422129207
 70
     1
  0
VERTEX
  5
FE27
  8
0
 10
89.443400675028784
 20
164.12192600083731
 30
0.0
 42
0.0029287830721126
  0
VERTEX
  5
FE56
  8
0
 10
89.973587580434454
 20
164.17936895448619
 30
0.0
 42
0.0024806789535213
 70
     1
  0
VERTEX
  5
FE28
  8
0
 10
90.598774359547505
 20
164.25395617088029
 30
0.0
 42
0.0038079288520367
  0
VERTEX
  5
FE57
  8
0
 10
91.697884528161012
 20
164.39912655574349
 30
0.0
 42
0.004123105259883
 70
     1
  0
VERTEX
  5
FE29
  8
0
 10
92.710725305961887
 20
164.54928411259391
 30
0.0
 42
0.0022305099564768
  0
VERTEX
  5
FE58
  8
0
 10
94.165646490695977
 20
164.78391277012869
 30
0.0
 42
0.0023303155913098
 70
     1
  0
VERTEX
  5
FE2A
  8
0
 10
95.556148705924102
 20
165.02118591304989
 30
0.0
 42
0.0004470725730131
  0
VERTEX
  5
FE59
  8
0
 10
96.6375570466098
 20
165.2119035652361
 30
0.0
 42
-0.0006344024504191
 70
     1
  0
VERTEX
  5
FE2B
  8
0
 10
97.399691585380538
 20
165.34601954602189
 30
0.0
 42
-0.0004041929756192
  0
VERTEX
  5
FE5A
  8
0
 10
98.457229133893634
 20
165.5298549135359
 30
0.0
 42
-0.0005147344262397
 70
     1
  0
VERTEX
  5
FE2C
  8
0
 10
99.287919893934145
 20
165.67268440636741
 30
0.0
 42
-0.0021537903430889
  0
VERTEX
  5
FE5B
  8
0
 10
99.894498815395309
 20
165.77364994766671
 30
0.0
 42
-0.0013525952356914
 70
     1
  0
VERTEX
  5
FE2D
  8
0
 10
100.8614791529601
 20
165.92764351826401
 30
0.0
 42
-0.0025524977983314
  0
VERTEX
  5
FE5C
  8
0
 10
101.5531082917628
 20
166.03225488458889
 30
0.0
 42
-0.0022206825862147
 70
     1
  0
VERTEX
  5
FE2E
  8
0
 10
102.34919128537651
 20
166.14490269697831
 30
0.0
 42
-0.003118774182512
  0
VERTEX
  5
FE5D
  8
0
 10
103.11231671940089
 20
166.24458665255449
 30
0.0
 42
-0.0032442323378673
 70
     1
  0
VERTEX
  5
FE2F
  8
0
 10
103.8470918924038
 20
166.3310723212997
 30
0.0
 42
-0.0022187459926069
  0
VERTEX
  5
FE5E
  8
0
 10
104.2051384581646
 20
166.36925443297031
 30
0.0
 42
-0.0015280538039176
 70
     1
  0
VERTEX
  5
FE30
  8
0
 10
104.7254243557678
 20
166.4207976867205
 30
0.0
 42
-0.0047152142792866
  0
VERTEX
  5
FE5F
  8
0
 10
105.1736785422072
 20
166.45955961081779
 30
0.0
 42
-0.0027785340631426
 70
     1
  0
VERTEX
  5
FE31
  8
0
 10
105.9352620111472
 20
166.51393059500359
 30
0.0
 42
-0.0094907270060311
  0
VERTEX
  5
FE60
  8
0
 10
106.7047543588651
 20
166.5499176088324
 30
0.0
 42
-0.0080342797468778
 70
     1
  0
VERTEX
  5
FE32
  8
0
 10
107.61464778615949
 20
166.56054934702709
 30
0.0
 42
-0.0073726715001586
  0
VERTEX
  5
FE61
  8
0
 10
108.079459785542
 20
166.55165676940811
 30
0.0
 42
-0.0060650054253389
 70
     1
  0
VERTEX
  5
FE33
  8
0
 10
108.6439847161854
 20
166.5256679362985
 30
0.0
 42
-0.0123106761811534
  0
VERTEX
  5
FE62
  8
0
 10
109.3155061573607
 20
166.46996955823019
 30
0.0
 42
-0.0112358211104208
 70
     1
  0
VERTEX
  5
FE34
  8
0
 10
110.0475606175464
 20
166.37437817301659
 30
0.0
 42
-0.0115896208375513
  0
VERTEX
  5
FE63
  8
0
 10
110.63921768961789
 20
166.2694667607029
 30
0.0
 42
-0.0125643674184634
 70
     1
  0
VERTEX
  5
FE35
  8
0
 10
111.1796771398228
 20
166.1464515514576
 30
0.0
 42
-0.0106179796235319
  0
VERTEX
  5
FE64
  8
0
 10
111.729125349615
 20
165.99429143912349
 30
0.0
 42
-0.0123576569362176
 70
     1
  0
VERTEX
  5
FE36
  8
0
 10
112.19473879279801
 20
165.84199900117261
 30
0.0
 42
-0.0086611085922757
  0
VERTEX
  5
FE65
  8
0
 10
112.6222957031259
 20
165.68196919943421
 30
0.0
 42
-0.0106022009754212
 70
     1
  0
VERTEX
  5
FE37
  8
0
 10
112.9662923024555
 20
165.53787714764971
 30
0.0
 42
-0.0101584052149974
  0
VERTEX
  5
FE66
  8
0
 10
113.3520200820912
 20
165.35713516649679
 30
0.0
 42
-0.0101916981041027
 70
     1
  0
VERTEX
  5
FE38
  8
0
 10
113.7288397731698
 20
165.16148960006859
 30
0.0
 42
-0.0094461310741112
  0
VERTEX
  5
FE67
  8
0
 10
114.0211064233135
 20
164.99486010029969
 30
0.0
 42
-0.0081691013878167
 70
     1
  0
VERTEX
  5
FE39
  8
0
 10
114.3520577869332
 20
164.790402964289
 30
0.0
 42
-0.0143961696435571
  0
VERTEX
  5
FE68
  8
0
 10
114.87840130077529
 20
164.43145201985769
 30
0.0
 42
-0.0154863180104431
 70
     1
  0
VERTEX
  5
FE3A
  8
0
 10
115.34690585603219
 20
164.0691301040263
 30
0.0
 42
-0.0049351463084452
  0
VERTEX
  5
FE69
  8
0
 10
115.7004472038152
 20
163.77187536308881
 30
0.0
 42
-0.0090830726073904
 70
     1
  0
VERTEX
  5
FE3B
  8
0
 10
115.8879463701593
 20
163.60503565344891
 30
0.0
 42
-0.0033092246496536
  0
VERTEX
  5
FE6A
  8
0
 10
116.145047079257
 20
163.3645863113361
 30
0.0
 42
-0.0063865661249949
 70
     1
  0
VERTEX
  5
FE3C
  8
0
 10
116.27582787388511
 20
163.23743304326021
 30
0.0
 42
-0.0035307283136611
  0
VERTEX
  5
FE6B
  8
0
 10
116.4566846892903
 20
163.05447644148259
 30
0.0
 42
-0.0052794757741713
 70
     1
  0
VERTEX
  5
FE3D
  8
0
 10
116.57546262423941
 20
162.93000748113661
 30
0.0
 42
-0.0032475974212905
  0
VERTEX
  5
FE6D
  8
0
 10
116.58898800541461
 20
162.9153412439864
 30
0.0
 42
-0.0001557139831017
 70
     1
  0
VERTEX
  5
FE3E
  8
0
 10
116.8689841866769
 20
162.6075499787504
 30
0.0
 42
-0.0058496373761837
  0
VERTEX
  5
FE6C
  8
0
 10
117.0046159497997
 20
162.45480830098131
 30
0.0
 42
-0.0033725059293383
 70
     1
  0
VERTEX
  5
FE3F
  8
0
 10
117.2349388513272
 20
162.1855890873552
 30
0.0
  0
SEQEND
  5
FE40
  8
0
  0
POLYLINE
  5
FDA9
  8
0
 66
     1
 10
0.0
 20
0.0
 30
0.0
 70
     2
  0
VERTEX
  5
FDAA
  8
0
 10
67.034808060855184
 20
169.08497241388201
 30
0.0
 42
-0.0023150027217891
  0
VERTEX
  5
FDDF
  8
0
 10
67.864902000836082
 20
169.05012458610929
 30
0.0
 42
-0.0047909097511781
 70
     1
  0
VERTEX
  5
FDAB
  8
0
 10
68.265736725881524
 20
169.02758691949481
 30
0.0
 42
-0.0000803458751331
  0
VERTEX
  5
FDE0
  8
0
 10
69.573458363031023
 20
168.94126979028081
 30
0.0
 42
-0.0021019453025571
 70
     1
  0
VERTEX
  5
FDAC
  8
0
 10
69.623430754171522
 20
168.93775220275239
 30
0.0
 42
-0.0016954563703599
  0
VERTEX
  5
FDE1
  8
0
 10
70.416836405549475
 20
168.87584492343009
 30
0.0
 42
-0.0019803065681545
 70
     1
  0
VERTEX
  5
FDAD
  8
0
 10
71.095710135897775
 20
168.81785014808901
 30
0.0
 42
-0.0016389375897955
  0
VERTEX
  5
FDE2
  8
0
 10
71.857752452784553
 20
168.74719063388869
 30
0.0
 42
-0.0020725989884495
 70
     1
  0
VERTEX
  5
FDAE
  8
0
 10
72.459918030030281
 20
168.68684397704811
 30
0.0
 42
-0.0013148007503873
  0
VERTEX
  5
FDE3
  8
0
 10
73.150738730857483
 20
168.6128821989532
 30
0.0
 42
-0.0022674780814072
 70
     1
  0
VERTEX
  5
FDAF
  8
0
 10
73.550996029261341
 20
168.5671263860514
 30
0.0
 42
-0.0005992053921827
  0
VERTEX
  5
FDE4
  8
0
 10
74.106088590966465
 20
168.500444140529
 30
0.0
 42
-0.0006705421265102
 70
     1
  0
VERTEX
  5
FDB0
  8
0
 10
74.601973833309216
 20
168.4395964979137
 30
0.0
 42
-0.0005150504701929
  0
VERTEX
  5
FDE5
  8
0
 10
75.073245254742233
 20
168.3806344671861
 30
0.0
 42
0.0005874309040532
 70
     1
  0
VERTEX
  5
FDB1
  8
0
 10
75.544516676175135
 20
168.32167243645861
 30
0.0
 42
0.0009333266019454
  0
VERTEX
  5
FDE6
  8
0
 10
76.006161849871205
 20
168.2653403123731
 30
0.0
 42
0.0008775577933152
 70
     1
  0
VERTEX
  5
FDB2
  8
0
 10
76.497358297360961
 20
168.2072069014624
 30
0.0
 42
0.0020414576335775
  0
VERTEX
  5
FDE7
  8
0
 10
76.884767708716026
 20
168.16364857974889
 30
0.0
 42
0.0015992286267483
 70
     1
  0
VERTEX
  5
FDB3
  8
0
 10
77.379697025420228
 20
168.1116476699371
 30
0.0
 42
0.0014874664674394
  0
VERTEX
  5
FDE8
  8
0
 10
77.790858627047783
 20
168.0710126599206
 30
0.0
 42
0.0013824653921764
 70
     1
  0
VERTEX
  5
FDB4
  8
0
 10
78.233492325657835
 20
168.02983131394751
 30
0.0
 42
0.0014268559742665
  0
VERTEX
  5
FDE9
  8
0
 10
78.635753814849522
 20
167.99468463909119
 30
0.0
 42
0.0011923461418277
 70
     1
  0
VERTEX
  5
FDB5
  8
0
 10
79.117345243565296
 20
167.95514758093921
 30
0.0
 42
0.0018882389818229
  0
VERTEX
  5
FDEA
  8
0
 10
79.733089288745759
 20
167.90841442504319
 30
0.0
 42
0.001830838433424
 70
     1
  0
VERTEX
  5
FDB6
  8
0
 10
80.368478975482404
 20
167.86494097417301
 30
0.0
 42
0.0013151051820473
  0
VERTEX
  5
FDEB
  8
0
 10
80.903631747021791
 20
167.83170721636091
 30
0.0
 42
0.0015362713615202
 70
     1
  0
VERTEX
  5
FDB7
  8
0
 10
81.361897417425212
 20
167.80587081078579
 30
0.0
 42
0.0012528968735066
  0
VERTEX
  5
FDEC
  8
0
 10
81.821979610858762
 20
167.78250585858581
 30
0.0
 42
0.0013497349257314
 70
     1
  0
VERTEX
  5
FDB8
  8
0
 10
82.249159973653946
 20
167.76304055365591
 30
0.0
 42
0.001524607039153
  0
VERTEX
  5
FDED
  8
0
 10
82.707732904438686
 20
167.74478578517389
 30
0.0
 42
0.0014052625407994
 70
     1
  0
VERTEX
  5
FDB9
  8
0
 10
83.205358318785102
 20
167.72789635030929
 30
0.0
 42
0.001519568944553
  0
VERTEX
  5
FDEE
  8
0
 10
83.657752199140305
 20
167.7151909788256
 30
0.0
 42
0.0013600613050796
 70
     1
  0
VERTEX
  5
FDBA
  8
0
 10
84.163275857223766
 20
167.70390676833571
 30
0.0
 42
0.0017436366084183
  0
VERTEX
  5
FDEF
  8
0
 10
84.842498165055076
 20
167.69296305574761
 30
0.0
 42
0.0018316233807417
 70
     1
  0
VERTEX
  5
FDBB
  8
0
 10
85.48915043718489
 20
167.68716875697999
 30
0.0
 42
0.0008780856907206
  0
VERTEX
  5
FDF0
  8
0
 10
86.039101907945224
 20
167.68522147963631
 30
0.0
 42
0.0011855209676161
 70
     1
  0
VERTEX
  5
FDBC
  8
0
 10
86.446439931320114
 20
167.68546034669961
 30
0.0
 42
0.0008754418576781
  0
VERTEX
  5
FDF1
  8
0
 10
86.980063447093926
 20
167.68797284298631
 30
0.0
 42
0.000936429601757
 70
     1
  0
VERTEX
  5
FDBD
  8
0
 10
87.478921423017354
 20
167.69212946168619
 30
0.0
 42
0.0009187649408208
  0
VERTEX
  5
FDF2
  8
0
 10
87.907699545283322
 20
167.69729325636831
 30
0.0
 42
0.0007085619250582
 70
     1
  0
VERTEX
  5
FDBE
  8
0
 10
88.463654684673088
 20
167.70579843053559
 30
0.0
 42
0.001411412937559
  0
VERTEX
  5
FDF3
  8
0
 10
89.288779726657594
 20
167.72192100306199
 30
0.0
 42
0.0012778245701609
 70
     1
  0
VERTEX
  5
FDBF
  8
0
 10
90.200057012947696
 20
167.74463066477691
 30
0.0
 42
0.0008175731358018
  0
VERTEX
  5
FDF4
  8
0
 10
90.812916117391069
 20
167.7624737831072
 30
0.0
 42
0.0008854864073856
 70
     1
  0
VERTEX
  5
FDC0
  8
0
 10
91.378712044371454
 20
167.78087567827529
 30
0.0
 42
0.0011123212460183
  0
VERTEX
  5
FDF5
  8
0
 10
92.099521453716065
 20
167.8072027305559
 30
0.0
 42
0.0011112586961686
 70
     1
  0
VERTEX
  5
FDC1
  8
0
 10
92.820895749434385
 20
167.836763303102
 30
0.0
 42
0.0010393430255317
  0
VERTEX
  5
FDF6
  8
0
 10
93.40493726925888
 20
167.86321299259751
 30
0.0
 42
0.0009424903089769
 70
     1
  0
VERTEX
  5
FDC2
  8
0
 10
94.048875596853577
 20
167.8949333128204
 30
0.0
 42
0.0012511583116645
  0
VERTEX
  5
FDF7
  8
0
 10
94.76576313894293
 20
167.93340063318169
 30
0.0
 42
0.0011930569420344
 70
     1
  0
VERTEX
  5
FDC3
  8
0
 10
95.517356510689865
 20
167.97741591149551
 30
0.0
 42
0.0011932231062452
  0
VERTEX
  5
FDF8
  8
0
 10
96.312078738441414
 20
168.02776388731689
 30
0.0
 42
0.0013404783873355
 70
     1
  0
VERTEX
  5
FDC4
  8
0
 10
97.019262593802523
 20
168.07616520435189
 30
0.0
 42
0.0008033999873918
  0
VERTEX
  5
FDF9
  8
0
 10
97.676866386073016
 20
168.12400684688961
 30
0.0
 42
0.0009633440807334
 70
     1
  0
VERTEX
  5
FDC5
  8
0
 10
98.225143919871925
 20
168.16584293782299
 30
0.0
 42
0.0008168575452611
  0
VERTEX
  5
FDFA
  8
0
 10
98.761077975867011
 20
168.20865694522709
 30
0.0
 42
0.0007974416960832
 70
     1
  0
VERTEX
  5
FDC6
  8
0
 10
99.309916305720549
 20
168.2542855856349
 30
0.0
 42
0.0012222711952244
  0
VERTEX
  5
FDFB
  8
0
 10
100.0943709748226
 20
168.322694340949
 30
0.0
 42
0.0013007459385985
 70
     1
  0
VERTEX
  5
FDC7
  8
0
 10
100.8311654426027
 20
168.3906947079204
 30
0.0
 42
0.0006436084745511
  0
VERTEX
  5
FDFC
  8
0
 10
101.2986281708054
 20
168.4356718388303
 30
0.0
 42
0.0007632968919892
 70
     1
  0
VERTEX
  5
FDC8
  8
0
 10
101.6926824150156
 20
168.47470530477389
 30
0.0
 42
0.0010000582630291
  0
VERTEX
  5
FDFD
  8
0
 10
102.3190748007637
 20
168.5389848432792
 30
0.0
 42
0.001110378365248
 70
     1
  0
VERTEX
  5
FDC9
  8
0
 10
102.882983587022
 20
168.59925870735219
 30
0.0
 42
0.0007321049133113
  0
VERTEX
  5
FDFE
  8
0
 10
103.59301033818519
 20
168.67779788303909
 30
0.0
 42
0.0007187327809248
 70
     1
  0
VERTEX
  5
FDCA
  8
0
 10
104.3160120510906
 20
168.759896549031
 30
0.0
 42
0.0004923937030396
  0
VERTEX
  5
FDFF
  8
0
 10
104.7416823880893
 20
168.80927715362711
 30
0.0
 42
-0.0002181559019854
 70
     1
  0
VERTEX
  5
FDCB
  8
0
 10
105.16735272508799
 20
168.8586577582233
 30
0.0
 42
-0.000952805307243
  0
VERTEX
  5
FE00
  8
0
 10
105.5257156964053
 20
168.8993799355012
 30
0.0
 42
-0.0004723141697978
 70
     1
  0
VERTEX
  5
FDCC
  8
0
 10
106.2488765329776
 20
168.97946838635431
 30
0.0
 42
-0.0061665536008122
  0
VERTEX
  5
FE01
  8
0
 10
107.0420552196269
 20
169.05666552418111
 30
0.0
 42
-0.0111128659402943
 70
     1
  0
VERTEX
  5
FDCD
  8
0
 10
107.4834467909961
 20
169.0842720569635
 30
0.0
 42
-0.0010680395066565
  0
VERTEX
  5
FE02
  8
0
 10
107.95348390238171
 20
169.10219010892229
 30
0.0
 42
-0.0005401062664643
 70
     1
  0
VERTEX
  5
FDCE
  8
0
 10
108.88307269546441
 20
169.13463268724391
 30
0.0
 42
-0.0000244939562671
  0
VERTEX
  5
FE03
  8
0
 10
109.1240566021424
 20
169.14277056736501
 30
0.0
 42
-0.0000147479820726
 70
     1
  0
VERTEX
  5
FDCF
  8
0
 10
109.52429202837391
 20
169.15625482673991
 30
0.0
 42
-0.0011906022149847
  0
VERTEX
  5
FE04
  8
0
 10
109.90500958828299
 20
169.1681627487439
 30
0.0
 42
-0.0007345384761769
 70
     1
  0
VERTEX
  5
FDD0
  8
0
 10
110.5221780750458
 20
169.18508796083859
 30
0.0
 42
-0.0286337257767809
  0
VERTEX
  5
FE05
  8
0
 10
110.9345121858655
 20
169.1721761252787
 30
0.0
 42
-0.0165529694931342
 70
     1
  0
VERTEX
  5
FDD1
  8
0
 10
111.642466407279
 20
169.08562001634121
 30
0.0
 42
-0.0252523194457842
  0
VERTEX
  5
FE06
  8
0
 10
112.15513266797819
 20
168.9788894627022
 30
0.0
 42
-0.020363041400297
 70
     1
  0
VERTEX
  5
FDD2
  8
0
 10
112.77605540112749
 20
168.78921474497619
 30
0.0
 42
-0.0227046209594702
  0
VERTEX
  5
FE07
  8
0
 10
113.4124636157585
 20
168.53311079735161
 30
0.0
 42
-0.025714014135917
 70
     1
  0
VERTEX
  5
FDD3
  8
0
 10
113.9499781657554
 20
168.25367804246881
 30
0.0
 42
-0.0166061188181218
  0
VERTEX
  5
FE08
  8
0
 10
114.4446356910603
 20
167.94076476555429
 30
0.0
 42
-0.0204823641322902
 70
     1
  0
VERTEX
  5
FDD4
  8
0
 10
114.8258336664906
 20
167.65800902050989
 30
0.0
 42
-0.0133721737818451
  0
VERTEX
  5
FE09
  8
0
 10
115.13947581478349
 20
167.39064972254161
 30
0.0
 42
-0.0137561376277023
 70
     1
  0
VERTEX
  5
FDD5
  8
0
 10
115.4298246165294
 20
167.1145994812936
 30
0.0
 42
-0.0222412079572286
  0
VERTEX
  5
FE0A
  8
0
 10
115.84495792674259
 20
166.6587198477045
 30
0.0
 42
-0.0242924902557839
 70
     1
  0
VERTEX
  5
FDD6
  8
0
 10
116.18464327939451
 20
166.20778223424779
 30
0.0
 42
-0.0133943837907364
  0
VERTEX
  5
FE0B
  8
0
 10
116.4929572106202
 20
165.72702235082761
 30
0.0
 42
-0.0203160487834453
 70
     1
  0
VERTEX
  5
FDD7
  8
0
 10
116.6744577790033
 20
165.39700714631289
 30
0.0
 42
-0.0043912063344094
  0
VERTEX
  5
FE0C
  8
0
 10
116.8051403554273
 20
165.1288167664261
 30
0.0
 42
-0.0093319672903299
 70
     1
  0
VERTEX
  5
FDD8
  8
0
 10
116.86315132894811
 20
165.0009697115286
 30
0.0
 42
-0.0082233351541228
  0
VERTEX
  5
FE0D
  8
0
 10
116.97005278280081
 20
164.7415388794561
 30
0.0
 42
-0.0088296155071536
 70
     1
  0
VERTEX
  5
FDD9
  8
0
 10
117.06131818438421
 20
164.4966648056614
 30
0.0
 42
-0.0087830559845565
  0
VERTEX
  5
FE0E
  8
0
 10
117.1184904936235
 20
164.32502242418369
 30
0.0
 42
-0.0060876367508145
 70
     1
  0
VERTEX
  5
FDDA
  8
0
 10
117.1935735315583
 20
164.075048731164
 30
0.0
 42
-0.0153352712037781
  0
VERTEX
  5
FE0F
  8
0
 10
117.2870609100928
 20
163.70730786608871
 30
0.0
 42
-0.0162593692516724
 70
     1
  0
VERTEX
  5
FDDB
  8
0
 10
117.3531607462577
 20
163.35558183178389
 30
0.0
 42
-0.0103568585071443
  0
VERTEX
  5
FE11
  8
0
 10
117.3649406618069
 20
163.26722088347921
 30
0.0
 42
-0.0017289762854413
 70
     1
  0
VERTEX
  5
FDDC
  8
0
 10
117.42268535144269
 20
162.73642848807091
 30
0.0
 42
-0.0144108783862183
  0
VERTEX
  5
FE10
  8
0
 10
117.4371353060579
 20
162.54687834398459
 30
0.0
 42
-0.0075775467094618
 70
     1
  0
VERTEX
  5
FDDD
  8
0
 10
117.4487407121365
 20
162.1855890873552
 30
0.0
  0
SEQEND
  5
FDDE
  8
0
  0
POLYLINE
  5
FE6E
  8
0
 66
     1
 10
0.0
 20
0.0
 30
0.0
 70
     2
  0
VERTEX
  5
FE6F
  8
0
 10
67.034808060855312
 20
157.0774782478542
 30
0.0
 42
0.000996910701316
  0
VERTEX
  5
FE70
  8
0
 10
67.369498907717571
 20
157.11015664708421
 30
0.0
 42
0.0022365488418489
 70
     1
  0
VERTEX
  5
FE71
  8
0
 10
67.518586004001008
 20
157.12568710079529
 30
0.0
 42
0.0000201291712912
  0
VERTEX
  5
FE72
  8
0
 10
68.118868577015746
 20
157.1909587323488
 30
0.0
 42
0.0011530711820885
 70
     1
  0
VERTEX
  5
FE73
  8
0
 10
68.129345025353587
 20
157.19212276628511
 30
0.0
 42
0.0006275252060718
  0
VERTEX
  5
FE74
  8
0
 10
68.469237605151633
 20
157.23111394922211
 30
0.0
 42
0.0006980023166515
 70
     1
  0
VERTEX
  5
FE75
  8
0
 10
68.774717344606756
 20
157.26697817450491
 30
0.0
 42
0.0004633201090917
  0
VERTEX
  5
FE76
  8
0
 10
69.025787971373575
 20
157.29704595690129
 30
0.0
 42
0.0003895328190121
 70
     1
  0
VERTEX
  5
FE77
  8
0
 10
69.324356219716492
 20
157.33331865158911
 30
0.0
 42
0.0009974874109299
  0
VERTEX
  5
FE78
  8
0
 10
69.618586005291945
 20
157.36989280496971
 30
0.0
 42
0.0006328415395804
 70
     1
  0
VERTEX
  5
FE79
  8
0
 10
70.082161478933244
 20
157.4290529725985
 30
0.0
 42
0.0015226251831068
  0
VERTEX
  5
FE7A
  8
0
 10
70.41653303961175
 20
157.4731902525881
 30
0.0
 42
0.0009506165980693
 70
     1
  0
VERTEX
  5
FE7B
  8
0
 10
70.951746907082324
 20
157.54653419373679
 30
0.0
 42
0.0019543563234517
  0
VERTEX
  5
FE7C
  8
0
 10
71.404555680519465
 20
157.6112679744364
 30
0.0
 42
0.001441654737008
 70
     1
  0
VERTEX
  5
FE7D
  8
0
 10
72.01778743776606
 20
157.7031903098611
 30
0.0
 42
0.0021672276601978
  0
VERTEX
  5
FE7E
  8
0
 10
72.614930266272495
 20
157.79711266899801
 30
0.0
 42
0.0020342128927237
 70
     1
  0
VERTEX
  5
FE7F
  8
0
 10
73.250255927468061
 20
157.90251866036999
 30
0.0
 42
0.00173472565303
  0
VERTEX
  5
FE80
  8
0
 10
73.702006099802006
 20
157.98097131146361
 30
0.0
 42
0.001722556327465
 70
     1
  0
VERTEX
  5
FE81
  8
0
 10
74.156390558809221
 20
158.0631220089472
 30
0.0
 42
0.0024527402600616
  0
VERTEX
  5
FE82
  8
0
 10
74.746997811866095
 20
158.17500212660329
 30
0.0
 42
0.0025545458609599
 70
     1
  0
VERTEX
  5
FE83
  8
0
 10
75.31296385310111
 20
158.28809704439911
 30
0.0
 42
0.0016369468954497
  0
VERTEX
  5
FE84
  8
0
 10
75.785747493622694
 20
158.3867002674296
 30
0.0
 42
0.0019855987860794
 70
     1
  0
VERTEX
  5
FE85
  8
0
 10
76.174916230067765
 20
158.4708115661752
 30
0.0
 42
0.0015922146765998
  0
VERTEX
  5
FE86
  8
0
 10
76.725638106667247
 20
158.59397075104869
 30
0.0
 42
0.0022144676152586
 70
     1
  0
VERTEX
  5
FE87
  8
0
 10
77.120925523059313
 20
158.68553519566149
 30
0.0
 42
0.0008383069717187
  0
VERTEX
  5
FE88
  8
0
 10
77.445274634183065
 20
158.762757046058
 30
0.0
 42
0.0002920964439509
 70
     1
  0
VERTEX
  5
FE89
  8
0
 10
78.375641673656332
 20
158.9864849727937
 30
0.0
 42
0.0014523104035537
  0
VERTEX
  5
FE8A
  8
0
 10
79.355026034282218
 20
159.22561775593709
 30
0.0
 42
-0.0013149406847758
 70
     1
  0
VERTEX
  5
FE8B
  8
0
 10
80.334410394908218
 20
159.4647505390806
 30
0.0
 42
-0.0041993224891287
  0
VERTEX
  5
FE8C
  8
0
 10
81.070056408267178
 20
159.63579660841231
 30
0.0
 42
-0.0032578172530164
 70
     1
  0
VERTEX
  5
FE8D
  8
0
 10
82.02147922398467
 20
159.84210699036609
 30
0.0
 42
-0.0043284341672677
  0
VERTEX
  5
FE8E
  8
0
 10
82.335770746938579
 20
159.9052824417457
 30
0.0
 42
-0.0020817311051775
 70
     1
  0
VERTEX
  5
FE8F
  8
0
 10
82.990881459668913
 20
160.0282495872768
 30
0.0
 42
-0.0092224515181161
  0
VERTEX
  5
FE90
  8
0
 10
83.792964054444383
 20
160.1601079077403
 30
0.0
 42
-0.0076938722932224
 70
     1
  0
VERTEX
  5
FE91
  8
0
 10
84.759171440643385
 20
160.28554854115731
 30
0.0
 42
-0.0108821005904245
  0
VERTEX
  5
FE92
  8
0
 10
85.620276658825787
 20
160.3649553546953
 30
0.0
 42
-0.0132093694639507
 70
     1
  0
VERTEX
  5
FE93
  8
0
 10
86.332036881473073
 20
160.39613214006221
 30
0.0
 42
-0.0049170584622311
  0
VERTEX
  5
FE94
  8
0
 10
86.933973358026378
 20
160.40066068347741
 30
0.0
 42
-0.0075673080904368
 70
     1
  0
VERTEX
  5
FE95
  8
0
 10
87.325061986010496
 20
160.3938373658072
 30
0.0
 42
-0.0034102092874519
  0
VERTEX
  5
FE96
  8
0
 10
87.828353044249525
 20
160.3739974635179
 30
0.0
 42
-0.004665915475401
 70
     1
  0
VERTEX
  5
FE97
  8
0
 10
88.195918333497374
 20
160.35355741274989
 30
0.0
 42
-0.0046337106488591
  0
VERTEX
  5
FE98
  8
0
 10
88.822038731400426
 20
160.30704454839551
 30
0.0
 42
-0.0046619422129207
 70
     1
  0
VERTEX
  5
FE99
  8
0
 10
89.443400675028784
 20
160.2492521738732
 30
0.0
 42
-0.0029287830721126
  0
VERTEX
  5
FE9A
  8
0
 10
89.973587580434454
 20
160.19180922022429
 30
0.0
 42
-0.0024806789535213
 70
     1
  0
VERTEX
  5
FE9B
  8
0
 10
90.598774359547505
 20
160.11722200383019
 30
0.0
 42
-0.0038079288520367
  0
VERTEX
  5
FE9C
  8
0
 10
91.697884528161012
 20
159.97205161896699
 30
0.0
 42
-0.004123105259883
 70
     1
  0
VERTEX
  5
FE9D
  8
0
 10
92.710725305961887
 20
159.8218940621166
 30
0.0
 42
-0.0022305099564768
  0
VERTEX
  5
FE9E
  8
0
 10
94.165646490695977
 20
159.58726540458181
 30
0.0
 42
-0.0023303155913098
 70
     1
  0
VERTEX
  5
FE9F
  8
0
 10
95.556148705924102
 20
159.34999226166059
 30
0.0
 42
-0.0004470725730131
  0
VERTEX
  5
FEA0
  8
0
 10
96.6375570466098
 20
159.15927460947441
 30
0.0
 42
0.0006344024504191
 70
     1
  0
VERTEX
  5
FEA1
  8
0
 10
97.399691585380538
 20
159.02515862868859
 30
0.0
 42
0.0004041929756192
  0
VERTEX
  5
FEA2
  8
0
 10
98.457229133893634
 20
158.84132326117461
 30
0.0
 42
0.0005147344262397
 70
     1
  0
VERTEX
  5
FEA3
  8
0
 10
99.287919893934145
 20
158.69849376834301
 30
0.0
 42
0.0021537903430889
  0
VERTEX
  5
FEA4
  8
0
 10
99.894498815395309
 20
158.5975282270438
 30
0.0
 42
0.0013525952356914
 70
     1
  0
VERTEX
  5
FEA5
  8
0
 10
100.8614791529601
 20
158.44353465644639
 30
0.0
 42
0.0025524977983314
  0
VERTEX
  5
FEA6
  8
0
 10
101.5531082917628
 20
158.33892329012161
 30
0.0
 42
0.0022206825862147
 70
     1
  0
VERTEX
  5
FEA7
  8
0
 10
102.34919128537651
 20
158.2262754777322
 30
0.0
 42
0.003118774182512
  0
VERTEX
  5
FEA8
  8
0
 10
103.11231671940089
 20
158.12659152215599
 30
0.0
 42
0.0032442323378673
 70
     1
  0
VERTEX
  5
FEA9
  8
0
 10
103.8470918924038
 20
158.04010585341081
 30
0.0
 42
0.0022187459926069
  0
VERTEX
  5
FEAA
  8
0
 10
104.2051384581646
 20
158.0019237417402
 30
0.0
 42
0.0015280538039176
 70
     1
  0
VERTEX
  5
FEAB
  8
0
 10
104.7254243557678
 20
157.95038048799
 30
0.0
 42
0.0047152142792866
  0
VERTEX
  5
FEAC
  8
0
 10
105.1736785422072
 20
157.91161856389269
 30
0.0
 42
0.0027785340631426
 70
     1
  0
VERTEX
  5
FEAD
  8
0
 10
105.9352620111472
 20
157.85724757970689
 30
0.0
 42
0.0094907270060311
  0
VERTEX
  5
FEAE
  8
0
 10
106.7047543588651
 20
157.82126056587811
 30
0.0
 42
0.0080342797468778
 70
     1
  0
VERTEX
  5
FEAF
  8
0
 10
107.61464778615949
 20
157.81062882768339
 30
0.0
 42
0.0073726715001586
  0
VERTEX
  5
FEB0
  8
0
 10
108.079459785542
 20
157.8195214053024
 30
0.0
 42
0.0060650054253389
 70
     1
  0
VERTEX
  5
FEB1
  8
0
 10
108.6439847161854
 20
157.845510238412
 30
0.0
 42
0.0123106761811534
  0
VERTEX
  5
FEB2
  8
0
 10
109.3155061573607
 20
157.90120861648029
 30
0.0
 42
0.0112358211104208
 70
     1
  0
VERTEX
  5
FEB3
  8
0
 10
110.0475606175464
 20
157.99680000169391
 30
0.0
 42
0.0115896208375513
  0
VERTEX
  5
FEB4
  8
0
 10
110.63921768961789
 20
158.10171141400761
 30
0.0
 42
0.0125643674184634
 70
     1
  0
VERTEX
  5
FEB5
  8
0
 10
111.1796771398228
 20
158.22472662325291
 30
0.0
 42
0.0106179796235319
  0
VERTEX
  5
FEB6
  8
0
 10
111.729125349615
 20
158.37688673558691
 30
0.0
 42
0.0123576569362176
 70
     1
  0
VERTEX
  5
FEB7
  8
0
 10
112.19473879279801
 20
158.5291791735379
 30
0.0
 42
0.0086611085922757
  0
VERTEX
  5
FEB8
  8
0
 10
112.6222957031259
 20
158.6892089752763
 30
0.0
 42
0.0106022009754212
 70
     1
  0
VERTEX
  5
FEB9
  8
0
 10
112.9662923024555
 20
158.8333010270608
 30
0.0
 42
0.0101584052149974
  0
VERTEX
  5
FEBA
  8
0
 10
113.3520200820912
 20
159.01404300821369
 30
0.0
 42
0.0101916981041027
 70
     1
  0
VERTEX
  5
FEBB
  8
0
 10
113.7288397731698
 20
159.20968857464189
 30
0.0
 42
0.0094461310741112
  0
VERTEX
  5
FEBC
  8
0
 10
114.0211064233135
 20
159.3763180744107
 30
0.0
 42
0.0081691013878167
 70
     1
  0
VERTEX
  5
FEBD
  8
0
 10
114.3520577869332
 20
159.58077521042151
 30
0.0
 42
0.0143961696435571
  0
VERTEX
  5
FEBE
  8
0
 10
114.87840130077529
 20
159.93972615485279
 30
0.0
 42
0.0154863180104431
 70
     1
  0
VERTEX
  5
FEBF
  8
0
 10
115.34690585603219
 20
160.30204807068421
 30
0.0
 42
0.0049351463084452
  0
VERTEX
  5
FEC0
  8
0
 10
115.7004472038152
 20
160.5993028116217
 30
0.0
 42
0.0090830726073904
 70
     1
  0
VERTEX
  5
FEC1
  8
0
 10
115.8879463701593
 20
160.7661425212616
 30
0.0
 42
0.0033092246496536
  0
VERTEX
  5
FEC2
  8
0
 10
116.145047079257
 20
161.00659186337441
 30
0.0
 42
0.0063865661249949
 70
     1
  0
VERTEX
  5
FEC3
  8
0
 10
116.27582787388511
 20
161.1337451314503
 30
0.0
 42
0.0035307283136611
  0
VERTEX
  5
FEC4
  8
0
 10
116.4566846892903
 20
161.31670173322789
 30
0.0
 42
0.0052794757741713
 70
     1
  0
VERTEX
  5
FEC5
  8
0
 10
116.57546262423941
 20
161.44117069357389
 30
0.0
 42
0.0032475974212905
  0
VERTEX
  5
FEC6
  8
0
 10
116.58898800541461
 20
161.4558369307241
 30
0.0
 42
0.0001557139831017
 70
     1
  0
VERTEX
  5
FEC7
  8
0
 10
116.8689841866769
 20
161.76362819596011
 30
0.0
 42
0.0058496373761837
  0
VERTEX
  5
FEC8
  8
0
 10
117.0046159497997
 20
161.9163698737292
 30
0.0
 42
0.0033725059293383
 70
     1
  0
VERTEX
  5
FEC9
  8
0
 10
117.2349388513272
 20
162.18558908735531
 30
0.0
  0
SEQEND
  5
FECA
  8
0
  0
POLYLINE
  5
FECB
  8
0
 66
     1
 10
0.0
 20
0.0
 30
0.0
 70
     2
  0
VERTEX
  5
FECC
  8
0
 10
67.034808060855184
 20
155.28620576082849
 30
0.0
 42
0.0023150027217891
  0
VERTEX
  5
FECD
  8
0
 10
67.864902000836082
 20
155.32105358860119
 30
0.0
 42
0.0047909097511781
 70
     1
  0
VERTEX
  5
FECE
  8
0
 10
68.265736725881524
 20
155.3435912552157
 30
0.0
 42
0.0000803458751331
  0
VERTEX
  5
FECF
  8
0
 10
69.573458363031023
 20
155.42990838442969
 30
0.0
 42
0.0021019453025571
 70
     1
  0
VERTEX
  5
FED0
  8
0
 10
69.623430754171522
 20
155.43342597195809
 30
0.0
 42
0.0016954563703599
  0
VERTEX
  5
FED1
  8
0
 10
70.416836405549475
 20
155.49533325128041
 30
0.0
 42
0.0019803065681545
 70
     1
  0
VERTEX
  5
FED2
  8
0
 10
71.095710135897775
 20
155.5533280266215
 30
0.0
 42
0.0016389375897955
  0
VERTEX
  5
FED3
  8
0
 10
71.857752452784553
 20
155.62398754082179
 30
0.0
 42
0.0020725989884495
 70
     1
  0
VERTEX
  5
FED4
  8
0
 10
72.459918030030281
 20
155.68433419766239
 30
0.0
 42
0.0013148007503873
  0
VERTEX
  5
FED5
  8
0
 10
73.150738730857483
 20
155.75829597575731
 30
0.0
 42
0.0022674780814072
 70
     1
  0
VERTEX
  5
FED6
  8
0
 10
73.550996029261341
 20
155.80405178865911
 30
0.0
 42
0.0005992053921827
  0
VERTEX
  5
FED7
  8
0
 10
74.106088590966465
 20
155.87073403418151
 30
0.0
 42
0.0006705421265102
 70
     1
  0
VERTEX
  5
FED8
  8
0
 10
74.601973833309216
 20
155.93158167679681
 30
0.0
 42
0.0005150504701929
  0
VERTEX
  5
FED9
  8
0
 10
75.073245254742233
 20
155.99054370752441
 30
0.0
 42
-0.0005874309040532
 70
     1
  0
VERTEX
  5
FEDA
  8
0
 10
75.544516676175135
 20
156.0495057382519
 30
0.0
 42
-0.0009333266019454
  0
VERTEX
  5
FEDB
  8
0
 10
76.006161849871205
 20
156.10583786233741
 30
0.0
 42
-0.0008775577933152
 70
     1
  0
VERTEX
  5
FEDC
  8
0
 10
76.497358297360961
 20
156.16397127324811
 30
0.0
 42
-0.0020414576335775
  0
VERTEX
  5
FEDD
  8
0
 10
76.884767708716026
 20
156.20752959496161
 30
0.0
 42
-0.0015992286267483
 70
     1
  0
VERTEX
  5
FEDE
  8
0
 10
77.379697025420228
 20
156.25953050477341
 30
0.0
 42
-0.0014874664674394
  0
VERTEX
  5
FEDF
  8
0
 10
77.790858627047783
 20
156.30016551478991
 30
0.0
 42
-0.0013824653921764
 70
     1
  0
VERTEX
  5
FEE0
  8
0
 10
78.233492325657835
 20
156.341346860763
 30
0.0
 42
-0.0014268559742665
  0
VERTEX
  5
FEE1
  8
0
 10
78.635753814849522
 20
156.37649353561929
 30
0.0
 42
-0.0011923461418277
 70
     1
  0
VERTEX
  5
FEE2
  8
0
 10
79.117345243565296
 20
156.4160305937713
 30
0.0
 42
-0.0018882389818229
  0
VERTEX
  5
FEE3
  8
0
 10
79.733089288745759
 20
156.46276374966729
 30
0.0
 42
-0.001830838433424
 70
     1
  0
VERTEX
  5
FEE4
  8
0
 10
80.368478975482404
 20
156.50623720053741
 30
0.0
 42
-0.0013151051820473
  0
VERTEX
  5
FEE5
  8
0
 10
80.903631747021791
 20
156.5394709583496
 30
0.0
 42
-0.0015362713615202
 70
     1
  0
VERTEX
  5
FEE6
  8
0
 10
81.361897417425212
 20
156.56530736392469
 30
0.0
 42
-0.0012528968735066
  0
VERTEX
  5
FEE7
  8
0
 10
81.821979610858762
 20
156.5886723161247
 30
0.0
 42
-0.0013497349257314
 70
     1
  0
VERTEX
  5
FEE8
  8
0
 10
82.249159973653946
 20
156.6081376210546
 30
0.0
 42
-0.001524607039153
  0
VERTEX
  5
FEE9
  8
0
 10
82.707732904438686
 20
156.62639238953659
 30
0.0
 42
-0.0014052625407994
 70
     1
  0
VERTEX
  5
FEEA
  8
0
 10
83.205358318785102
 20
156.64328182440121
 30
0.0
 42
-0.001519568944553
  0
VERTEX
  5
FEEB
  8
0
 10
83.657752199140305
 20
156.6559871958849
 30
0.0
 42
-0.0013600613050796
 70
     1
  0
VERTEX
  5
FEEC
  8
0
 10
84.163275857223766
 20
156.66727140637479
 30
0.0
 42
-0.0017436366084183
  0
VERTEX
  5
FEED
  8
0
 10
84.842498165055076
 20
156.6782151189629
 30
0.0
 42
-0.0018316233807417
 70
     1
  0
VERTEX
  5
FEEE
  8
0
 10
85.48915043718489
 20
156.68400941773049
 30
0.0
 42
-0.0008780856907206
  0
VERTEX
  5
FEEF
  8
0
 10
86.039101907945224
 20
156.6859566950742
 30
0.0
 42
-0.0011855209676161
 70
     1
  0
VERTEX
  5
FEF0
  8
0
 10
86.446439931320114
 20
156.68571782801089
 30
0.0
 42
-0.0008754418576781
  0
VERTEX
  5
FEF1
  8
0
 10
86.980063447093926
 20
156.6832053317242
 30
0.0
 42
-0.000936429601757
 70
     1
  0
VERTEX
  5
FEF2
  8
0
 10
87.478921423017354
 20
156.67904871302429
 30
0.0
 42
-0.0009187649408208
  0
VERTEX
  5
FEF3
  8
0
 10
87.907699545283322
 20
156.6738849183422
 30
0.0
 42
-0.0007085619250582
 70
     1
  0
VERTEX
  5
FEF4
  8
0
 10
88.463654684673088
 20
156.6653797441748
 30
0.0
 42
-0.001411412937559
  0
VERTEX
  5
FEF5
  8
0
 10
89.288779726657594
 20
156.64925717164849
 30
0.0
 42
-0.0012778245701609
 70
     1
  0
VERTEX
  5
FEF6
  8
0
 10
90.200057012947696
 20
156.62654750993349
 30
0.0
 42
-0.0008175731358018
  0
VERTEX
  5
FEF7
  8
0
 10
90.812916117391069
 20
156.60870439160331
 30
0.0
 42
-0.0008854864073856
 70
     1
  0
VERTEX
  5
FEF8
  8
0
 10
91.378712044371454
 20
156.5903024964351
 30
0.0
 42
-0.0011123212460183
  0
VERTEX
  5
FEF9
  8
0
 10
92.099521453716065
 20
156.56397544415461
 30
0.0
 42
-0.0011112586961686
 70
     1
  0
VERTEX
  5
FEFA
  8
0
 10
92.820895749434385
 20
156.5344148716085
 30
0.0
 42
-0.0010393430255317
  0
VERTEX
  5
FEFB
  8
0
 10
93.40493726925888
 20
156.507965182113
 30
0.0
 42
-0.0009424903089769
 70
     1
  0
VERTEX
  5
FEFC
  8
0
 10
94.048875596853577
 20
156.47624486189011
 30
0.0
 42
-0.0012511583116645
  0
VERTEX
  5
FEFD
  8
0
 10
94.76576313894293
 20
156.43777754152879
 30
0.0
 42
-0.0011930569420344
 70
     1
  0
VERTEX
  5
FEFE
  8
0
 10
95.517356510689865
 20
156.39376226321491
 30
0.0
 42
-0.0011932231062452
  0
VERTEX
  5
FEFF
  8
0
 10
96.312078738441414
 20
156.3434142873935
 30
0.0
 42
-0.0013404783873355
 70
     1
  0
VERTEX
  5
FF00
  8
0
 10
97.019262593802523
 20
156.29501297035861
 30
0.0
 42
-0.0008033999873918
  0
VERTEX
  5
FF01
  8
0
 10
97.676866386073016
 20
156.24717132782089
 30
0.0
 42
-0.0009633440807334
 70
     1
  0
VERTEX
  5
FF02
  8
0
 10
98.225143919871925
 20
156.20533523688749
 30
0.0
 42
-0.0008168575452611
  0
VERTEX
  5
FF03
  8
0
 10
98.761077975867011
 20
156.1625212294833
 30
0.0
 42
-0.0007974416960832
 70
     1
  0
VERTEX
  5
FF04
  8
0
 10
99.309916305720549
 20
156.11689258907549
 30
0.0
 42
-0.0012222711952244
  0
VERTEX
  5
FF05
  8
0
 10
100.0943709748226
 20
156.04848383376151
 30
0.0
 42
-0.0013007459385985
 70
     1
  0
VERTEX
  5
FF06
  8
0
 10
100.8311654426027
 20
155.9804834667901
 30
0.0
 42
-0.0006436084745511
  0
VERTEX
  5
FF07
  8
0
 10
101.2986281708054
 20
155.93550633588021
 30
0.0
 42
-0.0007632968919892
 70
     1
  0
VERTEX
  5
FF08
  8
0
 10
101.6926824150156
 20
155.89647286993659
 30
0.0
 42
-0.0010000582630291
  0
VERTEX
  5
FF09
  8
0
 10
102.3190748007637
 20
155.83219333143131
 30
0.0
 42
-0.001110378365248
 70
     1
  0
VERTEX
  5
FF0A
  8
0
 10
102.882983587022
 20
155.77191946735829
 30
0.0
 42
-0.0007321049133113
  0
VERTEX
  5
FF0B
  8
0
 10
103.59301033818519
 20
155.69338029167139
 30
0.0
 42
-0.0007187327809248
 70
     1
  0
VERTEX
  5
FF0C
  8
0
 10
104.3160120510906
 20
155.61128162567951
 30
0.0
 42
-0.0004923937030396
  0
VERTEX
  5
FF0D
  8
0
 10
104.7416823880893
 20
155.5619010210834
 30
0.0
 42
0.0002181559019854
 70
     1
  0
VERTEX
  5
FF0E
  8
0
 10
105.16735272508799
 20
155.51252041648721
 30
0.0
 42
0.000952805307243
  0
VERTEX
  5
FF0F
  8
0
 10
105.5257156964053
 20
155.47179823920931
 30
0.0
 42
0.0004723141697978
 70
     1
  0
VERTEX
  5
FF10
  8
0
 10
106.2488765329776
 20
155.3917097883562
 30
0.0
 42
0.0061665536008122
  0
VERTEX
  5
FF11
  8
0
 10
107.0420552196269
 20
155.31451265052939
 30
0.0
 42
0.0111128659402943
 70
     1
  0
VERTEX
  5
FF12
  8
0
 10
107.4834467909961
 20
155.28690611774701
 30
0.0
 42
0.0010680395066565
  0
VERTEX
  5
FF13
  8
0
 10
107.95348390238171
 20
155.26898806578819
 30
0.0
 42
0.0005401062664643
 70
     1
  0
VERTEX
  5
FF14
  8
0
 10
108.88307269546441
 20
155.2365454874666
 30
0.0
 42
0.0000244939562671
  0
VERTEX
  5
FF15
  8
0
 10
109.1240566021424
 20
155.2284076073455
 30
0.0
 42
0.0000147479820726
 70
     1
  0
VERTEX
  5
FF16
  8
0
 10
109.52429202837391
 20
155.21492334797051
 30
0.0
 42
0.0011906022149847
  0
VERTEX
  5
FF17
  8
0
 10
109.90500958828299
 20
155.20301542596661
 30
0.0
 42
0.0007345384761769
 70
     1
  0
VERTEX
  5
FF18
  8
0
 10
110.5221780750458
 20
155.18609021387189
 30
0.0
 42
0.0286337257767809
  0
VERTEX
  5
FF19
  8
0
 10
110.9345121858655
 20
155.19900204943181
 30
0.0
 42
0.0165529694931342
 70
     1
  0
VERTEX
  5
FF1A
  8
0
 10
111.642466407279
 20
155.2855581583693
 30
0.0
 42
0.0252523194457842
  0
VERTEX
  5
FF1B
  8
0
 10
112.15513266797819
 20
155.39228871200831
 30
0.0
 42
0.020363041400297
 70
     1
  0
VERTEX
  5
FF1C
  8
0
 10
112.77605540112749
 20
155.58196342973429
 30
0.0
 42
0.0227046209594702
  0
VERTEX
  5
FF1D
  8
0
 10
113.4124636157585
 20
155.8380673773589
 30
0.0
 42
0.025714014135917
 70
     1
  0
VERTEX
  5
FF1E
  8
0
 10
113.9499781657554
 20
156.1175001322417
 30
0.0
 42
0.0166061188181218
  0
VERTEX
  5
FF1F
  8
0
 10
114.4446356910603
 20
156.4304134091561
 30
0.0
 42
0.0204823641322902
 70
     1
  0
VERTEX
  5
FF20
  8
0
 10
114.8258336664906
 20
156.71316915420061
 30
0.0
 42
0.0133721737818451
  0
VERTEX
  5
FF21
  8
0
 10
115.13947581478349
 20
156.9805284521689
 30
0.0
 42
0.0137561376277023
 70
     1
  0
VERTEX
  5
FF22
  8
0
 10
115.4298246165294
 20
157.25657869341691
 30
0.0
 42
0.0222412079572286
  0
VERTEX
  5
FF23
  8
0
 10
115.84495792674259
 20
157.712458327006
 30
0.0
 42
0.0242924902557839
 70
     1
  0
VERTEX
  5
FF24
  8
0
 10
116.18464327939451
 20
158.16339594046269
 30
0.0
 42
0.0133943837907364
  0
VERTEX
  5
FF25
  8
0
 10
116.4929572106202
 20
158.6441558238829
 30
0.0
 42
0.0203160487834453
 70
     1
  0
VERTEX
  5
FF26
  8
0
 10
116.6744577790033
 20
158.97417102839759
 30
0.0
 42
0.0043912063344094
  0
VERTEX
  5
FF27
  8
0
 10
116.8051403554273
 20
159.24236140828441
 30
0.0
 42
0.0093319672903299
 70
     1
  0
VERTEX
  5
FF28
  8
0
 10
116.86315132894811
 20
159.37020846318191
 30
0.0
 42
0.0082233351541228
  0
VERTEX
  5
FF29
  8
0
 10
116.97005278280081
 20
159.62963929525441
 30
0.0
 42
0.0088296155071536
 70
     1
  0
VERTEX
  5
FF2A
  8
0
 10
117.06131818438421
 20
159.874513369049
 30
0.0
 42
0.0087830559845565
  0
VERTEX
  5
FF2B
  8
0
 10
117.1184904936235
 20
160.04615575052671
 30
0.0
 42
0.0060876367508145
 70
     1
  0
VERTEX
  5
FF2C
  8
0
 10
117.1935735315583
 20
160.2961294435465
 30
0.0
 42
0.0153352712037781
  0
VERTEX
  5
FF2D
  8
0
 10
117.2870609100928
 20
160.6638703086218
 30
0.0
 42
0.0162593692516724
 70
     1
  0
VERTEX
  5
FF2E
  8
0
 10
117.3531607462577
 20
161.01559634292661
 30
0.0
 42
0.0103568585071443
  0
VERTEX
  5
FF2F
  8
0
 10
117.3649406618069
 20
161.1039572912313
 30
0.0
 42
0.0017289762854413
 70
     1
  0
VERTEX
  5
FF30
  8
0
 10
117.42268535144269
 20
161.63474968663959
 30
0.0
 42
0.0144108783862183
  0
VERTEX
  5
FF31
  8
0
 10
117.4371353060579
 20
161.82429983072589
 30
0.0
 42
0.0075775467094618
 70
     1
  0
VERTEX
  5
FF32
  8
0
 10
117.4487407121365
 20
162.1855890873552
 30
0.0
  0
SEQEND
  5
FF33
  8
0
  0
POLYLINE
  5
FF3C
  8
0
 66
     1
 10
0.0
 20
0.0
 30
0.0
 70
     2
  0
VERTEX
  5
FF3D
  8
0
 10
389.57793059332539
 20
169.10598305116531
 30
0.0
 42
0.0023150027217891
  0
VERTEX
  5
FF3E
  8
0
 10
388.74783665334439
 20
169.07113522339259
 30
0.0
 42
0.0047909097511781
 70
     1
  0
VERTEX
  5
FF3F
  8
0
 10
388.34700192829882
 20
169.04859755677811
 30
0.0
 42
0.0000803458751331
  0
VERTEX
  5
FF40
  8
0
 10
387.0392802911494
 20
168.96228042756411
 30
0.0
 42
0.0021019453025571
 70
     1
  0
VERTEX
  5
FF41
  8
0
 10
386.98930790000901
 20
168.95876284003569
 30
0.0
 42
0.0016954563703599
  0
VERTEX
  5
FF42
  8
0
 10
386.195902248631
 20
168.89685556071339
 30
0.0
 42
0.0019803065681545
 70
     1
  0
VERTEX
  5
FF43
  8
0
 10
385.51702851828281
 20
168.8388607853723
 30
0.0
 42
0.0016389375897955
  0
VERTEX
  5
FF44
  8
0
 10
384.75498620139592
 20
168.76820127117199
 30
0.0
 42
0.0020725989884495
 70
     1
  0
VERTEX
  5
FF45
  8
0
 10
384.15282062415031
 20
168.70785461433141
 30
0.0
 42
0.0013148007503873
  0
VERTEX
  5
FF46
  8
0
 10
383.46199992332299
 20
168.6338928362365
 30
0.0
 42
0.0022674780814072
 70
     1
  0
VERTEX
  5
FF47
  8
0
 10
383.06174262491908
 20
168.58813702333481
 30
0.0
 42
0.0005992053921827
  0
VERTEX
  5
FF48
  8
0
 10
382.50665006321401
 20
168.52145477781229
 30
0.0
 42
0.0006705421265102
 70
     1
  0
VERTEX
  5
FF49
  8
0
 10
382.0107648208712
 20
168.46060713519711
 30
0.0
 42
0.0005150504701929
  0
VERTEX
  5
FF4A
  8
0
 10
381.5394933994383
 20
168.40164510446951
 30
0.0
 42
-0.0005874309040532
 70
     1
  0
VERTEX
  5
FF4B
  8
0
 10
381.06822197800528
 20
168.34268307374191
 30
0.0
 42
-0.0009333266019454
  0
VERTEX
  5
FF4C
  8
0
 10
380.60657680430933
 20
168.28635094965651
 30
0.0
 42
-0.0008775577933152
 70
     1
  0
VERTEX
  5
FF4D
  8
0
 10
380.11538035681951
 20
168.22821753874581
 30
0.0
 42
-0.0020414576335775
  0
VERTEX
  5
FF4E
  8
0
 10
379.72797094546439
 20
168.18465921703219
 30
0.0
 42
-0.0015992286267483
 70
     1
  0
VERTEX
  5
FF4F
  8
0
 10
379.23304162876019
 20
168.1326583072204
 30
0.0
 42
-0.0014874664674394
  0
VERTEX
  5
FF50
  8
0
 10
378.82188002713269
 20
168.09202329720389
 30
0.0
 42
-0.0013824653921764
 70
     1
  0
VERTEX
  5
FF51
  8
0
 10
378.3792463285227
 20
168.05084195123081
 30
0.0
 42
-0.0014268559742665
  0
VERTEX
  5
FF52
  8
0
 10
377.97698483933101
 20
168.01569527637449
 30
0.0
 42
-0.0011923461418277
 70
     1
  0
VERTEX
  5
FF53
  8
0
 10
377.49539341061518
 20
167.97615821822251
 30
0.0
 42
-0.0018882389818229
  0
VERTEX
  5
FF54
  8
0
 10
376.87964936543472
 20
167.92942506232649
 30
0.0
 42
-0.001830838433424
 70
     1
  0
VERTEX
  5
FF55
  8
0
 10
376.24425967869797
 20
167.88595161145639
 30
0.0
 42
-0.0013151051820473
  0
VERTEX
  5
FF56
  8
0
 10
375.70910690715868
 20
167.85271785364421
 30
0.0
 42
-0.0015362713615202
 70
     1
  0
VERTEX
  5
FF57
  8
0
 10
375.25084123675538
 20
167.8268814480692
 30
0.0
 42
-0.0012528968735066
  0
VERTEX
  5
FF58
  8
0
 10
374.79075904332171
 20
167.80351649586919
 30
0.0
 42
-0.0013497349257314
 70
     1
  0
VERTEX
  5
FF59
  8
0
 10
374.36357868052642
 20
167.78405119093921
 30
0.0
 42
-0.001524607039153
  0
VERTEX
  5
FF5A
  8
0
 10
373.9050057497418
 20
167.76579642245721
 30
0.0
 42
-0.0014052625407994
 70
     1
  0
VERTEX
  5
FF5B
  8
0
 10
373.40738033539537
 20
167.7489069875927
 30
0.0
 42
-0.001519568944553
  0
VERTEX
  5
FF5C
  8
0
 10
372.95498645504023
 20
167.7362016161089
 30
0.0
 42
-0.0013600613050796
 70
     1
  0
VERTEX
  5
FF5D
  8
0
 10
372.44946279695682
 20
167.7249174056191
 30
0.0
 42
-0.0017436366084183
  0
VERTEX
  5
FF5E
  8
0
 10
371.7702404891254
 20
167.71397369303091
 30
0.0
 42
-0.0018316233807417
 70
     1
  0
VERTEX
  5
FF5F
  8
0
 10
371.12358821699559
 20
167.70817939426331
 30
0.0
 42
-0.0008780856907206
  0
VERTEX
  5
FF60
  8
0
 10
370.5736367462352
 20
167.70623211691961
 30
0.0
 42
-0.0011855209676161
 70
     1
  0
VERTEX
  5
FF61
  8
0
 10
370.16629872286029
 20
167.70647098398291
 30
0.0
 42
-0.0008754418576781
  0
VERTEX
  5
FF62
  8
0
 10
369.63267520708661
 20
167.70898348026961
 30
0.0
 42
-0.000936429601757
 70
     1
  0
VERTEX
  5
FF63
  8
0
 10
369.13381723116322
 20
167.71314009896949
 30
0.0
 42
-0.0009187649408208
  0
VERTEX
  5
FF64
  8
0
 10
368.70503910889721
 20
167.71830389365161
 30
0.0
 42
-0.0007085619250582
 70
     1
  0
VERTEX
  5
FF65
  8
0
 10
368.14908396950727
 20
167.726809067819
 30
0.0
 42
-0.001411412937559
  0
VERTEX
  5
FF66
  8
0
 10
367.32395892752288
 20
167.74293164034529
 30
0.0
 42
-0.0012778245701609
 70
     1
  0
VERTEX
  5
FF67
  8
0
 10
366.41268164123289
 20
167.76564130206029
 30
0.0
 42
-0.0008175731358018
  0
VERTEX
  5
FF68
  8
0
 10
365.79982253678941
 20
167.78348442039049
 30
0.0
 42
-0.0008854864073856
 70
     1
  0
VERTEX
  5
FF69
  8
0
 10
365.23402660980901
 20
167.8018863155587
 30
0.0
 42
-0.0011123212460183
  0
VERTEX
  5
FF6A
  8
0
 10
364.5132172004644
 20
167.8282133678392
 30
0.0
 42
-0.0011112586961686
 70
     1
  0
VERTEX
  5
FF6B
  8
0
 10
363.79184290474609
 20
167.85777394038541
 30
0.0
 42
-0.0010393430255317
  0
VERTEX
  5
FF6C
  8
0
 10
363.20780138492159
 20
167.88422362988081
 30
0.0
 42
-0.0009424903089769
 70
     1
  0
VERTEX
  5
FF6D
  8
0
 10
362.5638630573269
 20
167.9159439501037
 30
0.0
 42
-0.0012511583116645
  0
VERTEX
  5
FF6E
  8
0
 10
361.84697551523749
 20
167.95441127046499
 30
0.0
 42
-0.0011930569420344
 70
     1
  0
VERTEX
  5
FF6F
  8
0
 10
361.09538214349072
 20
167.99842654877889
 30
0.0
 42
-0.0011932231062452
  0
VERTEX
  5
FF70
  8
0
 10
360.300659915739
 20
168.04877452460019
 30
0.0
 42
-0.0013404783873355
 70
     1
  0
VERTEX
  5
FF71
  8
0
 10
359.59347606037801
 20
168.09717584163519
 30
0.0
 42
-0.0008033999873918
  0
VERTEX
  5
FF72
  8
0
 10
358.93587226810752
 20
168.14501748417291
 30
0.0
 42
-0.0009633440807334
 70
     1
  0
VERTEX
  5
FF73
  8
0
 10
358.38759473430861
 20
168.18685357510631
 30
0.0
 42
-0.0008168575452611
  0
VERTEX
  5
FF74
  8
0
 10
357.85166067831352
 20
168.2296675825105
 30
0.0
 42
-0.0007974416960832
 70
     1
  0
VERTEX
  5
FF75
  8
0
 10
357.30282234845998
 20
168.27529622291831
 30
0.0
 42
-0.0012222711952244
  0
VERTEX
  5
FF76
  8
0
 10
356.51836767935788
 20
168.34370497823241
 30
0.0
 42
-0.0013007459385985
 70
     1
  0
VERTEX
  5
FF77
  8
0
 10
355.78157321157778
 20
168.4117053452037
 30
0.0
 42
-0.0006436084745511
  0
VERTEX
  5
FF78
  8
0
 10
355.31411048337509
 20
168.4566824761136
 30
0.0
 42
-0.0007632968919892
 70
     1
  0
VERTEX
  5
FF79
  8
0
 10
354.92005623916498
 20
168.49571594205719
 30
0.0
 42
-0.0010000582630291
  0
VERTEX
  5
FF7A
  8
0
 10
354.29366385341677
 20
168.55999548056249
 30
0.0
 42
-0.001110378365248
 70
     1
  0
VERTEX
  5
FF7B
  8
0
 10
353.72975506715852
 20
168.62026934463549
 30
0.0
 42
-0.0007321049133113
  0
VERTEX
  5
FF7C
  8
0
 10
353.01972831599528
 20
168.6988085203225
 30
0.0
 42
-0.0007187327809248
 70
     1
  0
VERTEX
  5
FF7D
  8
0
 10
352.29672660308989
 20
168.78090718631429
 30
0.0
 42
-0.0004923937030396
  0
VERTEX
  5
FF7E
  8
0
 10
351.87105626609099
 20
168.83028779091049
 30
0.0
 42
0.0002181559019854
 70
     1
  0
VERTEX
  5
FF7F
  8
0
 10
351.44538592909248
 20
168.8796683955066
 30
0.0
 42
0.000952805307243
  0
VERTEX
  5
FF80
  8
0
 10
351.08702295777522
 20
168.9203905727845
 30
0.0
 42
0.0004723141697978
 70
     1
  0
VERTEX
  5
FF81
  8
0
 10
350.36386212120283
 20
169.00047902363761
 30
0.0
 42
0.0061665536008122
  0
VERTEX
  5
FF82
  8
0
 10
349.57068343455347
 20
169.07767616146441
 30
0.0
 42
0.0111128659402943
 70
     1
  0
VERTEX
  5
FF83
  8
0
 10
349.12929186318428
 20
169.1052826942468
 30
0.0
 42
0.0010680395066565
  0
VERTEX
  5
FF84
  8
0
 10
348.6592547517987
 20
169.12320074620561
 30
0.0
 42
0.0005401062664643
 70
     1
  0
VERTEX
  5
FF85
  8
0
 10
347.72966595871623
 20
169.1556433245272
 30
0.0
 42
0.0000244939562671
  0
VERTEX
  5
FF86
  8
0
 10
347.48868205203797
 20
169.1637812046483
 30
0.0
 42
0.0000147479820726
 70
     1
  0
VERTEX
  5
FF87
  8
0
 10
347.0884466258064
 20
169.17726546402329
 30
0.0
 42
0.0011906022149847
  0
VERTEX
  5
FF88
  8
0
 10
346.70772906589741
 20
169.18917338602731
 30
0.0
 42
0.0007345384761769
 70
     1
  0
VERTEX
  5
FF89
  8
0
 10
346.09056057913472
 20
169.20609859812191
 30
0.0
 42
0.0286337257767809
  0
VERTEX
  5
FF8A
  8
0
 10
345.67822646831502
 20
169.19318676256199
 30
0.0
 42
0.0165529694931342
 70
     1
  0
VERTEX
  5
FF8B
  8
0
 10
344.97027224690152
 20
169.10663065362451
 30
0.0
 42
0.0252523194457842
  0
VERTEX
  5
FF8C
  8
0
 10
344.45760598620222
 20
168.9999000999855
 30
0.0
 42
0.020363041400297
 70
     1
  0
VERTEX
  5
FF8D
  8
0
 10
343.83668325305302
 20
168.8102253822596
 30
0.0
 42
0.0227046209594702
  0
VERTEX
  5
FF8E
  8
0
 10
343.20027503842198
 20
168.55412143463491
 30
0.0
 42
0.025714014135917
 70
     1
  0
VERTEX
  5
FF8F
  8
0
 10
342.66276048842502
 20
168.27468867975219
 30
0.0
 42
0.0166061188181218
  0
VERTEX
  5
FF90
  8
0
 10
342.16810296312019
 20
167.9617754028377
 30
0.0
 42
0.0204823641322902
 70
     1
  0
VERTEX
  5
FF91
  8
0
 10
341.7869049876897
 20
167.67901965779319
 30
0.0
 42
0.0133721737818451
  0
VERTEX
  5
FF92
  8
0
 10
341.47326283939702
 20
167.41166035982499
 30
0.0
 42
0.0137561376277023
 70
     1
  0
VERTEX
  5
FF93
  8
0
 10
341.18291403765102
 20
167.13561011857689
 30
0.0
 42
0.0222412079572286
  0
VERTEX
  5
FF94
  8
0
 10
340.76778072743781
 20
166.67973048498791
 30
0.0
 42
0.0242924902557839
 70
     1
  0
VERTEX
  5
FF95
  8
0
 10
340.42809537478593
 20
166.2287928715312
 30
0.0
 42
0.0133943837907364
  0
VERTEX
  5
FF96
  8
0
 10
340.11978144356021
 20
165.74803298811091
 30
0.0
 42
0.0203160487834453
 70
     1
  0
VERTEX
  5
FF97
  8
0
 10
339.93828087517733
 20
165.41801778359621
 30
0.0
 42
0.0043912063344094
  0
VERTEX
  5
FF98
  8
0
 10
339.80759829875319
 20
165.14982740370939
 30
0.0
 42
0.0093319672903299
 70
     1
  0
VERTEX
  5
FF99
  8
0
 10
339.74958732523243
 20
165.02198034881189
 30
0.0
 42
0.0082233351541228
  0
VERTEX
  5
FF9A
  8
0
 10
339.64268587137963
 20
164.7625495167394
 30
0.0
 42
0.0088296155071536
 70
     1
  0
VERTEX
  5
FF9B
  8
0
 10
339.55142046979631
 20
164.51767544294481
 30
0.0
 42
0.0087830559845565
  0
VERTEX
  5
FF9C
  8
0
 10
339.49424816055688
 20
164.3460330614671
 30
0.0
 42
0.0060876367508145
 70
     1
  0
VERTEX
  5
FF9D
  8
0
 10
339.41916512262219
 20
164.0960593684473
 30
0.0
 42
0.0153352712037781
  0
VERTEX
  5
FF9E
  8
0
 10
339.32567774408773
 20
163.72831850337201
 30
0.0
 42
0.0162593692516724
 70
     1
  0
VERTEX
  5
FF9F
  8
0
 10
339.25957790792268
 20
163.3765924690673
 30
0.0
 42
0.0103568585071443
  0
VERTEX
  5
FFA0
  8
0
 10
339.24779799237348
 20
163.28823152076251
 30
0.0
 42
0.0017289762854413
 70
     1
  0
VERTEX
  5
FFA1
  8
0
 10
339.19005330273762
 20
162.75743912535421
 30
0.0
 42
0.0144108783862183
  0
VERTEX
  5
FFA2
  8
0
 10
339.17560334812271
 20
162.56788898126791
 30
0.0
 42
0.0080180473115985
 70
     1
  0
VERTEX
  5
FFA3
  8
0
 10
339.1639973716774
 20
162.18556278506861
 30
0.0
  0
SEQEND
  5
FFA4
  8
0
  0
POLYLINE
  5
FFA5
  8
0
 66
     1
 10
0.0
 20
0.0
 30
0.0
 70
     2
  0
VERTEX
  5
FFA6
  8
0
 10
389.57793059332562
 20
155.2775209044876
 30
0.0
 42
-0.0023179863124422
  0
VERTEX
  5
FFA7
  8
0
 10
388.74676662614212
 20
155.3124086842071
 30
0.0
 42
-0.0047909097511781
 70
     1
  0
VERTEX
  5
FFA8
  8
0
 10
388.34593190109649
 20
155.33494635082161
 30
0.0
 42
-0.0000803458751331
  0
VERTEX
  5
FFA9
  8
0
 10
387.03821026394712
 20
155.42126348003561
 30
0.0
 42
-0.0021019453025571
 70
     1
  0
VERTEX
  5
FFAA
  8
0
 10
386.98823787280662
 20
155.424781067564
 30
0.0
 42
-0.0016954563703599
  0
VERTEX
  5
FFAB
  8
0
 10
386.19483222142873
 20
155.4866883468863
 30
0.0
 42
-0.0019803065681545
 70
     1
  0
VERTEX
  5
FFAC
  8
0
 10
385.51595849108048
 20
155.54468312222741
 30
0.0
 42
-0.0016389375897955
  0
VERTEX
  5
FFAD
  8
0
 10
384.75391617419359
 20
155.61534263642761
 30
0.0
 42
-0.0020725989884495
 70
     1
  0
VERTEX
  5
FFAE
  8
0
 10
384.15175059694798
 20
155.67568929326831
 30
0.0
 42
-0.0013148007503873
  0
VERTEX
  5
FFAF
  8
0
 10
383.46092989612072
 20
155.7496510713631
 30
0.0
 42
-0.0022674780814072
 70
     1
  0
VERTEX
  5
FFB0
  8
0
 10
383.0606725977168
 20
155.79540688426491
 30
0.0
 42
-0.0005992053921827
  0
VERTEX
  5
FFB1
  8
0
 10
382.50558003601168
 20
155.86208912978739
 30
0.0
 42
-0.0006705421265102
 70
     1
  0
VERTEX
  5
FFB2
  8
0
 10
382.00969479366881
 20
155.92293677240261
 30
0.0
 42
-0.0005150504701929
  0
VERTEX
  5
FFB3
  8
0
 10
381.53842337223591
 20
155.98189880313021
 30
0.0
 42
0.0005874309040532
 70
     1
  0
VERTEX
  5
FFB4
  8
0
 10
381.06715195080301
 20
156.04086083385781
 30
0.0
 42
0.0009333266019454
  0
VERTEX
  5
FFB5
  8
0
 10
380.60550677710688
 20
156.09719295794321
 30
0.0
 42
0.0008775577933152
 70
     1
  0
VERTEX
  5
FFB6
  8
0
 10
380.11431032961718
 20
156.15532636885391
 30
0.0
 42
0.0020414576335775
  0
VERTEX
  5
FFB7
  8
0
 10
379.72690091826212
 20
156.19888469056741
 30
0.0
 42
0.0015992286267483
 70
     1
  0
VERTEX
  5
FFB8
  8
0
 10
379.23197160155792
 20
156.25088560037929
 30
0.0
 42
0.0014874664674394
  0
VERTEX
  5
FFB9
  8
0
 10
378.8208099999303
 20
156.29152061039579
 30
0.0
 42
0.0013824653921764
 70
     1
  0
VERTEX
  5
FFBA
  8
0
 10
378.37817630132031
 20
156.33270195636891
 30
0.0
 42
0.0014268559742665
  0
VERTEX
  5
FFBB
  8
0
 10
377.97591481212862
 20
156.36784863122509
 30
0.0
 42
0.0011923461418277
 70
     1
  0
VERTEX
  5
FFBC
  8
0
 10
377.49432338341279
 20
156.40738568937709
 30
0.0
 42
0.0018882389818229
  0
VERTEX
  5
FFBD
  8
0
 10
376.87857933823238
 20
156.4541188452732
 30
0.0
 42
0.001830838433424
 70
     1
  0
VERTEX
  5
FFBE
  8
0
 10
376.24318965149558
 20
156.4975922961433
 30
0.0
 42
0.0013151051820473
  0
VERTEX
  5
FFBF
  8
0
 10
375.7080368799563
 20
156.53082605395551
 30
0.0
 42
0.0015362713615202
 70
     1
  0
VERTEX
  5
FFC0
  8
0
 10
375.24977120955299
 20
156.55666245953049
 30
0.0
 42
0.0012528968735066
  0
VERTEX
  5
FFC1
  8
0
 10
374.78968901611938
 20
156.5800274117305
 30
0.0
 42
0.0013497349257314
 70
     1
  0
VERTEX
  5
FFC2
  8
0
 10
374.36250865332408
 20
156.59949271666051
 30
0.0
 42
0.001524607039153
  0
VERTEX
  5
FFC3
  8
0
 10
373.90393572253947
 20
156.6177474851425
 30
0.0
 42
0.0014052625407994
 70
     1
  0
VERTEX
  5
FFC4
  8
0
 10
373.40631030819299
 20
156.63463692000701
 30
0.0
 42
0.001519568944553
  0
VERTEX
  5
FFC5
  8
0
 10
372.95391642783778
 20
156.64734229149079
 30
0.0
 42
0.0013600613050796
 70
     1
  0
VERTEX
  5
FFC6
  8
0
 10
372.44839276975449
 20
156.65862650198071
 30
0.0
 42
0.0017436366084183
  0
VERTEX
  5
FFC7
  8
0
 10
371.76917046192312
 20
156.66957021456881
 30
0.0
 42
0.0018316233807417
 70
     1
  0
VERTEX
  5
FFC8
  8
0
 10
371.1225181897932
 20
156.6753645133364
 30
0.0
 42
0.0008780856907206
  0
VERTEX
  5
FFC9
  8
0
 10
370.57256671903292
 20
156.67731179068011
 30
0.0
 42
0.0011855209676161
 70
     1
  0
VERTEX
  5
FFCA
  8
0
 10
370.16522869565802
 20
156.67707292361681
 30
0.0
 42
0.0008754418576781
  0
VERTEX
  5
FFCB
  8
0
 10
369.63160517988422
 20
156.67456042733011
 30
0.0
 42
0.000936429601757
 70
     1
  0
VERTEX
  5
FFCC
  8
0
 10
369.13274720396089
 20
156.6704038086302
 30
0.0
 42
0.0009187649408208
  0
VERTEX
  5
FFCD
  8
0
 10
368.70396908169482
 20
156.66524001394811
 30
0.0
 42
0.0007085619250582
 70
     1
  0
VERTEX
  5
FFCE
  8
0
 10
368.148013942305
 20
156.65673483978071
 30
0.0
 42
0.001411412937559
  0
VERTEX
  5
FFCF
  8
0
 10
367.32288890032061
 20
156.6406122672544
 30
0.0
 42
0.0012778245701609
 70
     1
  0
VERTEX
  5
FFD0
  8
0
 10
366.41161161403062
 20
156.6179026055394
 30
0.0
 42
0.0008175731358018
  0
VERTEX
  5
FFD1
  8
0
 10
365.79875250958708
 20
156.60005948720919
 30
0.0
 42
0.0008854864073856
 70
     1
  0
VERTEX
  5
FFD2
  8
0
 10
365.23295658260668
 20
156.58165759204101
 30
0.0
 42
0.0011123212460183
  0
VERTEX
  5
FFD3
  8
0
 10
364.51214717326212
 20
156.55533053976049
 30
0.0
 42
0.0011112586961686
 70
     1
  0
VERTEX
  5
FFD4
  8
0
 10
363.7907728775437
 20
156.5257699672143
 30
0.0
 42
0.0010393430255317
  0
VERTEX
  5
FFD5
  8
0
 10
363.20673135771932
 20
156.49932027771891
 30
0.0
 42
0.0009424903089769
 70
     1
  0
VERTEX
  5
FFD6
  8
0
 10
362.56279303012451
 20
156.46759995749599
 30
0.0
 42
0.0012511583116645
  0
VERTEX
  5
FFD7
  8
0
 10
361.84590548803521
 20
156.4291326371347
 30
0.0
 42
0.0011930569420344
 70
     1
  0
VERTEX
  5
FFD8
  8
0
 10
361.09431211628839
 20
156.38511735882079
 30
0.0
 42
0.0011932231062452
  0
VERTEX
  5
FFD9
  8
0
 10
360.29958988853667
 20
156.33476938299941
 30
0.0
 42
0.0013404783873355
 70
     1
  0
VERTEX
  5
FFDA
  8
0
 10
359.59240603317562
 20
156.2863680659645
 30
0.0
 42
0.0008033999873918
  0
VERTEX
  5
FFDB
  8
0
 10
358.93480224090513
 20
156.23852642342669
 30
0.0
 42
0.0009633440807334
 70
     1
  0
VERTEX
  5
FFDC
  8
0
 10
358.38652470710622
 20
156.1966903324934
 30
0.0
 42
0.0008168575452611
  0
VERTEX
  5
FFDD
  8
0
 10
357.85059065111108
 20
156.15387632508919
 30
0.0
 42
0.0007974416960832
 70
     1
  0
VERTEX
  5
FFDE
  8
0
 10
357.30175232125771
 20
156.1082476846814
 30
0.0
 42
0.0012222711952244
  0
VERTEX
  5
FFDF
  8
0
 10
356.51729765215561
 20
156.03983892936731
 30
0.0
 42
0.0013007459385985
 70
     1
  0
VERTEX
  5
FFE0
  8
0
 10
355.78050318437539
 20
155.97183856239599
 30
0.0
 42
0.0006436084745511
  0
VERTEX
  5
FFE1
  8
0
 10
355.31304045617281
 20
155.92686143148609
 30
0.0
 42
0.0007632968919892
 70
     1
  0
VERTEX
  5
FFE2
  8
0
 10
354.91898621196259
 20
155.8878279655425
 30
0.0
 42
0.0010000582630291
  0
VERTEX
  5
FFE3
  8
0
 10
354.29259382621439
 20
155.8235484270372
 30
0.0
 42
0.001110378365248
 70
     1
  0
VERTEX
  5
FFE4
  8
0
 10
353.72868503995619
 20
155.7632745629642
 30
0.0
 42
0.0007321049133113
  0
VERTEX
  5
FFE5
  8
0
 10
353.01865828879289
 20
155.68473538727719
 30
0.0
 42
0.0007187327809248
 70
     1
  0
VERTEX
  5
FFE6
  8
0
 10
352.29565657588751
 20
155.60263672128531
 30
0.0
 42
0.0004923937030396
  0
VERTEX
  5
FFE7
  8
0
 10
351.86998623888871
 20
155.5532561166892
 30
0.0
 42
-0.0002181559019854
 70
     1
  0
VERTEX
  5
FFE8
  8
0
 10
351.44431590189021
 20
155.50387551209309
 30
0.0
 42
-0.000952805307243
  0
VERTEX
  5
FFE9
  8
0
 10
351.08595293057277
 20
155.46315333481519
 30
0.0
 42
-0.0004723141697978
 70
     1
  0
VERTEX
  5
FFEA
  8
0
 10
350.3627920940005
 20
155.38306488396211
 30
0.0
 42
-0.0061665536008122
  0
VERTEX
  5
FFEB
  8
0
 10
349.5696134073512
 20
155.30586774613531
 30
0.0
 42
-0.0111128659402943
 70
     1
  0
VERTEX
  5
FFEC
  8
0
 10
349.128221835982
 20
155.27826121335289
 30
0.0
 42
-0.0010680395066565
  0
VERTEX
  5
FFED
  8
0
 10
348.65818472459642
 20
155.2603431613941
 30
0.0
 42
-0.0005401062664643
 70
     1
  0
VERTEX
  5
FFEE
  8
0
 10
347.72859593151389
 20
155.2279005830724
 30
0.0
 42
-0.0000244939562671
  0
VERTEX
  5
FFEF
  8
0
 10
347.4876120248357
 20
155.21976270295141
 30
0.0
 42
-0.0000147479820726
 70
     1
  0
VERTEX
  5
FFF0
  8
0
 10
347.08737659860412
 20
155.20627844357639
 30
0.0
 42
-0.0011906022149847
  0
VERTEX
  5
FFF1
  8
0
 10
346.70665903869508
 20
155.19437052157249
 30
0.0
 42
-0.0007345384761769
 70
     1
  0
VERTEX
  5
FFF2
  8
0
 10
346.08949055193239
 20
155.17744530947769
 30
0.0
 42
-0.0286337257767809
  0
VERTEX
  5
FFF3
  8
0
 10
345.67715644111257
 20
155.19035714503769
 30
0.0
 42
-0.0165529694931342
 70
     1
  0
VERTEX
  5
FFF4
  8
0
 10
344.96920221969918
 20
155.27691325397521
 30
0.0
 42
-0.0252523194457842
  0
VERTEX
  5
FFF5
  8
0
 10
344.45653595899989
 20
155.38364380761419
 30
0.0
 42
-0.020363041400297
 70
     1
  0
VERTEX
  5
FFF6
  8
0
 10
343.83561322585069
 20
155.57331852534011
 30
0.0
 42
-0.0227046209594702
  0
VERTEX
  5
FFF7
  8
0
 10
343.19920501121959
 20
155.82942247296481
 30
0.0
 42
-0.025714014135917
 70
     1
  0
VERTEX
  5
FFF8
  8
0
 10
342.66169046122269
 20
156.1088552278475
 30
0.0
 42
-0.0166061188181218
  0
VERTEX
  5
FFF9
  8
0
 10
342.16703293591792
 20
156.42176850476201
 30
0.0
 42
-0.0204823641322902
 70
     1
  0
VERTEX
  5
FFFA
  8
0
 10
341.78583496048742
 20
156.7045242498065
 30
0.0
 42
-0.0133721737818451
  0
VERTEX
  5
FFFB
  8
0
 10
341.47219281219458
 20
156.97188354777481
 30
0.0
 42
-0.0137561376277023
 70
     1
  0
VERTEX
  5
FFFC
  8
0
 10
341.18184401044869
 20
157.2479337890228
 30
0.0
 42
-0.0222412079572286
  0
VERTEX
  5
FFFD
  8
0
 10
340.76671070023548
 20
157.7038134226118
 30
0.0
 42
-0.0242924902557839
 70
     1
  0
VERTEX
  5
FFFE
  8
0
 10
340.42702534758359
 20
158.15475103606849
 30
0.0
 42
-0.0133943837907364
  0
VERTEX
  5
FFFF
  8
0
 10
340.11871141635788
 20
158.63551091948881
 30
0.0
 42
-0.0203160487834453
 70
     1
  0
VERTEX
  5
10000
  8
0
 10
339.93721084797488
 20
158.9655261240035
 30
0.0
 42
-0.0043912063344094
  0
VERTEX
  5
10001
  8
0
 10
339.80652827155092
 20
159.23371650389029
 30
0.0
 42
-0.0093319672903299
 70
     1
  0
VERTEX
  5
10002
  8
0
 10
339.74851729802998
 20
159.36156355878779
 30
0.0
 42
-0.0082233351541228
  0
VERTEX
  5
10003
  8
0
 10
339.6416158441773
 20
159.62099439086029
 30
0.0
 42
-0.0088296155071536
 70
     1
  0
VERTEX
  5
10004
  8
0
 10
339.55035044259398
 20
159.86586846465491
 30
0.0
 42
-0.0087830559845565
  0
VERTEX
  5
10005
  8
0
 10
339.4931781333546
 20
160.03751084613259
 30
0.0
 42
-0.0060876367508145
 70
     1
  0
VERTEX
  5
10006
  8
0
 10
339.4180950954198
 20
160.28748453915239
 30
0.0
 42
-0.0153352712037781
  0
VERTEX
  5
10007
  8
0
 10
339.32460771688528
 20
160.65522540422759
 30
0.0
 42
-0.0162593692516724
 70
     1
  0
VERTEX
  5
10008
  8
0
 10
339.25850788072029
 20
161.00695143853241
 30
0.0
 42
-0.0103568585071443
  0
VERTEX
  5
10009
  8
0
 10
339.2467279651712
 20
161.09531238683721
 30
0.0
 42
-0.0017289762854413
 70
     1
  0
VERTEX
  5
1000A
  8
0
 10
339.18898327553529
 20
161.62610478224551
 30
0.0
 42
-0.0144108783862183
  0
VERTEX
  5
1000B
  8
0
 10
339.17453332092032
 20
161.8156549263318
 30
0.0
 42
-0.007758793460779
 70
     1
  0
VERTEX
  5
1000C
  8
0
 10
339.1639973716774
 20
162.18556278506861
 30
0.0
  0
SEQEND
  5
1000D
  8
0
  0
ARC
  5
1001E
  8
0
 10
346.02823861952919
 20
162.185424236778
 30
0.0
 40
5.5006838478805928
 50
93.204684551753957
 51
266.092491913
  0
POLYLINE
  5
1001F
  8
0
 66
     1
 10
0.0
 20
0.0
 30
0.0
 70
     2
  0
VERTEX
  5
10020
  8
0
 10
389.57793059332539
 20
169.10598305116531
 30
0.0
 42
-0.0026718590954884
  0
VERTEX
  5
10029
  8
0
 10
389.90963331737657
 20
169.12388704631911
 30
0.0
 42
-0.0055358592797672
 70
     1
  0
VERTEX
  5
10021
  8
0
 10
390.06985227577752
 20
169.12989942120561
 30
0.0
 42
-0.0000258678631197
  0
VERTEX
  5
1002A
  8
0
 10
390.57475330431589
 20
169.14322435140639
 30
0.0
 42
-0.0004733497426856
 70
     1
  0
VERTEX
  5
10022
  8
0
 10
390.60234611807232
 20
169.14392499000931
 30
0.0
 42
-0.0006068406366892
  0
VERTEX
  5
1002B
  8
0
 10
390.90927823779748
 20
169.15105514891519
 30
0.0
 42
-0.0008039964179669
 70
     1
  0
VERTEX
  5
10023
  8
0
 10
391.14095887479112
 20
169.1557831462529
 30
0.0
 42
-0.0119796288470362
  0
VERTEX
  5
1002C
  8
0
 10
391.35008406339171
 20
169.1547037275048
 30
0.0
 42
0.0109949076206744
 70
     1
  0
VERTEX
  5
10024
  8
0
 10
391.57793092115088
 20
169.15307898602569
 30
0.0
 42
0.0101733468679987
  0
VERTEX
  5
1002D
  8
0
 10
391.8723071420996
 20
169.16344654668529
 30
0.0
 42
-0.010001912252217
 70
     1
  0
VERTEX
  5
10025
  8
0
 10
392.16668336304838
 20
169.1738141073449
 30
0.0
 42
-0.0000543745845633
  0
VERTEX
  5
1002F
  8
0
 10
392.22779440368868
 20
169.1747364827115
 30
0.0
 42
-0.0000062784535609
 70
     1
  0
VERTEX
  5
10026
  8
0
 10
392.75704790004602
 20
169.18266051845819
 30
0.0
 42
-0.0001059639689926
  0
VERTEX
  5
1002E
  8
0
 10
392.79981606094049
 20
169.1832912446734
 30
0.0
 42
-0.0000285574138314
 70
     1
  0
VERTEX
  5
10027
  8
0
 10
392.95851046724488
 20
169.18558889596841
 30
0.0
  0
SEQEND
  5
10028
  8
0
  0
POLYLINE
  5
10030
  8
0
 66
     1
 10
0.0
 20
0.0
 30
0.0
 70
     2
  0
VERTEX
  5
10031
  8
0
 10
411.05739472938939
 20
169.18558889596841
 30
0.0
 42
-0.003323298387335
  0
VERTEX
  5
1003D
  8
0
 10
411.12140735581852
 20
169.18383093099649
 30
0.0
 42
-0.0064440001340913
 70
     1
  0
VERTEX
  5
10032
  8
0
 10
411.15439693192752
 20
169.18227959966009
 30
0.0
 42
-0.0005364119300502
  0
VERTEX
  5
1003E
  8
0
 10
411.24730570897549
 20
169.17660970091671
 30
0.0
 42
-0.0036381645583072
 70
     1
  0
VERTEX
  5
10033
  8
0
 10
411.26099692357519
 20
169.17565937734531
 30
0.0
 42
-0.0152948876944843
  0
VERTEX
  5
1003F
  8
0
 10
411.31354876357449
 20
169.17000606849629
 30
0.0
 42
-0.0125002920721152
 70
     1
  0
VERTEX
  5
10034
  8
0
 10
411.37736064497972
 20
169.15952798178739
 30
0.0
 42
-0.0142107022829451
  0
VERTEX
  5
10040
  8
0
 10
411.40447075491102
 20
169.1535745891847
 30
0.0
 42
-0.0085593972464571
 70
     1
  0
VERTEX
  5
10035
  8
0
 10
411.44897786601041
 20
169.14165334955109
 30
0.0
 42
-0.0257699185846865
  0
VERTEX
  5
10041
  8
0
 10
411.49364402512032
 20
169.12633641750151
 30
0.0
 42
-0.0196200996481234
 70
     1
  0
VERTEX
  5
10036
  8
0
 10
411.55022981831439
 20
169.10099087572871
 30
0.0
 42
-0.0350313354488628
  0
VERTEX
  5
10042
  8
0
 10
411.59715611629957
 20
169.0734715809881
 30
0.0
 42
-0.0339163737192771
 70
     1
  0
VERTEX
  5
10037
  8
0
 10
411.6412563618353
 20
169.03866003448459
 30
0.0
 42
-0.0269716098064965
  0
VERTEX
  5
10043
  8
0
 10
411.67056761506592
 20
169.0090798709098
 30
0.0
 42
-0.0252379136002462
 70
     1
  0
VERTEX
  5
10038
  8
0
 10
411.69842515244289
 20
168.97437874695089
 30
0.0
 42
-0.0305858028940377
  0
VERTEX
  5
10044
  8
0
 10
411.72644786355153
 20
168.93015679144989
 30
0.0
 42
-0.0286454388109276
 70
     1
  0
VERTEX
  5
10039
  8
0
 10
411.75057761632428
 20
168.8797406920161
 30
0.0
 42
-0.030003273653672
  0
VERTEX
  5
10046
  8
0
 10
411.76435525392287
 20
168.83940216642441
 30
0.0
 42
-0.014684553753739
 70
     1
  0
VERTEX
  5
1003A
  8
0
 10
411.78502426801532
 20
168.75485769968759
 30
0.0
 42
-0.0339780092679545
  0
VERTEX
  5
10045
  8
0
 10
411.78831401012212
 20
168.73192420640771
 30
0.0
 42
-0.0169607103974506
 70
     1
  0
VERTEX
  5
1003B
  8
0
 10
411.7901975153224
 20
168.68558887221971
 30
0.0
  0
SEQEND
  5
1003C
  8
0
  0
POLYLINE
  5
10047
  8
0
 66
     1
 10
0.0
 20
0.0
 30
0.0
 70
     2
  0
VERTEX
  5
10048
  8
0
 10
411.05739472938939
 20
155.18558885554921
 30
0.0
 42
0.003323298387335
  0
VERTEX
  5
10049
  8
0
 10
411.12140735581852
 20
155.1873468205211
 30
0.0
 42
0.0064440001340913
 70
     1
  0
VERTEX
  5
1004A
  8
0
 10
411.15439693192752
 20
155.1888981518575
 30
0.0
 42
0.0005364119300502
  0
VERTEX
  5
1004B
  8
0
 10
411.24730570897549
 20
155.19456805060091
 30
0.0
 42
0.0036381645583072
 70
     1
  0
VERTEX
  5
1004C
  8
0
 10
411.26099692357519
 20
155.19551837417239
 30
0.0
 42
0.0152948876944843
  0
VERTEX
  5
1004D
  8
0
 10
411.31354876357449
 20
155.2011716830213
 30
0.0
 42
0.0125002920721152
 70
     1
  0
VERTEX
  5
1004E
  8
0
 10
411.37736064497972
 20
155.2116497697302
 30
0.0
 42
0.0142107022829451
  0
VERTEX
  5
1004F
  8
0
 10
411.40447075491102
 20
155.21760316233289
 30
0.0
 42
0.0085593972464571
 70
     1
  0
VERTEX
  5
10050
  8
0
 10
411.44897786601041
 20
155.2295244019665
 30
0.0
 42
0.0257699185846865
  0
VERTEX
  5
10051
  8
0
 10
411.49364402512032
 20
155.24484133401609
 30
0.0
 42
0.0196200996481234
 70
     1
  0
VERTEX
  5
10052
  8
0
 10
411.55022981831439
 20
155.27018687578899
 30
0.0
 42
0.0350313354488628
  0
VERTEX
  5
10053
  8
0
 10
411.59715611629957
 20
155.29770617052961
 30
0.0
 42
0.0339163737192771
 70
     1
  0
VERTEX
  5
10054
  8
0
 10
411.6412563618353
 20
155.332517717033
 30
0.0
 42
0.0269716098064965
  0
VERTEX
  5
10055
  8
0
 10
411.67056761506592
 20
155.36209788060791
 30
0.0
 42
0.0252379136002462
 70
     1
  0
VERTEX
  5
10056
  8
0
 10
411.69842515244289
 20
155.3967990045667
 30
0.0
 42
0.0305858028940377
  0
VERTEX
  5
10057
  8
0
 10
411.72644786355153
 20
155.4410209600677
 30
0.0
 42
0.0286454388109276
 70
     1
  0
VERTEX
  5
10058
  8
0
 10
411.75057761632428
 20
155.49143705950149
 30
0.0
 42
0.030003273653672
  0
VERTEX
  5
10059
  8
0
 10
411.76435525392287
 20
155.5317755850933
 30
0.0
 42
0.014684553753739
 70
     1
  0
VERTEX
  5
1005A
  8
0
 10
411.78502426801532
 20
155.61632005183
 30
0.0
 42
0.0339780092679545
  0
VERTEX
  5
1005B
  8
0
 10
411.78831401012212
 20
155.63925354510991
 30
0.0
 42
0.0169607103974506
 70
     1
  0
VERTEX
  5
1005C
  8
0
 10
411.7901975153224
 20
155.68558887929791
 30
0.0
  0
SEQEND
  5
1005D
  8
0
  0
LINE
  5
1005E
  8
0
 10
394.32206916196492
 20
158.9355890627684
 30
0.0
 11
411.7901975153224
 21
158.9355890627684
 31
0.0
  0
LINE
  5
1005F
  8
0
 10
411.7901975153224
 20
155.68558887929791
 30
0.0
 11
401.7935291961046
 21
155.68558887929791
 31
0.0
  0
LINE
  5
10060
  8
0
 10
392.95851046724653
 20
155.18558885554921
 30
0.0
 11
411.05739472938939
 21
155.18558885554921
 31
0.0
  0
LINE
  5
10062
  8
0
 10
411.7901975153224
 20
158.9355890627684
 30
0.0
 11
411.7901975153224
 21
155.68558887929791
 31
0.0
  0
POLYLINE
  5
10063
  8
0
 66
     1
 10
0.0
 20
0.0
 30
0.0
 70
     2
  0
VERTEX
  5
10064
  8
0
 10
389.57793059332562
 20
155.2775209044876
 30
0.0
 42
0.0395176451033867
  0
VERTEX
  5
10065
  8
0
 10
389.90963331737657
 20
155.24729070519851
 30
0.0
 42
0.0055358592797672
 70
     1
  0
VERTEX
  5
10066
  8
0
 10
390.06985227577752
 20
155.24127833031201
 30
0.0
 42
0.0000258678631197
  0
VERTEX
  5
10067
  8
0
 10
390.57475330431589
 20
155.22795340011129
 30
0.0
 42
0.0004733497426856
 70
     1
  0
VERTEX
  5
10068
  8
0
 10
390.60234611807232
 20
155.22725276150831
 30
0.0
 42
0.0006068406366892
  0
VERTEX
  5
10069
  8
0
 10
390.90927823779748
 20
155.2201226026024
 30
0.0
 42
0.0008039964179669
 70
     1
  0
VERTEX
  5
1006A
  8
0
 10
391.14095887479112
 20
155.21539460526469
 30
0.0
 42
0.0119796288470362
  0
VERTEX
  5
1006B
  8
0
 10
391.35008406339171
 20
155.2164740240128
 30
0.0
 42
-0.0109949076206744
 70
     1
  0
VERTEX
  5
1006C
  8
0
 10
391.57793092115088
 20
155.2105185139657
 30
0.0
 42
-0.0359237355658442
  0
VERTEX
  5
1006D
  8
0
 10
391.8723071420996
 20
155.2077312048323
 30
0.0
 42
0.010001912252217
 70
     1
  0
VERTEX
  5
1006E
  8
0
 10
392.16668336304838
 20
155.1973636441727
 30
0.0
 42
0.0000543745845633
  0
VERTEX
  5
1006F
  8
0
 10
392.22779440368868
 20
155.1964412688061
 30
0.0
 42
0.0000062784535609
 70
     1
  0
VERTEX
  5
10070
  8
0
 10
392.75704790004602
 20
155.1885172330594
 30
0.0
 42
0.0001059639689926
  0
VERTEX
  5
10071
  8
0
 10
392.79981606094049
 20
155.18788650684419
 30
0.0
 42
0.0000285574138314
 70
     1
  0
VERTEX
  5
10072
  8
0
 10
392.95851046724488
 20
155.18558885554921
 30
0.0
  0
SEQEND
  5
10073
  8
0
  0
POLYLINE
  5
10075
  8
0
 66
     1
 10
0.0
 20
0.0
 30
0.0
 70
     2
  0
VERTEX
  5
10076
  8
0
 10
345.72073313032888
 20
167.6775060978255
 30
0.0
 42
-0.004705836459766
  0
VERTEX
  5
100A4
  8
0
 10
346.2543917041184
 20
167.6864416138279
 30
0.0
 42
-0.0086474254548317
 70
     1
  0
VERTEX
  5
10077
  8
0
 10
346.54484456888463
 20
167.68354753106851
 30
0.0
 42
-0.0000799595526251
  0
VERTEX
  5
100A5
  8
0
 10
347.22261660403268
 20
167.66495968882981
 30
0.0
 42
-0.0020651515262017
 70
     1
  0
VERTEX
  5
10078
  8
0
 10
347.24885569767281
 20
167.66412741384551
 30
0.0
 42
-0.0006405683672001
  0
VERTEX
  5
100A6
  8
0
 10
347.67477423509808
 20
167.64831018223089
 30
0.0
 42
-0.0010910380009602
 70
     1
  0
VERTEX
  5
10079
  8
0
 10
347.92480533322993
 20
167.63815761920841
 30
0.0
 42
-0.0017268477610859
  0
VERTEX
  5
100A7
  8
0
 10
348.23882180820328
 20
167.6236338509211
 30
0.0
 42
-0.0014367299423239
 70
     1
  0
VERTEX
  5
1007A
  8
0
 10
348.61612904822482
 20
167.60378966404281
 30
0.0
 42
-0.0027485450000448
  0
VERTEX
  5
100A8
  8
0
 10
348.92897147543948
 20
167.5847088351575
 30
0.0
 42
-0.0025530791735118
 70
     1
  0
VERTEX
  5
1007B
  8
0
 10
349.26552828930738
 20
167.56059730810259
 30
0.0
 42
-0.0031804351883165
  0
VERTEX
  5
100A9
  8
0
 10
349.63203807861828
 20
167.53011190084271
 30
0.0
 42
-0.0033428616477149
 70
     1
  0
VERTEX
  5
1007C
  8
0
 10
349.98033180629932
 20
167.49656096267199
 30
0.0
 42
-0.0013853333059919
  0
VERTEX
  5
100AA
  8
0
 10
350.46295907931739
 20
167.44545916371769
 30
0.0
 42
-0.0020621788076715
 70
     1
  0
VERTEX
  5
1007D
  8
0
 10
350.7869354406285
 20
167.40889517323231
 30
0.0
 42
-0.0000788179802955
  0
VERTEX
  5
100AB
  8
0
 10
351.18371865678267
 20
167.36239269256299
 30
0.0
 42
0.0000984865587924
 70
     1
  0
VERTEX
  5
1007E
  8
0
 10
351.5805018729373
 20
167.31589021189359
 30
0.0
 42
0.0000425070042918
  0
VERTEX
  5
100AC
  8
0
 10
352.10597280879853
 20
167.25445590297201
 30
0.0
 42
0.0000547694233953
 70
     1
  0
VERTEX
  5
1007F
  8
0
 10
352.51380443237372
 20
167.20685556972899
 30
0.0
 42
0.0014877753192873
  0
VERTEX
  5
100AD
  8
0
 10
352.8855255252401
 20
167.1646319000865
 30
0.0
 42
0.0007028185350095
 70
     1
  0
VERTEX
  5
10080
  8
0
 10
353.67279336640672
 20
167.0786983739155
 30
0.0
 42
0.0013056104618259
  0
VERTEX
  5
100AE
  8
0
 10
354.26474358601081
 20
167.01648963800201
 30
0.0
 42
0.0009292296488293
 70
     1
  0
VERTEX
  5
10081
  8
0
 10
355.09684258094762
 20
166.93280193830839
 30
0.0
 42
0.0014049591713486
  0
VERTEX
  5
100AF
  8
0
 10
355.76403218405721
 20
166.86884461395039
 30
0.0
 42
0.0010738252777179
 70
     1
  0
VERTEX
  5
10082
  8
0
 10
356.63736544864452
 20
166.789493548531
 30
0.0
 42
0.0017358327549545
  0
VERTEX
  5
100B0
  8
0
 10
357.561580253785
 20
166.7107530948187
 30
0.0
 42
0.0015209192325904
 70
     1
  0
VERTEX
  5
10083
  8
0
 10
358.61695347977638
 20
166.62775864503021
 30
0.0
 42
0.00141829563589
  0
VERTEX
  5
100B1
  8
0
 10
359.36593573266691
 20
166.57328682067319
 30
0.0
 42
0.0011604009584893
 70
     1
  0
VERTEX
  5
10084
  8
0
 10
360.28170701165942
 20
166.5114310321315
 30
0.0
 42
0.0019579753261258
  0
VERTEX
  5
100B2
  8
0
 10
361.29124569164378
 20
166.4495641036587
 30
0.0
 42
0.0017043970928856
 70
     1
  0
VERTEX
  5
10085
  8
0
 10
362.45147075826208
 20
166.38698933926719
 30
0.0
 42
0.0021037730963538
  0
VERTEX
  5
100B3
  8
0
 10
363.78324437004079
 20
166.3253311487185
 30
0.0
 42
0.0021130086727267
 70
     1
  0
VERTEX
  5
10086
  8
0
 10
365.1096676581401
 20
166.2751269930379
 30
0.0
 42
0.0010311835741232
  0
VERTEX
  5
100B4
  8
0
 10
365.85589287793658
 20
166.25158112375291
 30
0.0
 42
0.0009692007431261
 70
     1
  0
VERTEX
  5
10087
  8
0
 10
366.64993485512701
 20
166.2297060335012
 30
0.0
 42
0.0022395586929224
  0
VERTEX
  5
100B5
  8
0
 10
367.71484992164
 20
166.207206826587
 30
0.0
 42
0.0017407572507022
 70
     1
  0
VERTEX
  5
10088
  8
0
 10
369.08509301986942
 20
166.18916799062441
 30
0.0
 42
0.0028561252632386
  0
VERTEX
  5
100B6
  8
0
 10
370.12173145310408
 20
166.18505231628529
 30
0.0
 42
0.002201962151098
 70
     1
  0
VERTEX
  5
10089
  8
0
 10
371.46631716093952
 20
166.1933161917197
 30
0.0
 42
0.0031829446015938
  0
VERTEX
  5
100B7
  8
0
 10
372.45116463815788
 20
166.20997721060249
 30
0.0
 42
0.0026789386091999
 70
     1
  0
VERTEX
  5
1008A
  8
0
 10
373.62098187807868
 20
166.2434893286939
 30
0.0
 42
0.0046631346306499
  0
VERTEX
  5
100B8
  8
0
 10
375.02293818241742
 20
166.30426507316849
 30
0.0
 42
0.0050342006581082
 70
     1
  0
VERTEX
  5
1008B
  8
0
 10
376.32022632672852
 20
166.3857353220771
 30
0.0
 42
0.0024399198791739
  0
VERTEX
  5
100B9
  8
0
 10
377.24602633688028
 20
166.4577836229391
 30
0.0
 42
0.0039033069504542
 70
     1
  0
VERTEX
  5
1008C
  8
0
 10
377.82412253549768
 20
166.51015872553771
 30
0.0
 42
0.0024707835691267
  0
VERTEX
  5
100BA
  8
0
 10
378.85915869943528
 20
166.61725145009399
 30
0.0
 42
0.0033421869636155
 70
     1
  0
VERTEX
  5
1008D
  8
0
 10
379.62336318801022
 20
166.70531277091621
 30
0.0
 42
0.0012613631904613
  0
VERTEX
  5
100BB
  8
0
 10
380.6388596641782
 20
166.83181537042469
 30
0.0
 42
-0.0013800158690551
 70
     1
  0
VERTEX
  5
1008E
  8
0
 10
381.56707225441158
 20
166.947221145844
 30
0.0
 42
-0.0003403589297698
  0
VERTEX
  5
100BC
  8
0
 10
382.36313853199857
 20
167.04341678699711
 30
0.0
 42
-0.0005952365020895
 70
     1
  0
VERTEX
  5
1008F
  8
0
 10
382.81843507430648
 20
167.0975700523741
 30
0.0
 42
-0.0022985134758816
  0
VERTEX
  5
100BD
  8
0
 10
383.38157415367101
 20
167.1612471459849
 30
0.0
 42
-0.0015177447950589
 70
     1
  0
VERTEX
  5
10090
  8
0
 10
384.23511574246442
 20
167.25116918028311
 30
0.0
 42
-0.0021073120157884
  0
VERTEX
  5
100BE
  8
0
 10
384.94348339833323
 20
167.32060802890911
 30
0.0
 42
-0.0020868891567073
 70
     1
  0
VERTEX
  5
10091
  8
0
 10
385.6593462770777
 20
167.38472380791239
 30
0.0
 42
-0.0019155563865451
  0
VERTEX
  5
100BF
  8
0
 10
386.37389549066393
 20
167.4429601726919
 30
0.0
 42
-0.0022275715235251
 70
     1
  0
VERTEX
  5
10092
  8
0
 10
386.98875271829479
 20
167.48794620151179
 30
0.0
 42
-0.0013421082709808
  0
VERTEX
  5
100C0
  8
0
 10
387.48540857615632
 20
167.5207210463625
 30
0.0
 42
-0.001555945455794
 70
     1
  0
VERTEX
  5
10093
  8
0
 10
387.91396479764398
 20
167.54650807687611
 30
0.0
 42
-0.0019124943348295
  0
VERTEX
  5
100C1
  8
0
 10
388.50117276944178
 20
167.5777549854258
 30
0.0
 42
-0.0021064378242761
 70
     1
  0
VERTEX
  5
10094
  8
0
 10
389.03452667985272
 20
167.60183876105191
 30
0.0
 42
-0.0015191527077455
  0
VERTEX
  5
100C2
  8
0
 10
389.54769597280938
 20
167.6212835822781
 30
0.0
 42
-0.0017932068364902
 70
     1
  0
VERTEX
  5
10095
  8
0
 10
389.98253806494017
 20
167.63487629988069
 30
0.0
 42
-0.0011653053461367
  0
VERTEX
  5
100C3
  8
0
 10
390.49752694900047
 20
167.64792467568969
 30
0.0
 42
-0.0009377934339938
 70
     1
  0
VERTEX
  5
10096
  8
0
 10
391.13751613921983
 20
167.6614468321969
 30
0.0
 42
-0.0016905808767767
  0
VERTEX
  5
100C4
  8
0
 10
391.57395076885018
 20
167.66837312416001
 30
0.0
 42
0.0011769369714587
 70
     1
  0
VERTEX
  5
10097
  8
0
 10
392.20086504691591
 20
167.6776781886239
 30
0.0
 42
0.0029327828863652
  0
VERTEX
  5
100C5
  8
0
 10
392.77233887564762
 20
167.6908592686575
 30
0.0
 42
0.0023887727184848
 70
     1
  0
VERTEX
  5
10098
  8
0
 10
393.47374401669708
 20
167.7145084249633
 30
0.0
 42
0.0074220934015252
  0
VERTEX
  5
100C6
  8
0
 10
394.0836913099256
 20
167.74706504093049
 30
0.0
 42
0.007880125581819
 70
     1
  0
VERTEX
  5
10099
  8
0
 10
394.65698213300061
 20
167.79529426440391
 30
0.0
 42
0.0035175014791855
  0
VERTEX
  5
100C7
  8
0
 10
395.06326395920843
 20
167.83881976533129
 30
0.0
 42
0.0054832188278833
 70
     1
  0
VERTEX
  5
1009A
  8
0
 10
395.3233547546829
 20
167.8714290033021
 30
0.0
 42
0.0022609889307544
  0
VERTEX
  5
100C8
  8
0
 10
395.77122991112992
 20
167.93464210126771
 30
0.0
 42
0.0040342712220394
 70
     1
  0
VERTEX
  5
1009B
  8
0
 10
396.02177636771557
 20
167.97322746182371
 30
0.0
 42
0.0004308025222543
  0
VERTEX
  5
100C9
  8
0
 10
396.52001316734271
 20
168.05451955452139
 30
0.0
 42
0.0005646572471244
 70
     1
  0
VERTEX
  5
1009C
  8
0
 10
396.9000163473836
 20
168.11729765228961
 30
0.0
 42
0.0001821964616961
  0
VERTEX
  5
100CA
  8
0
 10
397.24123773080692
 20
168.17419256180381
 30
0.0
 42
-0.0003813774998221
 70
     1
  0
VERTEX
  5
1009D
  8
0
 10
397.58245911423001
 20
168.23108747131801
 30
0.0
 42
-0.0007359030959302
  0
VERTEX
  5
100CB
  8
0
 10
397.81361948602529
 20
168.2691002127801
 30
0.0
 42
-0.0003068927413318
 70
     1
  0
VERTEX
  5
1009E
  8
0
 10
398.36811135214089
 20
168.35909529612829
 30
0.0
 42
-0.0018927065290984
  0
VERTEX
  5
100CC
  8
0
 10
398.55286533504142
 20
168.38824762988119
 30
0.0
 42
-0.0007454622292547
 70
     1
  0
VERTEX
  5
1009F
  8
0
 10
399.0223328131508
 20
168.45978825885049
 30
0.0
 42
-0.0061275956086056
  0
VERTEX
  5
100CD
  8
0
 10
399.50381111404448
 20
168.52640083656419
 30
0.0
 42
-0.0061060751986396
 70
     1
  0
VERTEX
  5
100A0
  8
0
 10
399.98847699951278
 20
168.58140747664049
 30
0.0
 42
-0.0061877554690234
  0
VERTEX
  5
100CF
  8
0
 10
400.0284783023871
 20
168.5849537597465
 30
0.0
 42
-0.0003217903281582
 70
     1
  0
VERTEX
  5
100A1
  8
0
 10
400.79846265285852
 20
168.64312401420591
 30
0.0
 42
-0.0080279191899756
  0
VERTEX
  5
100CE
  8
0
 10
401.1606193077431
 20
168.6644088811783
 30
0.0
 42
-0.0045987999406689
 70
     1
  0
VERTEX
  5
100A2
  8
0
 10
401.7935291961046
 20
168.68558887221971
 30
0.0
  0
SEQEND
  5
100A3
  8
0
  0
POLYLINE
  5
100D0
  8
0
 66
     1
 10
0.0
 20
0.0
 30
0.0
 70
     2
  0
VERTEX
  5
100D1
  8
0
 10
345.65338886695241
 20
156.69752751241009
 30
0.0
 42
0.0083116904848285
  0
VERTEX
  5
100D2
  8
0
 10
346.2543917041184
 20
156.68473613768961
 30
0.0
 42
0.0086474254548317
 70
     1
  0
VERTEX
  5
100D3
  8
0
 10
346.54484456888463
 20
156.68763022044899
 30
0.0
 42
0.0000799595526251
  0
VERTEX
  5
100D4
  8
0
 10
347.22261660403268
 20
156.7062180626877
 30
0.0
 42
0.0020651515262017
 70
     1
  0
VERTEX
  5
100D5
  8
0
 10
347.24885569767281
 20
156.707050337672
 30
0.0
 42
0.0006405683672001
  0
VERTEX
  5
100D6
  8
0
 10
347.67477423509808
 20
156.72286756928671
 30
0.0
 42
0.0010910380009602
 70
     1
  0
VERTEX
  5
100D7
  8
0
 10
347.92480533322993
 20
156.73302013230921
 30
0.0
 42
0.0017268477610859
  0
VERTEX
  5
100D8
  8
0
 10
348.23882180820328
 20
156.7475439005965
 30
0.0
 42
0.0014367299423239
 70
     1
  0
VERTEX
  5
100D9
  8
0
 10
348.61612904822482
 20
156.76738808747481
 30
0.0
 42
0.0027485450000448
  0
VERTEX
  5
100DA
  8
0
 10
348.92897147543948
 20
156.78646891636009
 30
0.0
 42
0.0025530791735118
 70
     1
  0
VERTEX
  5
100DB
  8
0
 10
349.26552828930738
 20
156.81058044341501
 30
0.0
 42
0.0031804351883165
  0
VERTEX
  5
100DC
  8
0
 10
349.63203807861828
 20
156.84106585067491
 30
0.0
 42
0.0033428616477149
 70
     1
  0
VERTEX
  5
100DD
  8
0
 10
349.98033180629932
 20
156.8746167888456
 30
0.0
 42
0.0013853333059919
  0
VERTEX
  5
100DE
  8
0
 10
350.46295907931739
 20
156.92571858779991
 30
0.0
 42
0.0020621788076715
 70
     1
  0
VERTEX
  5
100DF
  8
0
 10
350.7869354406285
 20
156.9622825782852
 30
0.0
 42
0.0000788179802955
  0
VERTEX
  5
100E0
  8
0
 10
351.18371865678267
 20
157.0087850589546
 30
0.0
 42
-0.0000984865587924
 70
     1
  0
VERTEX
  5
100E1
  8
0
 10
351.5805018729373
 20
157.055287539624
 30
0.0
 42
-0.0000425070042918
  0
VERTEX
  5
100E2
  8
0
 10
352.10597280879853
 20
157.11672184854561
 30
0.0
 42
-0.0000547694233953
 70
     1
  0
VERTEX
  5
100E3
  8
0
 10
352.51380443237372
 20
157.16432218178861
 30
0.0
 42
-0.0014877753192873
  0
VERTEX
  5
100E4
  8
0
 10
352.8855255252401
 20
157.20654585143109
 30
0.0
 42
-0.0007028185350095
 70
     1
  0
VERTEX
  5
100E5
  8
0
 10
353.67279336640672
 20
157.29247937760209
 30
0.0
 42
-0.0013056104618259
  0
VERTEX
  5
100E6
  8
0
 10
354.26474358601081
 20
157.35468811351561
 30
0.0
 42
-0.0009292296488293
 70
     1
  0
VERTEX
  5
100E7
  8
0
 10
355.09684258094762
 20
157.43837581320921
 30
0.0
 42
-0.0014049591713486
  0
VERTEX
  5
100E8
  8
0
 10
355.76403218405721
 20
157.50233313756721
 30
0.0
 42
-0.0010738252777179
 70
     1
  0
VERTEX
  5
100E9
  8
0
 10
356.63736544864452
 20
157.58168420298659
 30
0.0
 42
-0.0017358327549545
  0
VERTEX
  5
100EA
  8
0
 10
357.561580253785
 20
157.66042465669881
 30
0.0
 42
-0.0015209192325904
 70
     1
  0
VERTEX
  5
100EB
  8
0
 10
358.61695347977638
 20
157.74341910648741
 30
0.0
 42
-0.00141829563589
  0
VERTEX
  5
100EC
  8
0
 10
359.36593573266691
 20
157.79789093084429
 30
0.0
 42
-0.0011604009584893
 70
     1
  0
VERTEX
  5
100ED
  8
0
 10
360.28170701165942
 20
157.85974671938601
 30
0.0
 42
-0.0019579753261258
  0
VERTEX
  5
100EE
  8
0
 10
361.29124569164378
 20
157.92161364785881
 30
0.0
 42
-0.0017043970928856
 70
     1
  0
VERTEX
  5
100EF
  8
0
 10
362.45147075826208
 20
157.98418841225029
 30
0.0
 42
-0.0021037730963538
  0
VERTEX
  5
100F0
  8
0
 10
363.78324437004079
 20
158.04584660279909
 30
0.0
 42
-0.0021130086727267
 70
     1
  0
VERTEX
  5
100F1
  8
0
 10
365.1096676581401
 20
158.09605075847969
 30
0.0
 42
-0.0010311835741232
  0
VERTEX
  5
100F2
  8
0
 10
365.85589287793658
 20
158.11959662776471
 30
0.0
 42
-0.0009692007431261
 70
     1
  0
VERTEX
  5
100F3
  8
0
 10
366.64993485512701
 20
158.14147171801639
 30
0.0
 42
-0.0022395586929224
  0
VERTEX
  5
100F4
  8
0
 10
367.71484992164
 20
158.1639709249306
 30
0.0
 42
-0.0017407572507022
 70
     1
  0
VERTEX
  5
100F5
  8
0
 10
369.08509301986942
 20
158.1820097608931
 30
0.0
 42
-0.0028561252632386
  0
VERTEX
  5
100F6
  8
0
 10
370.12173145310408
 20
158.18612543523221
 30
0.0
 42
-0.002201962151098
 70
     1
  0
VERTEX
  5
100F7
  8
0
 10
371.46631716093952
 20
158.17786155979789
 30
0.0
 42
-0.0031829446015938
  0
VERTEX
  5
100F8
  8
0
 10
372.45116463815788
 20
158.1612005409151
 30
0.0
 42
-0.0026789386091999
 70
     1
  0
VERTEX
  5
100F9
  8
0
 10
373.62098187807868
 20
158.1276884228237
 30
0.0
 42
-0.0046631346306499
  0
VERTEX
  5
100FA
  8
0
 10
375.02293818241742
 20
158.06691267834901
 30
0.0
 42
-0.0050342006581082
 70
     1
  0
VERTEX
  5
100FB
  8
0
 10
376.32022632672852
 20
157.9854424294405
 30
0.0
 42
-0.0024399198791739
  0
VERTEX
  5
100FC
  8
0
 10
377.24602633688028
 20
157.91339412857849
 30
0.0
 42
-0.0039033069504542
 70
     1
  0
VERTEX
  5
100FD
  8
0
 10
377.82412253549768
 20
157.86101902597991
 30
0.0
 42
-0.0024707835691267
  0
VERTEX
  5
100FE
  8
0
 10
378.85915869943528
 20
157.7539263014236
 30
0.0
 42
-0.0033421869636155
 70
     1
  0
VERTEX
  5
100FF
  8
0
 10
379.62336318801022
 20
157.66586498060141
 30
0.0
 42
-0.0012613631904613
  0
VERTEX
  5
10100
  8
0
 10
380.6388596641782
 20
157.5393623810929
 30
0.0
 42
0.0013800158690551
 70
     1
  0
VERTEX
  5
10101
  8
0
 10
381.56707225441158
 20
157.42395660567351
 30
0.0
 42
0.0003403589297698
  0
VERTEX
  5
10102
  8
0
 10
382.36313853199857
 20
157.32776096452051
 30
0.0
 42
0.0005952365020895
 70
     1
  0
VERTEX
  5
10103
  8
0
 10
382.81843507430648
 20
157.27360769914341
 30
0.0
 42
0.0022985134758816
  0
VERTEX
  5
10104
  8
0
 10
383.38157415367101
 20
157.20993060553269
 30
0.0
 42
0.0015177447950589
 70
     1
  0
VERTEX
  5
10105
  8
0
 10
384.23511574246442
 20
157.12000857123451
 30
0.0
 42
0.0021073120157884
  0
VERTEX
  5
10106
  8
0
 10
384.94348339833323
 20
157.05056972260849
 30
0.0
 42
0.0020868891567073
 70
     1
  0
VERTEX
  5
10107
  8
0
 10
385.6593462770777
 20
156.9864539436052
 30
0.0
 42
0.0019155563865451
  0
VERTEX
  5
10108
  8
0
 10
386.37389549066393
 20
156.92821757882561
 30
0.0
 42
0.0022275715235251
 70
     1
  0
VERTEX
  5
10109
  8
0
 10
386.98875271829479
 20
156.8832315500058
 30
0.0
 42
0.0013421082709808
  0
VERTEX
  5
1010A
  8
0
 10
387.48540857615632
 20
156.8504567051551
 30
0.0
 42
0.001555945455794
 70
     1
  0
VERTEX
  5
1010B
  8
0
 10
387.91396479764398
 20
156.8246696746414
 30
0.0
 42
0.0019124943348295
  0
VERTEX
  5
1010C
  8
0
 10
388.50117276944178
 20
156.79342276609179
 30
0.0
 42
0.0021064378242761
 70
     1
  0
VERTEX
  5
1010D
  8
0
 10
389.03452667985272
 20
156.7693389904656
 30
0.0
 42
0.0015191527077455
  0
VERTEX
  5
1010E
  8
0
 10
389.54769597280938
 20
156.7498941692395
 30
0.0
 42
0.0017932068364902
 70
     1
  0
VERTEX
  5
1010F
  8
0
 10
389.98253806494017
 20
156.7363014516369
 30
0.0
 42
0.0011653053461367
  0
VERTEX
  5
10110
  8
0
 10
390.49752694900047
 20
156.7232530758279
 30
0.0
 42
0.0009377934339938
 70
     1
  0
VERTEX
  5
10111
  8
0
 10
391.13751613921983
 20
156.70973091932069
 30
0.0
 42
0.0016905808767767
  0
VERTEX
  5
10112
  8
0
 10
391.57395076885018
 20
156.70280462735749
 30
0.0
 42
-0.0011769369714587
 70
     1
  0
VERTEX
  5
10113
  8
0
 10
392.20086504691591
 20
156.69349956289369
 30
0.0
 42
-0.0029327828863652
  0
VERTEX
  5
10114
  8
0
 10
392.77233887564762
 20
156.68031848286009
 30
0.0
 42
-0.0023887727184848
 70
     1
  0
VERTEX
  5
10115
  8
0
 10
393.47374401669708
 20
156.65666932655429
 30
0.0
 42
-0.0074220934015252
  0
VERTEX
  5
10116
  8
0
 10
394.0836913099256
 20
156.62411271058701
 30
0.0
 42
-0.007880125581819
 70
     1
  0
VERTEX
  5
10117
  8
0
 10
394.65698213300061
 20
156.5758834871136
 30
0.0
 42
-0.0035175014791855
  0
VERTEX
  5
10118
  8
0
 10
395.06326395920843
 20
156.5323579861863
 30
0.0
 42
-0.0054832188278833
 70
     1
  0
VERTEX
  5
10119
  8
0
 10
395.3233547546829
 20
156.4997487482155
 30
0.0
 42
-0.0022609889307544
  0
VERTEX
  5
1011A
  8
0
 10
395.77122991112992
 20
156.43653565024991
 30
0.0
 42
-0.0040342712220394
 70
     1
  0
VERTEX
  5
1011B
  8
0
 10
396.02177636771557
 20
156.39795028969391
 30
0.0
 42
-0.0004308025222543
  0
VERTEX
  5
1011C
  8
0
 10
396.52001316734271
 20
156.3166581969962
 30
0.0
 42
-0.0005646572471244
 70
     1
  0
VERTEX
  5
1011D
  8
0
 10
396.9000163473836
 20
156.25388009922801
 30
0.0
 42
-0.0001821964616961
  0
VERTEX
  5
1011E
  8
0
 10
397.24123773080692
 20
156.19698518971381
 30
0.0
 42
0.0003813774998221
 70
     1
  0
VERTEX
  5
1011F
  8
0
 10
397.58245911423001
 20
156.14009028019959
 30
0.0
 42
0.0007359030959302
  0
VERTEX
  5
10120
  8
0
 10
397.81361948602529
 20
156.10207753873749
 30
0.0
 42
0.0003068927413318
 70
     1
  0
VERTEX
  5
10121
  8
0
 10
398.36811135214089
 20
156.0120824553893
 30
0.0
 42
0.0018927065290984
  0
VERTEX
  5
10122
  8
0
 10
398.55286533504142
 20
155.9829301216364
 30
0.0
 42
0.0007454622292547
 70
     1
  0
VERTEX
  5
10123
  8
0
 10
399.0223328131508
 20
155.9113894926671
 30
0.0
 42
0.0061275956086056
  0
VERTEX
  5
10124
  8
0
 10
399.50381111404448
 20
155.84477691495329
 30
0.0
 42
0.0061060751986396
 70
     1
  0
VERTEX
  5
10125
  8
0
 10
399.98847699951278
 20
155.7897702748771
 30
0.0
 42
0.0061877554690234
  0
VERTEX
  5
10126
  8
0
 10
400.0284783023871
 20
155.78622399177101
 30
0.0
 42
0.0003217903281582
 70
     1
  0
VERTEX
  5
10127
  8
0
 10
400.79846265285852
 20
155.72805373731171
 30
0.0
 42
0.0080279191899756
  0
VERTEX
  5
10128
  8
0
 10
401.1606193077431
 20
155.7067688703392
 30
0.0
 42
0.0045987999406689
 70
     1
  0
VERTEX
  5
10129
  8
0
 10
401.7935291961046
 20
155.68558887929791
 30
0.0
  0
SEQEND
  5
1012A
  8
0
  0
POLYLINE
  5
1012B
  8
0
 66
     1
 10
0.0
 20
0.0
 30
0.0
 70
     2
  0
VERTEX
  5
1012C
  8
0
 10
394.16513758285208
 20
163.93558890854129
 30
0.0
 42
-0.0153776496138666
  0
VERTEX
  5
10139
  8
0
 10
394.16882470815432
 20
164.0476271137795
 30
0.0
 42
-0.028394225137375
 70
     1
  0
VERTEX
  5
1012D
  8
0
 10
394.17612214506897
 20
164.10793189770891
 30
0.0
 42
-0.0059189193919414
  0
VERTEX
  5
1013A
  8
0
 10
394.20494154981219
 20
164.25856729008041
 30
0.0
 42
-0.0153386630478647
 70
     1
  0
VERTEX
  5
1012E
  8
0
 10
394.21852553072381
 20
164.31618120781729
 30
0.0
 42
-0.0273208926762704
  0
VERTEX
  5
1013B
  8
0
 10
394.2506958697864
 20
164.4142921643051
 30
0.0
 42
-0.0198817029098678
 70
     1
  0
VERTEX
  5
1012F
  8
0
 10
394.3073932122461
 20
164.54430142055901
 30
0.0
 42
-0.0333297542306591
  0
VERTEX
  5
1013C
  8
0
 10
394.40643183712058
 20
164.71823074202069
 30
0.0
 42
-0.0373117891062133
 70
     1
  0
VERTEX
  5
10130
  8
0
 10
394.51591940375778
 20
164.85963829855291
 30
0.0
 42
-0.0089491290087435
  0
VERTEX
  5
1013D
  8
0
 10
394.59606110930139
 20
164.94543364877609
 30
0.0
 42
-0.0181118779147952
 70
     1
  0
VERTEX
  5
10131
  8
0
 10
394.63790476539498
 20
164.98563135643161
 30
0.0
 42
-0.0093509697856596
  0
VERTEX
  5
1013E
  8
0
 10
394.70859042303158
 20
165.04643900602599
 30
0.0
 42
-0.0120875545629275
 70
     1
  0
VERTEX
  5
10132
  8
0
 10
394.76524241680499
 20
165.0910955634115
 30
0.0
 42
-0.0131538542507358
  0
VERTEX
  5
1013F
  8
0
 10
394.82805661962999
 20
165.13566114531289
 30
0.0
 42
-0.010610802922003
 70
     1
  0
VERTEX
  5
10133
  8
0
 10
394.90845718901892
 20
165.1871426279283
 30
0.0
 42
-0.0180471535963347
  0
VERTEX
  5
10140
  8
0
 10
394.99714910556122
 20
165.23701246707421
 30
0.0
 42
-0.0159128277306712
 70
     1
  0
VERTEX
  5
10134
  8
0
 10
395.10133563597788
 20
165.28661117301411
 30
0.0
 42
-0.0182279734404773
  0
VERTEX
  5
10141
  8
0
 10
395.21214676857971
 20
165.3303619389344
 30
0.0
 42
-0.0216499029444778
 70
     1
  0
VERTEX
  5
10135
  8
0
 10
395.3080943093251
 20
165.35965245152221
 30
0.0
 42
-0.0108522536521145
  0
VERTEX
  5
10143
  8
0
 10
395.34274010189893
 20
165.36781182689441
 30
0.0
 42
-0.002165042513229
 70
     1
  0
VERTEX
  5
10136
  8
0
 10
395.51738781733229
 20
165.40417209125931
 30
0.0
 42
-0.0153504670368063
  0
VERTEX
  5
10142
  8
0
 10
395.58583476178518
 20
165.4159377800442
 30
0.0
 42
-0.0083849053412877
 70
     1
  0
VERTEX
  5
10137
  8
0
 10
395.71200244633718
 20
165.4315048392595
 30
0.0
  0
SEQEND
  5
10138
  8
0
  0
POLYLINE
  5
10144
  8
0
 66
     1
 10
0.0
 20
0.0
 30
0.0
 70
     2
  0
VERTEX
  5
10145
  8
0
 10
400.180027421087
 20
163.98838090209861
 30
0.0
 42
-0.0096637027913171
  0
VERTEX
  5
10152
  8
0
 10
400.23890378919617
 20
164.1107299509876
 30
0.0
 42
-0.0198786745469892
 70
     1
  0
VERTEX
  5
10146
  8
0
 10
400.27099720431681
 20
164.1684316785892
 30
0.0
 42
-0.0014786561767965
  0
VERTEX
  5
10153
  8
0
 10
400.38228140032328
 20
164.34982011095599
 30
0.0
 42
-0.0100752966041527
 70
     1
  0
VERTEX
  5
10147
  8
0
 10
400.39922592907021
 20
164.37605892163481
 30
0.0
 42
-0.0053251927100458
  0
VERTEX
  5
10154
  8
0
 10
400.46809343216768
 20
164.47581974566671
 30
0.0
 42
-0.0086282012924386
 70
     1
  0
VERTEX
  5
10148
  8
0
 10
400.51230086952449
 20
164.5361834234007
 30
0.0
 42
-0.0054164357629373
  0
VERTEX
  5
10155
  8
0
 10
400.57908221017527
 20
164.62219489644659
 30
0.0
 42
-0.0051239040980065
 70
     1
  0
VERTEX
  5
10149
  8
0
 10
400.65157683097931
 20
164.71160837593831
 30
0.0
 42
-0.0033341154497542
  0
VERTEX
  5
10156
  8
0
 10
400.69798775984782
 20
164.76691162495439
 30
0.0
 42
-0.0030122647263142
 70
     1
  0
VERTEX
  5
1014A
  8
0
 10
400.75013023023661
 20
164.8274667878089
 30
0.0
 42
-0.0104457598499398
  0
VERTEX
  5
10157
  8
0
 10
400.8015781555477
 20
164.8840608452756
 30
0.0
 42
-0.0067196500118418
 70
     1
  0
VERTEX
  5
1014B
  8
0
 10
400.88452162730681
 20
164.96923452651379
 30
0.0
 42
-0.0161404240565022
  0
VERTEX
  5
10158
  8
0
 10
400.96468551973521
 20
165.04435726931021
 30
0.0
 42
-0.016656084003562
 70
     1
  0
VERTEX
  5
1014C
  8
0
 10
401.0469730916206
 20
165.11190759897249
 30
0.0
 42
-0.0125852160883364
  0
VERTEX
  5
10159
  8
0
 10
401.1381894789165
 20
165.17825856626399
 30
0.0
 42
-0.0152946197551755
 70
     1
  0
VERTEX
  5
1014D
  8
0
 10
401.21617889868088
 20
165.22859184275731
 30
0.0
 42
-0.0028721756725407
  0
VERTEX
  5
1015A
  8
0
 10
401.28095732937612
 20
165.26714015404281
 30
0.0
 42
-0.0066749781110071
 70
     1
  0
VERTEX
  5
1014E
  8
0
 10
401.30914346974498
 20
165.2831924753304
 30
0.0
 42
-0.0037792489598223
  0
VERTEX
  5
1015C
  8
0
 10
401.32012281906458
 20
165.28914485700619
 30
0.0
 42
-0.0002864261285334
 70
     1
  0
VERTEX
  5
1014F
  8
0
 10
401.4656215814345
 20
165.366501903694
 30
0.0
 42
-0.0059644394993704
  0
VERTEX
  5
1015B
  8
0
 10
401.51058125416779
 20
165.38968930199189
 30
0.0
 42
-0.0029088799059128
 70
     1
  0
VERTEX
  5
10150
  8
0
 10
401.60359433891489
 20
165.43558868874919
 30
0.0
  0
SEQEND
  5
10151
  8
0
  0
POLYLINE
  5
1015D
  8
0
 66
     1
 10
0.0
 20
0.0
 30
0.0
 70
     2
  0
VERTEX
  5
1015E
  8
0
 10
404.97583430200552
 20
163.98838090209861
 30
0.0
 42
0.0096637027913171
  0
VERTEX
  5
1015F
  8
0
 10
404.9169579338963
 20
164.1107299509876
 30
0.0
 42
0.0198786745469892
 70
     1
  0
VERTEX
  5
10160
  8
0
 10
404.88486451877571
 20
164.1684316785892
 30
0.0
 42
0.0014786561767965
  0
VERTEX
  5
10161
  8
0
 10
404.77358032276919
 20
164.34982011095599
 30
0.0
 42
0.0100752966041527
 70
     1
  0
VERTEX
  5
10162
  8
0
 10
404.75663579402232
 20
164.37605892163481
 30
0.0
 42
0.0053251927100458
  0
VERTEX
  5
10163
  8
0
 10
404.68776829092479
 20
164.47581974566671
 30
0.0
 42
0.0086282012924386
 70
     1
  0
VERTEX
  5
10164
  8
0
 10
404.64356085356798
 20
164.5361834234007
 30
0.0
 42
0.0054164357629373
  0
VERTEX
  5
10165
  8
0
 10
404.5767795129172
 20
164.62219489644659
 30
0.0
 42
0.0051239040980065
 70
     1
  0
VERTEX
  5
10166
  8
0
 10
404.50428489211322
 20
164.71160837593831
 30
0.0
 42
0.0033341154497542
  0
VERTEX
  5
10167
  8
0
 10
404.45787396324471
 20
164.76691162495439
 30
0.0
 42
0.0030122647263142
 70
     1
  0
VERTEX
  5
10168
  8
0
 10
404.40573149285592
 20
164.8274667878089
 30
0.0
 42
0.0104457598499398
  0
VERTEX
  5
10169
  8
0
 10
404.35428356754483
 20
164.8840608452756
 30
0.0
 42
0.0067196500118418
 70
     1
  0
VERTEX
  5
1016A
  8
0
 10
404.27134009578572
 20
164.96923452651379
 30
0.0
 42
0.0161404240565022
  0
VERTEX
  5
1016B
  8
0
 10
404.19117620335732
 20
165.04435726931021
 30
0.0
 42
0.016656084003562
 70
     1
  0
VERTEX
  5
1016C
  8
0
 10
404.10888863147193
 20
165.11190759897249
 30
0.0
 42
0.0125852160883364
  0
VERTEX
  5
1016D
  8
0
 10
404.01767224417608
 20
165.17825856626399
 30
0.0
 42
0.0152946197551755
 70
     1
  0
VERTEX
  5
1016E
  8
0
 10
403.93968282441159
 20
165.22859184275731
 30
0.0
 42
0.0028721756725407
  0
VERTEX
  5
1016F
  8
0
 10
403.87490439371641
 20
165.26714015404281
 30
0.0
 42
0.0066749781110071
 70
     1
  0
VERTEX
  5
10170
  8
0
 10
403.84671825334749
 20
165.2831924753304
 30
0.0
 42
0.0037792489598223
  0
VERTEX
  5
10171
  8
0
 10
403.83573890402789
 20
165.28914485700619
 30
0.0
 42
0.0002864261285334
 70
     1
  0
VERTEX
  5
10172
  8
0
 10
403.69024014165802
 20
165.366501903694
 30
0.0
 42
0.0059644394993704
  0
VERTEX
  5
10173
  8
0
 10
403.64528046892468
 20
165.38968930199189
 30
0.0
 42
0.0029088799059128
 70
     1
  0
VERTEX
  5
10174
  8
0
 10
403.55226738417758
 20
165.43558868874919
 30
0.0
  0
SEQEND
  5
10175
  8
0
  0
POLYLINE
  5
10176
  8
0
 66
     1
 10
0.0
 20
0.0
 30
0.0
 70
     2
  0
VERTEX
  5
10177
  8
0
 10
404.97583430200552
 20
160.38279684941901
 30
0.0
 42
-0.0096637027913171
  0
VERTEX
  5
10178
  8
0
 10
404.9169579338963
 20
160.26044780052999
 30
0.0
 42
-0.0198786745469892
 70
     1
  0
VERTEX
  5
10179
  8
0
 10
404.88486451877571
 20
160.20274607292839
 30
0.0
 42
-0.0014786561767965
  0
VERTEX
  5
1017A
  8
0
 10
404.77358032276919
 20
160.0213576405616
 30
0.0
 42
-0.0100752966041527
 70
     1
  0
VERTEX
  5
1017B
  8
0
 10
404.75663579402232
 20
159.99511882988281
 30
0.0
 42
-0.0053251927100458
  0
VERTEX
  5
1017C
  8
0
 10
404.68776829092479
 20
159.89535800585091
 30
0.0
 42
-0.0086282012924386
 70
     1
  0
VERTEX
  5
1017D
  8
0
 10
404.64356085356798
 20
159.83499432811689
 30
0.0
 42
-0.0054164357629373
  0
VERTEX
  5
1017E
  8
0
 10
404.5767795129172
 20
159.74898285507101
 30
0.0
 42
-0.0051239040980065
 70
     1
  0
VERTEX
  5
1017F
  8
0
 10
404.50428489211322
 20
159.65956937557931
 30
0.0
 42
-0.0033341154497542
  0
VERTEX
  5
10180
  8
0
 10
404.45787396324471
 20
159.6042661265632
 30
0.0
 42
-0.0030122647263142
 70
     1
  0
VERTEX
  5
10181
  8
0
 10
404.40573149285592
 20
159.5437109637088
 30
0.0
 42
-0.0104457598499398
  0
VERTEX
  5
10182
  8
0
 10
404.35428356754483
 20
159.48711690624199
 30
0.0
 42
-0.0067196500118418
 70
     1
  0
VERTEX
  5
10183
  8
0
 10
404.27134009578572
 20
159.40194322500381
 30
0.0
 42
-0.0161404240565022
  0
VERTEX
  5
10184
  8
0
 10
404.19117620335732
 20
159.32682048220741
 30
0.0
 42
-0.016656084003562
 70
     1
  0
VERTEX
  5
10185
  8
0
 10
404.10888863147193
 20
159.25927015254521
 30
0.0
 42
-0.0125852160883364
  0
VERTEX
  5
10186
  8
0
 10
404.01767224417608
 20
159.1929191852536
 30
0.0
 42
-0.0152946197551755
 70
     1
  0
VERTEX
  5
10187
  8
0
 10
403.93968282441159
 20
159.14258590876031
 30
0.0
 42
-0.0028721756725407
  0
VERTEX
  5
10188
  8
0
 10
403.87490439371641
 20
159.1040375974747
 30
0.0
 42
-0.0066749781110071
 70
     1
  0
VERTEX
  5
10189
  8
0
 10
403.84671825334749
 20
159.0879852761872
 30
0.0
 42
-0.0037792489598223
  0
VERTEX
  5
1018A
  8
0
 10
403.83573890402789
 20
159.0820328945114
 30
0.0
 42
-0.0002864261285334
 70
     1
  0
VERTEX
  5
1018B
  8
0
 10
403.69024014165802
 20
159.00467584782359
 30
0.0
 42
-0.0059644394993704
  0
VERTEX
  5
1018C
  8
0
 10
403.64528046892468
 20
158.9814884495257
 30
0.0
 42
-0.0029088799059128
 70
     1
  0
VERTEX
  5
1018D
  8
0
 10
403.55226738417758
 20
158.9355890627684
 30
0.0
  0
SEQEND
  5
1018E
  8
0
  0
POLYLINE
  5
1018F
  8
0
 66
     1
 10
0.0
 20
0.0
 30
0.0
 70
     2
  0
VERTEX
  5
10190
  8
0
 10
400.180027421087
 20
160.38279684941901
 30
0.0
 42
0.0096637027913171
  0
VERTEX
  5
10191
  8
0
 10
400.23890378919617
 20
160.26044780052999
 30
0.0
 42
0.0198786745469892
 70
     1
  0
VERTEX
  5
10192
  8
0
 10
400.27099720431681
 20
160.20274607292839
 30
0.0
 42
0.0014786561767965
  0
VERTEX
  5
10193
  8
0
 10
400.38228140032328
 20
160.0213576405616
 30
0.0
 42
0.0100752966041527
 70
     1
  0
VERTEX
  5
10194
  8
0
 10
400.39922592907021
 20
159.99511882988281
 30
0.0
 42
0.0053251927100458
  0
VERTEX
  5
10195
  8
0
 10
400.46809343216768
 20
159.89535800585091
 30
0.0
 42
0.0086282012924386
 70
     1
  0
VERTEX
  5
10196
  8
0
 10
400.51230086952449
 20
159.83499432811689
 30
0.0
 42
0.0054164357629373
  0
VERTEX
  5
10197
  8
0
 10
400.57908221017527
 20
159.74898285507101
 30
0.0
 42
0.0051239040980065
 70
     1
  0
VERTEX
  5
10198
  8
0
 10
400.65157683097931
 20
159.65956937557931
 30
0.0
 42
0.0033341154497542
  0
VERTEX
  5
10199
  8
0
 10
400.69798775984782
 20
159.6042661265632
 30
0.0
 42
0.0030122647263142
 70
     1
  0
VERTEX
  5
1019A
  8
0
 10
400.75013023023661
 20
159.5437109637088
 30
0.0
 42
0.0104457598499398
  0
VERTEX
  5
1019B
  8
0
 10
400.8015781555477
 20
159.48711690624199
 30
0.0
 42
0.0067196500118418
 70
     1
  0
VERTEX
  5
1019C
  8
0
 10
400.88452162730681
 20
159.40194322500381
 30
0.0
 42
0.0161404240565022
  0
VERTEX
  5
1019D
  8
0
 10
400.96468551973521
 20
159.32682048220741
 30
0.0
 42
0.016656084003562
 70
     1
  0
VERTEX
  5
1019E
  8
0
 10
401.0469730916206
 20
159.25927015254521
 30
0.0
 42
0.0125852160883364
  0
VERTEX
  5
1019F
  8
0
 10
401.1381894789165
 20
159.1929191852536
 30
0.0
 42
0.0152946197551755
 70
     1
  0
VERTEX
  5
101A0
  8
0
 10
401.21617889868088
 20
159.14258590876031
 30
0.0
 42
0.0028721756725407
  0
VERTEX
  5
101A1
  8
0
 10
401.28095732937612
 20
159.1040375974747
 30
0.0
 42
0.0066749781110071
 70
     1
  0
VERTEX
  5
101A2
  8
0
 10
401.30914346974498
 20
159.0879852761872
 30
0.0
 42
0.0037792489598223
  0
VERTEX
  5
101A3
  8
0
 10
401.32012281906458
 20
159.0820328945114
 30
0.0
 42
0.0002864261285334
 70
     1
  0
VERTEX
  5
101A4
  8
0
 10
401.4656215814345
 20
159.00467584782359
 30
0.0
 42
0.0059644394993704
  0
VERTEX
  5
101A5
  8
0
 10
401.51058125416779
 20
158.9814884495257
 30
0.0
 42
0.0029088799059128
 70
     1
  0
VERTEX
  5
101A6
  8
0
 10
401.60359433891489
 20
158.9355890627684
 30
0.0
  0
SEQEND
  5
101A7
  8
0
  0
POLYLINE
  5
101A8
  8
0
 66
     1
 10
0.0
 20
0.0
 30
0.0
 70
     2
  0
VERTEX
  5
101A9
  8
0
 10
394.16513758285208
 20
160.4355892661691
 30
0.0
 42
0.0153776496138666
  0
VERTEX
  5
101AA
  8
0
 10
394.16882470815432
 20
160.32355106093101
 30
0.0
 42
0.028394225137375
 70
     1
  0
VERTEX
  5
101AB
  8
0
 10
394.17612214506897
 20
160.2632462770016
 30
0.0
 42
0.0059189193919414
  0
VERTEX
  5
101AC
  8
0
 10
394.20494154981219
 20
160.11261088462999
 30
0.0
 42
0.0153386630478647
 70
     1
  0
VERTEX
  5
101AD
  8
0
 10
394.21852553072381
 20
160.0549969668931
 30
0.0
 42
0.0273208926762704
  0
VERTEX
  5
101AE
  8
0
 10
394.2506958697864
 20
159.9568860104053
 30
0.0
 42
0.0198817029098678
 70
     1
  0
VERTEX
  5
101AF
  8
0
 10
394.3073932122461
 20
159.82687675415141
 30
0.0
 42
0.0333297542306591
  0
VERTEX
  5
101B0
  8
0
 10
394.40643183712058
 20
159.6529474326897
 30
0.0
 42
0.0373117891062133
 70
     1
  0
VERTEX
  5
101B1
  8
0
 10
394.51591940375778
 20
159.5115398761576
 30
0.0
 42
0.0089491290087435
  0
VERTEX
  5
101B2
  8
0
 10
394.59606110930139
 20
159.42574452593439
 30
0.0
 42
0.0181118779147952
 70
     1
  0
VERTEX
  5
101B3
  8
0
 10
394.63790476539498
 20
159.3855468182789
 30
0.0
 42
0.0093509697856596
  0
VERTEX
  5
101B4
  8
0
 10
394.70859042303158
 20
159.3247391686844
 30
0.0
 42
0.0120875545629275
 70
     1
  0
VERTEX
  5
101B5
  8
0
 10
394.76524241680499
 20
159.28008261129901
 30
0.0
 42
0.0131538542507358
  0
VERTEX
  5
101B6
  8
0
 10
394.82805661962999
 20
159.2355170293975
 30
0.0
 42
0.010610802922003
 70
     1
  0
VERTEX
  5
101B7
  8
0
 10
394.90845718901892
 20
159.1840355467821
 30
0.0
 42
0.0180471535963347
  0
VERTEX
  5
101B8
  8
0
 10
394.99714910556122
 20
159.13416570763621
 30
0.0
 42
0.0159128277306712
 70
     1
  0
VERTEX
  5
101B9
  8
0
 10
395.10133563597788
 20
159.08456700169631
 30
0.0
 42
0.0182279734404773
  0
VERTEX
  5
101BA
  8
0
 10
395.21214676857971
 20
159.04081623577611
 30
0.0
 42
0.0216499029444778
 70
     1
  0
VERTEX
  5
101BB
  8
0
 10
395.3080943093251
 20
159.01152572318821
 30
0.0
 42
0.0108522536521145
  0
VERTEX
  5
101BC
  8
0
 10
395.34274010189893
 20
159.00336634781601
 30
0.0
 42
0.002165042513229
 70
     1
  0
VERTEX
  5
101BD
  8
0
 10
395.51738781733229
 20
158.9670060834512
 30
0.0
 42
0.0153504670368063
  0
VERTEX
  5
101BE
  8
0
 10
395.58583476178518
 20
158.95524039466619
 30
0.0
 42
0.0083849053412877
 70
     1
  0
VERTEX
  5
101BF
  8
0
 10
395.71200244633718
 20
158.939673335451
 30
0.0
  0
SEQEND
  5
101C0
  8
0
  0
CIRCLE
  5
101E3
  8
3
 10
217.88343533465221
 20
282.5944273658173
 30
0.0
 40
2.5
  0
CIRCLE
  5
101E4
  8
0
 10
217.88343533465221
 20
282.5944273658173
 30
0.0
 40
2.0669999999999988
  0
CIRCLE
  5
101E5
  8
3
 10
230.88343533465221
 20
282.5944273658173
 30
0.0
 40
2.5
  0
CIRCLE
  5
101E6
  8
0
 10
230.88343533465221
 20
282.5944273658173
 30
0.0
 40
2.0669999999999988
  0
CIRCLE
  5
101E7
  8
3
 10
230.88343533465221
 20
266.5944273658173
 30
0.0
 40
2.5
  0
CIRCLE
  5
101E8
  8
0
 10
230.88343533465221
 20
266.5944273658173
 30
0.0
 40
2.0669999999999988
  0
CIRCLE
  5
101E9
  8
3
 10
217.88343533465221
 20
266.5944273658173
 30
0.0
 40
2.5
  0
CIRCLE
  5
101EA
  8
0
 10
217.88343533465221
 20
266.5944273658173
 30
0.0
 40
2.0669999999999988
  0
CIRCLE
  5
101F3
  8
0
 10
217.88343533465221
 20
32.583287383586139
 30
0.0
 40
2.0669999999999988
  0
CIRCLE
  5
101F4
  8
3
 10
217.88343533465221
 20
32.583287383586139
 30
0.0
 40
2.5
  0
CIRCLE
  5
101F5
  8
0
 10
230.88343533465221
 20
32.583287383586139
 30
0.0
 40
2.0669999999999988
  0
CIRCLE
  5
101F6
  8
3
 10
230.88343533465221
 20
32.583287383586139
 30
0.0
 40
2.5
  0
CIRCLE
  5
101F7
  8
0
 10
230.88343533465221
 20
48.583287383586139
 30
0.0
 40
2.0669999999999988
  0
CIRCLE
  5
101F8
  8
3
 10
230.88343533465221
 20
48.583287383586139
 30
0.0
 40
2.5
  0
CIRCLE
  5
101F9
  8
0
 10
217.88343533465221
 20
48.583287383586139
 30
0.0
 40
2.0669999999999988
  0
CIRCLE
  5
101FA
  8
3
 10
217.88343533465221
 20
48.583287383586139
 30
0.0
 40
2.5
  0
LINE
  5
101FB
  8
1
 10
282.7496611629017
 20
274.5944273658173
 30
0.0
 11
187.8834348280127
 21
274.5944273658173
 31
0.0
  0
LINE
  5
101FC
  8
1
 10
224.38343533465221
 20
22.583287115365241
 30
0.0
 11
224.38343533465221
 21
58.583287651807069
 31
0.0
  0
LINE
  5
101FD
  8
1
 10
282.74966116290148
 20
40.583287383586153
 30
0.0
 11
187.8834348280127
 21
40.583287383586153
 31
0.0
  0
LINE
  5
102E5
  8
1
 10
250.88343584129191
 20
162.1855890873552
 30
0.0
 11
282.01478743144821
 21
162.1855890873552
 31
0.0
  0
LINE
  5
102E6
  8
1
 10
334.16399774814801
 20
162.1855890873552
 30
0.0
 11
413.57793080194159
 21
162.1855890873552
 31
0.0
  0
LINE
  5
102E7
  8
1
 10
224.38343533465221
 20
153.48558885340699
 30
0.0
 11
224.38343533465221
 21
174.98558887575871
 31
0.0
  0
LINE
  5
102E8
  8
1
 10
224.38343533465221
 20
256.59442709759639
 30
0.0
 11
224.38343533465221
 21
292.5944276340382
 31
0.0
  0
LINE
  5
102ED
  8
1
 10
122.44874071213729
 20
162.1855890873552
 30
0.0
 11
62.034808060855653
 21
162.1855890873552
 31
0.0
  0
LINE
  5
1030E
  8
1
 10
54.034807792634638
 20
174.98558887575871
 30
0.0
 11
54.034807792634638
 21
142.985588994968
 31
0.0
  0
LINE
  5
1030F
  8
1
 10
36.034807524413743
 20
158.98558887575871
 30
0.0
 11
72.034808060855539
 21
158.98558887575871
 31
0.0
  0
LINE
  5
10314
  8
1
 10
402.57793086154618
 20
174.98558887575871
 30
0.0
 11
402.57793086154618
 21
142.985588994968
 31
0.0
  0
LINE
  5
1032E
  8
1
 10
268.8334352631266
 20
286.0944273658173
 30
0.0
 11
268.8334352631266
 21
263.09442736581718
 31
0.0
  0
LINE
  5
1032F
  8
1
 10
223.38343533465221
 20
282.5944273658173
 30
0.0
 11
212.38343533465221
 21
282.5944273658173
 31
0.0
  0
LINE
  5
10330
  8
1
 10
217.88343533465221
 20
288.0944273658173
 30
0.0
 11
217.88343533465221
 21
277.0944273658173
 31
0.0
  0
LINE
  5
10332
  8
1
 10
230.88343533465221
 20
288.0944273658173
 30
0.0
 11
230.88343533465221
 21
277.0944273658173
 31
0.0
  0
LINE
  5
10333
  8
1
 10
236.38343533465221
 20
282.5944273658173
 30
0.0
 11
225.38343533465221
 21
282.5944273658173
 31
0.0
  0
LINE
  5
10334
  8
1
 10
230.88343533465221
 20
272.0944273658173
 30
0.0
 11
230.88343533465221
 21
261.0944273658173
 31
0.0
  0
LINE
  5
10335
  8
1
 10
236.38343533465221
 20
266.5944273658173
 30
0.0
 11
225.38343533465221
 21
266.5944273658173
 31
0.0
  0
LINE
  5
10336
  8
1
 10
217.88343533465221
 20
272.0944273658173
 30
0.0
 11
217.88343533465221
 21
261.0944273658173
 31
0.0
  0
LINE
  5
10337
  8
1
 10
223.38343533465221
 20
266.5944273658173
 30
0.0
 11
212.38343533465221
 21
266.5944273658173
 31
0.0
  0
LINE
  5
10339
  8
1
 10
268.8334352631266
 20
52.083287383586082
 30
0.0
 11
268.8334352631266
 21
29.083287383586079
 31
0.0
  0
LINE
  5
1033A
  8
1
 10
236.38343533465221
 20
48.583287383586139
 30
0.0
 11
225.38343533465221
 21
48.583287383586139
 31
0.0
  0
LINE
  5
1033B
  8
1
 10
230.88343533465221
 20
54.083287383586139
 30
0.0
 11
230.88343533465221
 21
43.083287383586132
 31
0.0
  0
LINE
  5
1033C
  8
1
 10
236.38343533465221
 20
32.583287383586139
 30
0.0
 11
225.38343533465221
 21
32.583287383586139
 31
0.0
  0
LINE
  5
1033D
  8
1
 10
230.88343533465221
 20
38.083287383586139
 30
0.0
 11
230.88343533465221
 21
27.083287383586139
 31
0.0
  0
LINE
  5
1033E
  8
1
 10
223.38343533465221
 20
32.583287383586139
 30
0.0
 11
212.38343533465221
 21
32.583287383586139
 31
0.0
  0
LINE
  5
1033F
  8
1
 10
217.88343533465221
 20
38.083287383586139
 30
0.0
 11
217.88343533465221
 21
27.083287383586139
 31
0.0
  0
LINE
  5
10340
  8
1
 10
217.88343533465221
 20
54.083287383586139
 30
0.0
 11
217.88343533465221
 21
43.083287383586132
 31
0.0
  0
LINE
  5
10341
  8
1
 10
223.38343533465221
 20
48.583287383586139
 30
0.0
 11
212.38343533465221
 21
48.583287383586139
 31
0.0
  0
TEXT
  5
1075D
  8
0
 62
     3
 10
0.0
 20
0.0
 30
0.0
 40
10.0
  1
LSM-20
  7
STANDARD1
  0
ENDSEC
  0
EOF
