  0
SECTION
  2
HEADER
  9
$ACADVER
  1
AC1009
  9
$INSBASE
 10
0.0
 20
0.0
 30
0.0
  9
$EXTMIN
 10
0.0
 20
-2.960436562073669
 30
0.0
  9
$EXTMAX
 10
148.6066010075694
 20
141.595493300821
 30
0.0
  9
$LIMMIN
 10
0.0
 20
0.0
  9
$LIMMAX
 10
187.5
 20
135.0
  9
$ORTHOMODE
 70
     1
  9
$REGENMODE
 70
     1
  9
$FILLMODE
 70
     1
  9
$QTEXTMODE
 70
     0
  9
$MIRRTEXT
 70
     0
  9
$DRAGMODE
 70
     2
  9
$LTSCALE
 40
5.0
  9
$OSMODE
 70
  3071
  9
$ATTMODE
 70
     1
  9
$TEXTSIZE
 40
0.06
  9
$TRACEWID
 40
0.05
  9
$TEXTSTYLE
  7
STANDARD
  9
$CLAYER
  8
0
  9
$CELTYPE
  6
BYLAYER
  9
$CECOLOR
 62
   256
  9
$DIMSCALE
 40
0.5
  9
$DIMASZ
 40
3.0
  9
$DIMEXO
 40
2.0
  9
$DIMDLI
 40
10.0
  9
$DIMRND
 40
0.0
  9
$DIMDLE
 40
0.0
  9
$DIMEXE
 40
2.0
  9
$DIMTP
 40
0.0
  9
$DIMTM
 40
0.0
  9
$DIMTXT
 40
3.0
  9
$DIMCEN
 40
0.0
  9
$DIMTSZ
 40
0.0
  9
$DIMTOL
 70
     0
  9
$DIMLIM
 70
     0
  9
$DIMTIH
 70
     0
  9
$DIMTOH
 70
     0
  9
$DIMSE1
 70
     0
  9
$DIMSE2
 70
     0
  9
$DIMTAD
 70
     1
  9
$DIMZIN
 70
     8
  9
$DIMBLK
  1

  9
$DIMASO
 70
     0
  9
$DIMSHO
 70
     0
  9
$DIMPOST
  1

  9
$DIMAPOST
  1

  9
$DIMALT
 70
     0
  9
$DIMALTD
 70
     2
  9
$DIMALTF
 40
25.399999999999999
  9
$DIMLFAC
 40
1.0
  9
$DIMTOFL
 70
     1
  9
$DIMTVP
 40
1.6000000000000001
  9
$DIMTIX
 70
     1
  9
$DIMSOXD
 70
     0
  9
$DIMSAH
 70
     0
  9
$DIMBLK1
  1

  9
$DIMBLK2
  1

  9
$DIMSTYLE
  2
STANDARD
  9
$DIMCLRD
 70
     0
  9
$DIMCLRE
 70
     0
  9
$DIMCLRT
 70
     0
  9
$DIMTFAC
 40
1.0
  9
$DIMGAP
 40
0.09
  9
$LUNITS
 70
     2
  9
$LUPREC
 70
     4
  9
$SKETCHINC
 40
0.1
  9
$FILLETRAD
 40
0.4
  9
$AUNITS
 70
     0
  9
$AUPREC
 70
     4
  9
$MENU
  1
E:\r13\win\SUPPORT\ACAD
  9
$ELEVATION
 40
0.0
  9
$PELEVATION
 40
0.0
  9
$THICKNESS
 40
0.0
  9
$LIMCHECK
 70
     0
  9
$BLIPMODE
 70
     0
  9
$CHAMFERA
 40
0.0
  9
$CHAMFERB
 40
0.0
  9
$SKPOLY
 70
     0
  9
$TDCREATE
 40
2449840.5914699072
  9
$TDUPDATE
 40
2456597.608340452
  9
$TDINDWG
 40
0.4384266204
  9
$TDUSRTIMER
 40
0.4384266204
  9
$USRTIMER
 70
     1
  9
$ANGBASE
 50
0.0
  9
$ANGDIR
 70
     0
  9
$PDMODE
 70
     0
  9
$PDSIZE
 40
0.0
  9
$PLINEWID
 40
0.0
  9
$COORDS
 70
     1
  9
$SPLFRAME
 70
     0
  9
$SPLINETYPE
 70
     6
  9
$SPLINESEGS
 70
     8
  9
$ATTDIA
 70
     0
  9
$ATTREQ
 70
     1
  9
$HANDLING
 70
     1
  9
$HANDSEED
  5
1C76
  9
$SURFTAB1
 70
     6
  9
$SURFTAB2
 70
     6
  9
$SURFTYPE
 70
     6
  9
$SURFU
 70
     6
  9
$SURFV
 70
     6
  9
$UCSNAME
  2

  9
$UCSORG
 10
0.0
 20
0.0
 30
0.0
  9
$UCSXDIR
 10
1.0
 20
0.0
 30
0.0
  9
$UCSYDIR
 10
0.0
 20
1.0
 30
0.0
  9
$PUCSNAME
  2

  9
$PUCSORG
 10
0.0
 20
0.0
 30
0.0
  9
$PUCSXDIR
 10
1.0
 20
0.0
 30
0.0
  9
$PUCSYDIR
 10
0.0
 20
1.0
 30
0.0
  9
$USERI1
 70
     3
  9
$USERI2
 70
     1
  9
$USERI3
 70
     0
  9
$USERI4
 70
     0
  9
$USERI5
 70
     0
  9
$USERR1
 40
0.5
  9
$USERR2
 40
3.0
  9
$USERR3
 40
3.0
  9
$USERR4
 40
3.0
  9
$USERR5
 40
10.0
  9
$WORLDVIEW
 70
     1
  9
$SHADEDGE
 70
     3
  9
$SHADEDIF
 70
    70
  9
$TILEMODE
 70
     1
  9
$MAXACTVP
 70
    16
  9
$PLIMCHECK
 70
     0
  9
$PEXTMIN
 10
1.0000000000000000E+020
 20
1.0000000000000000E+020
 30
1.0000000000000000E+020
  9
$PEXTMAX
 10
-1.0000000000000000E+020
 20
-1.0000000000000000E+020
 30
-1.0000000000000000E+020
  9
$PLIMMIN
 10
0.0
 20
0.0
  9
$PLIMMAX
 10
12.0
 20
9.0
  9
$UNITMODE
 70
     0
  9
$VISRETAIN
 70
     0
  9
$PLINEGEN
 70
     0
  9
$PSLTSCALE
 70
     0
  0
ENDSEC
  0
SECTION
  2
TABLES
  0
TABLE
  2
VPORT
 70
     1
  0
VPORT
  2
*ACTIVE
 70
     0
 10
0.0
 20
0.0
 11
1.0
 21
1.0
 12
93.747139195326156
 22
69.630705788226237
 13
0.0
 23
0.0
 14
5.0
 24
5.0
 15
10.0
 25
10.0
 16
0.0
 26
0.0
 36
1.0
 17
0.0
 27
0.0
 37
0.0
 40
146.8516874240787
 41
2.304913294797688
 42
50.0
 43
0.0
 44
0.0
 50
0.0
 51
0.0
 71
     0
 72
   100
 73
     1
 74
     0
 75
     0
 76
     0
 77
     0
 78
     0
  0
ENDTAB
  0
TABLE
  2
LTYPE
 70
     3
  0
LTYPE
  2
CONTINUOUS
 70
     0
  3
Solid Line
 72
    65
 73
     0
 40
0.0
  0
LTYPE
  2
CENTER
 70
     0
  3
____ _ ____ _ ____ _ ____ _ ____ _ ____ _ ____
 72
    65
 73
     4
 40
2.0
 49
1.25
 49
-0.25
 49
0.25
 49
-0.25
  0
LTYPE
  2
PHANTOM2
 70
     0
  3
___ _ _ ___ _ _ ___ _ _ ___ _ _
 72
    65
 73
     6
 40
1.25
 49
0.625
 49
-0.125
 49
0.125
 49
-0.125
 49
0.125
 49
-0.125
  0
ENDTAB
  0
TABLE
  2
LAYER
 70
     3
  0
LAYER
  2
0
 70
     0
 62
     7
  6
CONTINUOUS
  0
LAYER
  2
1
 70
     0
 62
     1
  6
CENTER
  0
LAYER
  2
3
 70
     0
 62
     3
  6
CONTINUOUS
  0
ENDTAB
  0
TABLE
  2
STYLE
 70
     2
  0
STYLE
  2
STANDARD
 70
     0
 40
0.0
 41
1.0
 50
0.0
 71
     0
 42
0.06
  3
TXT
  4
BIGFONT
  0
STYLE
  2
STANDARD1
 70
     0
 40
0.0
 41
1.0
 50
0.0
 71
     0
 42
3.0
  3
txt
  4

  0
ENDTAB
  0
TABLE
  2
VIEW
 70
     2
  0
VIEW
  2
OLE1
 70
     0
 40
24.514257897662329
 10
44.901529473115893
 20
103.25177669290009
 41
34.172454060781448
 11
0.0
 21
0.0
 31
1.0
 12
0.0
 22
0.0
 32
0.0
 42
50.0
 43
0.0
 44
0.0
 50
0.0
 71
     0
  0
VIEW
  2
OLE2
 70
     0
 40
111.8251716252055
 10
23.153306359535989
 20
84.753742215946431
 41
155.8823667497492
 11
0.0
 21
0.0
 31
1.0
 12
0.0
 22
0.0
 32
0.0
 42
50.0
 43
0.0
 44
0.0
 50
0.0
 71
     0
  0
ENDTAB
  0
TABLE
  2
UCS
 70
     0
  0
ENDTAB
  0
TABLE
  2
APPID
 70
     4
  0
APPID
  2
ACAD
 70
     0
  0
APPID
  2
GENIUS_GENFIL_13
 70
     0
  0
APPID
  2
ACAD_MLEADERVER
 70
     0
  0
APPID
  2
ACAD_NAV_VCDISPLAY
 70
     0
  0
ENDTAB
  0
TABLE
  2
DIMSTYLE
 70
     1
  0
DIMSTYLE
  2
STANDARD
 70
     0
  3

  4

  5

  6

  7

 40
1.0
 41
0.18
 42
0.0625
 43
0.38
 44
0.18
 45
0.0
 46
0.0
 47
0.0
 48
0.0
140
0.18
141
0.09
142
0.0
143
25.399999999999999
144
1.0
145
0.0
146
1.0
147
0.09
 71
     0
 72
     0
 73
     1
 74
     1
 75
     0
 76
     0
 77
     0
 78
     0
170
     0
171
     2
172
     0
173
     0
174
     0
175
     0
176
     0
177
     0
178
     0
  0
ENDTAB
  0
ENDSEC
  0
SECTION
  2
BLOCKS
  0
BLOCK
  8
0
  2
$MODEL_SPACE
 70
     0
 10
0.0
 20
0.0
 30
0.0
  3
$MODEL_SPACE
  1

  0
ENDBLK
  5
E6
  8
0
  0
BLOCK
 67
     1
  8
0
  2
$PAPER_SPACE
 70
     0
 10
0.0
 20
0.0
 30
0.0
  3
$PAPER_SPACE
  1

  0
ENDBLK
  5
E4
 67
     1
  8
0
  0
ENDSEC
  0
SECTION
  2
ENTITIES
  0
LINE
  5
15FF
  8
0
 10
100.2469431956894
 20
67.424034124165644
 30
0.0
 11
60.246943195689482
 21
67.424034124165644
 31
0.0
  0
LINE
  5
160A
  8
0
 10
73.246943195689482
 20
60.324034124165649
 30
0.0
 11
87.246943195689482
 21
60.324034124165649
 31
0.0
  0
LINE
  5
160C
  8
0
 10
74.646943195689516
 20
59.924034124165637
 30
0.0
 11
85.846943195689505
 21
59.924034124165637
 31
0.0
  0
LINE
  5
1627
  8
0
 10
60.597554196534134
 20
77.464219548129392
 30
0.0
 11
60.246943195689482
 21
67.424034124165615
 31
0.0
  0
LINE
  5
1628
  8
0
 10
100.2469431956894
 20
67.424034124165644
 30
0.0
 11
99.896332194844874
 21
77.464219548129392
 31
0.0
  0
LINE
  5
1631
  8
0
 10
87.246943195689482
 20
60.324034124165649
 30
0.0
 11
87.246943195689482
 21
67.424034124165644
 31
0.0
  0
LINE
  5
1632
  8
0
 10
73.246943195689482
 20
67.424034124165644
 30
0.0
 11
73.246943195689482
 21
60.324034124165649
 31
0.0
  0
LINE
  5
1633
  8
0
 10
85.846943195689505
 20
59.924034124165637
 30
0.0
 11
85.846943195689505
 21
60.324034124165649
 31
0.0
  0
LINE
  5
1634
  8
0
 10
74.646943195689516
 20
60.324034124165649
 30
0.0
 11
74.646943195689516
 21
59.924034124165637
 31
0.0
  0
ARC
  5
1638
  8
0
 10
96.148616593523172
 20
77.333346435495017
 30
0.0
 40
3.7500000000000462
 50
1.9999999999987621
 51
66.271219097091631
  0
ARC
  5
1639
  8
0
 10
80.246943195689497
 20
41.15770759355275
 30
0.0
 40
43.266326530612858
 50
66.271219097092484
 51
113.7287809029075
  0
ARC
  5
163A
  8
0
 10
64.345269797855764
 20
77.333346435495017
 30
0.0
 40
3.7500000000000271
 50
113.7287809029083
 51
178.00000000000119
  0
LINE
  5
164A
  8
0
 10
148.6066010075694
 20
67.424034124165644
 30
0.0
 11
133.10660100756951
 21
67.424034124165644
 31
0.0
  0
LINE
  5
1654
  8
0
 10
133.85660100756951
 20
60.324034124165621
 30
0.0
 11
147.8566010075694
 21
60.324034124165621
 31
0.0
  0
LINE
  5
1657
  8
0
 10
135.2566010075694
 20
59.924034124165637
 30
0.0
 11
146.45660100756939
 21
59.924034124165637
 31
0.0
  0
LINE
  5
166F
  8
0
 10
148.6066010075694
 20
67.424034124165644
 30
0.0
 11
148.6066010075694
 21
83.724273246111807
 31
0.0
  0
LINE
  5
1676
  8
0
 10
147.8566010075694
 20
60.324034124165621
 30
0.0
 11
147.8566010075694
 21
67.424034124165644
 31
0.0
  0
LINE
  5
1677
  8
0
 10
133.85660100756951
 20
67.424034124165644
 30
0.0
 11
133.85660100756951
 21
60.324034124165621
 31
0.0
  0
LINE
  5
1678
  8
0
 10
146.45660100756939
 20
59.924034124165637
 30
0.0
 11
146.45660100756939
 21
60.324034124165621
 31
0.0
  0
LINE
  5
1679
  8
0
 10
135.2566010075694
 20
60.324034124165621
 30
0.0
 11
135.2566010075694
 21
59.924034124165637
 31
0.0
  0
LINE
  5
167A
  8
0
 10
133.10660100756951
 20
83.724273246111807
 30
0.0
 11
133.10660100756951
 21
67.424034124165644
 31
0.0
  0
ARC
  5
167B
  8
0
 10
140.8566010075694
 20
41.157707593552871
 30
0.0
 40
43.266326530612723
 50
79.681310990802345
 51
100.3186890091976
  0
LINE
  5
178F
  8
1
 10
80.246943195689454
 20
31.794901470552251
 30
0.0
 11
80.246943195689497
 21
87.553166777779026
 31
0.0
  0
LINE
  5
17A6
  8
1
 10
103.37592673362769
 20
130.71636064720761
 30
0.0
 11
57.117959657751257
 21
130.71636064720761
 31
0.0
  0
LINE
  5
17A7
  8
1
 10
80.246943195689497
 20
119.8372279935942
 30
0.0
 11
80.246943195689497
 21
141.595493300821
 31
0.0
  0
LINE
  5
17C5
  8
1
 10
140.8566010075694
 20
31.794901470552251
 30
0.0
 11
140.8566010075694
 21
87.553166777779026
 31
0.0
  0
ARC
  5
19AE
  8
0
 10
80.246943195689497
 20
103.1082961310786
 30
0.0
 40
35.358064516128998
 50
58.152422056572533
 51
121.8475781107184
  0
ARC
  5
19AF
  8
0
 10
97.396423723006194
 20
130.71636064720761
 30
0.0
 40
2.8571428571428101
 50
4.2143927774807777
 51
58.152421889281541
  0
ARC
  5
19B0
  8
0
 10
80.246943195654396
 20
130.71636064720761
 30
0.0
 40
20.00000000003509
 50
359.39847558041339
 51
0.601524419586618
  0
ARC
  5
19B1
  8
0
 10
97.396423723006194
 20
130.71636064720761
 30
0.0
 40
2.8571428571428101
 50
301.84757811071847
 51
355.78560722251922
  0
ARC
  5
19B2
  8
0
 10
80.246943195689497
 20
158.3244251633366
 30
0.0
 40
35.358064516128998
 50
238.1524218892815
 51
301.84757794342761
  0
ARC
  5
19B3
  8
0
 10
63.097462668372792
 20
130.71636064720761
 30
0.0
 40
2.8571428571428101
 50
184.21439277748081
 51
238.1524218892815
  0
ARC
  5
19B4
  8
0
 10
80.246943195724583
 20
130.71636064720761
 30
0.0
 40
20.00000000003509
 50
179.39847558041339
 51
180.60152441958661
  0
ARC
  5
19B5
  8
0
 10
63.097462668372792
 20
130.71636064720761
 30
0.0
 40
2.8571428571428101
 50
121.8475781107184
 51
175.78560722251919
  0
LINE
  5
1B03
  8
3
 10
76.923443195689345
 20
57.424034124165637
 30
0.0
 11
76.246943195689482
 21
58.595766495485748
 31
0.0
  0
LINE
  5
1B04
  8
3
 10
83.570443195689563
 20
57.424034124165637
 30
0.0
 11
84.246943195689454
 21
58.595766495485748
 31
0.0
  0
LINE
  5
1B05
  8
0
 10
84.246943195689454
 20
57.424034124165608
 30
0.0
 11
76.246943195689425
 21
57.424034124165701
 31
0.0
  0
LINE
  5
1B06
  8
0
 10
84.246943195689454
 20
36.124034124165597
 30
0.0
 11
76.246943195689425
 21
36.124034124165661
 31
0.0
  0
LINE
  5
1B07
  8
0
 10
77.446943195689443
 20
34.924034124165672
 30
0.0
 11
76.246943195689425
 21
36.124034124165661
 31
0.0
  0
LINE
  5
1B08
  8
0
 10
84.246943195689425
 20
36.124034124165597
 30
0.0
 11
83.046943195689437
 21
34.924034124165622
 31
0.0
  0
LINE
  5
1B09
  8
0
 10
84.246943195689454
 20
59.924034124165608
 30
0.0
 11
84.246943195689425
 21
36.124034124165597
 31
0.0
  0
LINE
  5
1B0A
  8
3
 10
83.570443195689563
 20
57.424034124165637
 30
0.0
 11
83.570443195689535
 21
35.447534124165742
 31
0.0
  0
LINE
  5
1B0B
  8
3
 10
76.923443195689345
 20
57.424034124165701
 30
0.0
 11
76.923443195689345
 21
35.447534124165799
 31
0.0
  0
LINE
  5
1B0C
  8
0
 10
76.246943195689454
 20
59.924034124165658
 30
0.0
 11
76.246943195689425
 21
36.124034124165661
 31
0.0
  0
LINE
  5
1B0D
  8
0
 10
83.046943195689437
 20
34.924034124165622
 30
0.0
 11
77.446943195689443
 21
34.924034124165672
 31
0.0
  0
LINE
  5
1B4F
  8
3
 10
137.53310100756929
 20
57.424034124165637
 30
0.0
 11
136.8566010075694
 21
58.595766495485748
 31
0.0
  0
LINE
  5
1B50
  8
3
 10
144.1801010075695
 20
57.424034124165637
 30
0.0
 11
144.8566010075694
 21
58.595766495485748
 31
0.0
  0
LINE
  5
1B51
  8
0
 10
144.8566010075694
 20
57.424034124165608
 30
0.0
 11
136.8566010075694
 21
57.424034124165701
 31
0.0
  0
LINE
  5
1B52
  8
0
 10
144.8566010075694
 20
36.124034124165597
 30
0.0
 11
136.8566010075694
 21
36.124034124165661
 31
0.0
  0
LINE
  5
1B53
  8
0
 10
138.05660100756941
 20
34.924034124165672
 30
0.0
 11
136.8566010075694
 21
36.124034124165661
 31
0.0
  0
LINE
  5
1B54
  8
0
 10
144.85660100756931
 20
36.124034124165597
 30
0.0
 11
143.65660100756941
 21
34.924034124165622
 31
0.0
  0
LINE
  5
1B55
  8
0
 10
144.8566010075694
 20
59.924034124165608
 30
0.0
 11
144.85660100756931
 21
36.124034124165597
 31
0.0
  0
LINE
  5
1B56
  8
3
 10
144.1801010075695
 20
57.424034124165637
 30
0.0
 11
144.1801010075695
 21
35.447534124165742
 31
0.0
  0
LINE
  5
1B57
  8
3
 10
137.53310100756929
 20
57.424034124165701
 30
0.0
 11
137.53310100756929
 21
35.447534124165799
 31
0.0
  0
LINE
  5
1B58
  8
0
 10
136.8566010075694
 20
59.924034124165658
 30
0.0
 11
136.8566010075694
 21
36.124034124165661
 31
0.0
  0
LINE
  5
1B59
  8
0
 10
143.65660100756941
 20
34.924034124165622
 30
0.0
 11
138.05660100756941
 21
34.924034124165672
 31
0.0
  0
TEXT
  5
1C0D
  8
0
 62
     3
 10
0.0
 20
0.0
 30
0.0
 40
10.0
  1
LSH8X25B
  7
STANDARD1
  0
ENDSEC
  0
EOF
