  0
SECTION
  2
HEADER
  9
$ACADVER
  1
AC1009
  9
$INSBASE
 10
0.0
 20
0.0
 30
0.0
  9
$EXTMIN
 10
0.0
 20
-2.960436562073669
 30
0.0
  9
$EXTMAX
 10
127.65503532384091
 20
117.3755411426712
 30
0.0
  9
$LIMMIN
 10
0.0
 20
0.0
  9
$LIMMAX
 10
187.5
 20
135.0
  9
$ORTHOMODE
 70
     1
  9
$REGENMODE
 70
     1
  9
$FILLMODE
 70
     1
  9
$QTEXTMODE
 70
     0
  9
$MIRRTEXT
 70
     0
  9
$DRAGMODE
 70
     2
  9
$LTSCALE
 40
5.0
  9
$OSMODE
 70
  3071
  9
$ATTMODE
 70
     1
  9
$TEXTSIZE
 40
0.06
  9
$TRACEWID
 40
0.05
  9
$TEXTSTYLE
  7
STANDARD
  9
$CLAYER
  8
0
  9
$CELTYPE
  6
BYLAYER
  9
$CECOLOR
 62
   256
  9
$DIMSCALE
 40
0.5
  9
$DIMASZ
 40
3.0
  9
$DIMEXO
 40
2.0
  9
$DIMDLI
 40
10.0
  9
$DIMRND
 40
0.0
  9
$DIMDLE
 40
0.0
  9
$DIMEXE
 40
2.0
  9
$DIMTP
 40
0.0
  9
$DIMTM
 40
0.0
  9
$DIMTXT
 40
3.0
  9
$DIMCEN
 40
0.0
  9
$DIMTSZ
 40
0.0
  9
$DIMTOL
 70
     0
  9
$DIMLIM
 70
     0
  9
$DIMTIH
 70
     0
  9
$DIMTOH
 70
     0
  9
$DIMSE1
 70
     0
  9
$DIMSE2
 70
     0
  9
$DIMTAD
 70
     1
  9
$DIMZIN
 70
     8
  9
$DIMBLK
  1

  9
$DIMASO
 70
     0
  9
$DIMSHO
 70
     0
  9
$DIMPOST
  1

  9
$DIMAPOST
  1

  9
$DIMALT
 70
     0
  9
$DIMALTD
 70
     2
  9
$DIMALTF
 40
25.399999999999999
  9
$DIMLFAC
 40
1.0
  9
$DIMTOFL
 70
     1
  9
$DIMTVP
 40
1.6000000000000001
  9
$DIMTIX
 70
     1
  9
$DIMSOXD
 70
     0
  9
$DIMSAH
 70
     0
  9
$DIMBLK1
  1

  9
$DIMBLK2
  1

  9
$DIMSTYLE
  2
STANDARD
  9
$DIMCLRD
 70
     0
  9
$DIMCLRE
 70
     0
  9
$DIMCLRT
 70
     0
  9
$DIMTFAC
 40
1.0
  9
$DIMGAP
 40
0.09
  9
$LUNITS
 70
     2
  9
$LUPREC
 70
     4
  9
$SKETCHINC
 40
0.1
  9
$FILLETRAD
 40
0.4
  9
$AUNITS
 70
     0
  9
$AUPREC
 70
     4
  9
$MENU
  1
E:\r13\win\SUPPORT\ACAD
  9
$ELEVATION
 40
0.0
  9
$PELEVATION
 40
0.0
  9
$THICKNESS
 40
0.0
  9
$LIMCHECK
 70
     0
  9
$BLIPMODE
 70
     0
  9
$CHAMFERA
 40
0.0
  9
$CHAMFERB
 40
0.0
  9
$SKPOLY
 70
     0
  9
$TDCREATE
 40
2449840.5914699072
  9
$TDUPDATE
 40
2456597.6083158911
  9
$TDINDWG
 40
0.4106884491
  9
$TDUSRTIMER
 40
0.4106884491
  9
$USRTIMER
 70
     1
  9
$ANGBASE
 50
0.0
  9
$ANGDIR
 70
     0
  9
$PDMODE
 70
     0
  9
$PDSIZE
 40
0.0
  9
$PLINEWID
 40
0.0
  9
$COORDS
 70
     1
  9
$SPLFRAME
 70
     0
  9
$SPLINETYPE
 70
     6
  9
$SPLINESEGS
 70
     8
  9
$ATTDIA
 70
     0
  9
$ATTREQ
 70
     1
  9
$HANDLING
 70
     1
  9
$HANDSEED
  5
1A88
  9
$SURFTAB1
 70
     6
  9
$SURFTAB2
 70
     6
  9
$SURFTYPE
 70
     6
  9
$SURFU
 70
     6
  9
$SURFV
 70
     6
  9
$UCSNAME
  2

  9
$UCSORG
 10
0.0
 20
0.0
 30
0.0
  9
$UCSXDIR
 10
1.0
 20
0.0
 30
0.0
  9
$UCSYDIR
 10
0.0
 20
1.0
 30
0.0
  9
$PUCSNAME
  2

  9
$PUCSORG
 10
0.0
 20
0.0
 30
0.0
  9
$PUCSXDIR
 10
1.0
 20
0.0
 30
0.0
  9
$PUCSYDIR
 10
0.0
 20
1.0
 30
0.0
  9
$USERI1
 70
     3
  9
$USERI2
 70
     1
  9
$USERI3
 70
     0
  9
$USERI4
 70
     0
  9
$USERI5
 70
     0
  9
$USERR1
 40
0.5
  9
$USERR2
 40
3.0
  9
$USERR3
 40
3.0
  9
$USERR4
 40
3.0
  9
$USERR5
 40
10.0
  9
$WORLDVIEW
 70
     1
  9
$SHADEDGE
 70
     3
  9
$SHADEDIF
 70
    70
  9
$TILEMODE
 70
     1
  9
$MAXACTVP
 70
    16
  9
$PLIMCHECK
 70
     0
  9
$PEXTMIN
 10
1.0000000000000000E+020
 20
1.0000000000000000E+020
 30
1.0000000000000000E+020
  9
$PEXTMAX
 10
-1.0000000000000000E+020
 20
-1.0000000000000000E+020
 30
-1.0000000000000000E+020
  9
$PLIMMIN
 10
0.0
 20
0.0
  9
$PLIMMAX
 10
12.0
 20
9.0
  9
$UNITMODE
 70
     0
  9
$VISRETAIN
 70
     0
  9
$PLINEGEN
 70
     0
  9
$PSLTSCALE
 70
     0
  0
ENDSEC
  0
SECTION
  2
TABLES
  0
TABLE
  2
VPORT
 70
     1
  0
VPORT
  2
*ACTIVE
 70
     0
 10
0.0
 20
0.0
 11
1.0
 21
1.0
 12
93.74713919532617
 22
66.313465060797697
 13
0.0
 23
0.0
 14
5.0
 24
5.0
 15
10.0
 25
10.0
 16
0.0
 26
0.0
 36
1.0
 17
0.0
 27
0.0
 37
0.0
 40
140.15365342376049
 41
2.304913294797688
 42
50.0
 43
0.0
 44
0.0
 50
0.0
 51
0.0
 71
     0
 72
   100
 73
     1
 74
     0
 75
     0
 76
     0
 77
     0
 78
     0
  0
ENDTAB
  0
TABLE
  2
LTYPE
 70
     3
  0
LTYPE
  2
CONTINUOUS
 70
     0
  3
Solid Line
 72
    65
 73
     0
 40
0.0
  0
LTYPE
  2
CENTER
 70
     0
  3
____ _ ____ _ ____ _ ____ _ ____ _ ____ _ ____
 72
    65
 73
     4
 40
2.0
 49
1.25
 49
-0.25
 49
0.25
 49
-0.25
  0
LTYPE
  2
PHANTOM2
 70
     0
  3
___ _ _ ___ _ _ ___ _ _ ___ _ _
 72
    65
 73
     6
 40
1.25
 49
0.625
 49
-0.125
 49
0.125
 49
-0.125
 49
0.125
 49
-0.125
  0
ENDTAB
  0
TABLE
  2
LAYER
 70
     3
  0
LAYER
  2
0
 70
     0
 62
     7
  6
CONTINUOUS
  0
LAYER
  2
1
 70
     0
 62
     1
  6
CENTER
  0
LAYER
  2
3
 70
     0
 62
     3
  6
CONTINUOUS
  0
ENDTAB
  0
TABLE
  2
STYLE
 70
     2
  0
STYLE
  2
STANDARD
 70
     0
 40
0.0
 41
1.0
 50
0.0
 71
     0
 42
0.06
  3
TXT
  4
BIGFONT
  0
STYLE
  2
STANDARD1
 70
     0
 40
0.0
 41
1.0
 50
0.0
 71
     0
 42
3.0
  3
txt
  4

  0
ENDTAB
  0
TABLE
  2
VIEW
 70
     2
  0
VIEW
  2
OLE1
 70
     0
 40
24.514257897662329
 10
44.901529473115893
 20
103.25177669290009
 41
34.172454060781448
 11
0.0
 21
0.0
 31
1.0
 12
0.0
 22
0.0
 32
0.0
 42
50.0
 43
0.0
 44
0.0
 50
0.0
 71
     0
  0
VIEW
  2
OLE2
 70
     0
 40
111.8251716252055
 10
23.153306359535989
 20
84.753742215946431
 41
155.8823667497492
 11
0.0
 21
0.0
 31
1.0
 12
0.0
 22
0.0
 32
0.0
 42
50.0
 43
0.0
 44
0.0
 50
0.0
 71
     0
  0
ENDTAB
  0
TABLE
  2
UCS
 70
     0
  0
ENDTAB
  0
TABLE
  2
APPID
 70
     4
  0
APPID
  2
ACAD
 70
     0
  0
APPID
  2
GENIUS_GENFIL_13
 70
     0
  0
APPID
  2
ACAD_MLEADERVER
 70
     0
  0
APPID
  2
ACAD_NAV_VCDISPLAY
 70
     0
  0
ENDTAB
  0
TABLE
  2
DIMSTYLE
 70
     1
  0
DIMSTYLE
  2
STANDARD
 70
     0
  3

  4

  5

  6

  7

 40
1.0
 41
0.18
 42
0.0625
 43
0.38
 44
0.18
 45
0.0
 46
0.0
 47
0.0
 48
0.0
140
0.18
141
0.09
142
0.0
143
25.399999999999999
144
1.0
145
0.0
146
1.0
147
0.09
 71
     0
 72
     0
 73
     1
 74
     1
 75
     0
 76
     0
 77
     0
 78
     0
170
     0
171
     2
172
     0
173
     0
174
     0
175
     0
176
     0
177
     0
178
     0
  0
ENDTAB
  0
ENDSEC
  0
SECTION
  2
BLOCKS
  0
BLOCK
  8
0
  2
$MODEL_SPACE
 70
     0
 10
0.0
 20
0.0
 30
0.0
  3
$MODEL_SPACE
  1

  0
ENDBLK
  5
E6
  8
0
  0
BLOCK
 67
     1
  8
0
  2
$PAPER_SPACE
 70
     0
 10
0.0
 20
0.0
 30
0.0
  3
$PAPER_SPACE
  1

  0
ENDBLK
  5
E4
 67
     1
  8
0
  0
ENDSEC
  0
SECTION
  2
ENTITIES
  0
LINE
  5
EBB
  8
1
 10
91.014233785788534
 20
108.2827831348047
 30
0.0
 11
53.881306571519893
 21
108.2827831348047
 31
0.0
  0
LINE
  5
EBC
  8
1
 10
72.44777017865421
 20
99.190025126938295
 30
0.0
 11
72.44777017865421
 21
117.3755411426712
 31
0.0
  0
ARC
  5
124D
  8
0
 10
59.511878497532393
 20
71.580698614512883
 30
0.0
 40
2.7500000000000271
 50
114.4531180866703
 51
177.9999999999996
  0
ARC
  5
124E
  8
0
 10
72.447770178654196
 20
43.133814665400322
 30
0.0
 40
33.999999999999922
 50
65.546881913329642
 51
114.4531180866703
  0
ARC
  5
124F
  8
0
 10
85.383661859775984
 20
71.580698614512883
 30
0.0
 40
2.7500000000000182
 50
2.000000000000393
 51
65.546881913329642
  0
LINE
  5
1253
  8
0
 10
68.047770178654218
 20
57.5338146654002
 30
0.0
 11
68.047770178654218
 21
57.133814665400223
 31
0.0
  0
LINE
  5
1254
  8
0
 10
76.847770178654173
 20
57.133814665400223
 30
0.0
 11
76.847770178654173
 21
57.5338146654002
 31
0.0
  0
LINE
  5
1255
  8
0
 10
66.947770178654196
 20
62.633814665400223
 30
0.0
 11
66.947770178654196
 21
57.5338146654002
 31
0.0
  0
LINE
  5
1256
  8
0
 10
77.947770178654196
 20
57.5338146654002
 30
0.0
 11
77.947770178654196
 21
62.633814665400223
 31
0.0
  0
LINE
  5
125F
  8
0
 10
88.447770178654196
 20
62.633814665400223
 30
0.0
 11
88.131986634078544
 21
71.676672230444751
 31
0.0
  0
LINE
  5
1260
  8
0
 10
56.76355372322984
 20
71.676672230444751
 30
0.0
 11
56.447770178654189
 21
62.633814665400223
 31
0.0
  0
LINE
  5
1263
  8
0
 10
68.047770178654218
 20
57.133814665400223
 30
0.0
 11
76.847770178654173
 21
57.133814665400223
 31
0.0
  0
LINE
  5
1264
  8
0
 10
66.947770178654196
 20
57.5338146654002
 30
0.0
 11
77.947770178654196
 21
57.5338146654002
 31
0.0
  0
LINE
  5
126B
  8
0
 10
88.447770178654196
 20
62.633814665400223
 30
0.0
 11
56.447770178654189
 21
62.633814665400223
 31
0.0
  0
LINE
  5
131B
  8
1
 10
72.447770178654196
 20
34.541056657533723
 30
0.0
 11
72.447770178654196
 21
79.726572673266759
 31
0.0
  0
LINE
  5
14B8
  8
0
 10
114.65503532384091
 20
76.506707857330809
 30
0.0
 11
114.65503532384091
 21
62.633814665400223
 31
0.0
  0
LINE
  5
14B9
  8
0
 10
116.7550353238409
 20
57.5338146654002
 30
0.0
 11
116.7550353238409
 21
57.133814665400223
 31
0.0
  0
LINE
  5
14BA
  8
0
 10
125.5550353238409
 20
57.133814665400223
 30
0.0
 11
125.5550353238409
 21
57.5338146654002
 31
0.0
  0
LINE
  5
14BB
  8
0
 10
115.65503532384091
 20
62.633814665400223
 30
0.0
 11
115.65503532384091
 21
57.5338146654002
 31
0.0
  0
LINE
  5
14C4
  8
0
 10
116.7550353238409
 20
57.133814665400223
 30
0.0
 11
125.5550353238409
 21
57.133814665400223
 31
0.0
  0
LINE
  5
14C5
  8
0
 10
116.7550353238409
 20
57.5338146654002
 30
0.0
 11
125.5550353238409
 21
57.5338146654002
 31
0.0
  0
LINE
  5
14CC
  8
1
 10
121.15503532384091
 20
34.541056657533723
 30
0.0
 11
121.15503532384091
 21
79.726572673266759
 31
0.0
  0
ARC
  5
14CD
  8
0
 10
121.15503532384091
 20
43.133814665400351
 30
0.0
 40
33.999999999999908
 50
78.978550364483084
 51
101.0214496355168
  0
LINE
  5
14CE
  8
0
 10
126.65503532384091
 20
57.5338146654002
 30
0.0
 11
126.65503532384091
 21
62.633814665400223
 31
0.0
  0
LINE
  5
14CF
  8
0
 10
127.65503532384091
 20
62.633814665400223
 30
0.0
 11
127.65503532384091
 21
76.506707857330809
 31
0.0
  0
LINE
  5
14D1
  8
0
 10
115.65503532384091
 20
57.5338146654002
 30
0.0
 11
126.65503532384091
 21
57.5338146654002
 31
0.0
  0
LINE
  5
14D4
  8
0
 10
114.65503532384091
 20
62.633814665400223
 30
0.0
 11
127.65503532384091
 21
62.633814665400223
 31
0.0
  0
ARC
  5
1677
  8
0
 10
72.447770178654224
 20
87.567398519420166
 30
0.0
 40
27.215384615384579
 50
56.196759833901758
 51
123.8032399487527
  0
ARC
  5
1678
  8
0
 10
72.447770178654181
 20
128.99816775018931
 30
0.0
 40
27.215384615384579
 50
236.19675983390169
 51
303.80323994875272
  0
ARC
  5
167A
  8
0
 10
86.3172079099661
 20
108.2827831348046
 30
0.0
 40
2.285714285714298
 50
22.881050777443001
 51
56.196757463383733
  0
ARC
  5
167B
  8
0
 10
72.447770178654693
 20
108.2827831348046
 30
0.0
 40
15.99999999999975
 50
356.81583219436601
 51
3.184167805633948
  0
ARC
  5
167C
  8
0
 10
86.3172079099661
 20
108.2827831348049
 30
0.0
 40
2.285714285714298
 50
303.80324253661632
 51
337.11894922255698
  0
ARC
  5
167D
  8
0
 10
58.578332447342298
 20
108.2827831348049
 30
0.0
 40
2.285714285714298
 50
202.88105077744299
 51
236.19675746338379
  0
ARC
  5
167E
  8
0
 10
72.447770178653698
 20
108.2827831348046
 30
0.0
 40
15.99999999999975
 50
176.81583219436601
 51
183.18416780563399
  0
ARC
  5
167F
  8
0
 10
58.578332447342298
 20
108.2827831348046
 30
0.0
 40
2.285714285714298
 50
123.8032425366162
 51
157.11894922255701
  0
LINE
  5
185A
  8
0
 10
75.447770178654196
 20
57.133814665400223
 30
0.0
 11
75.447770178654196
 21
38.133814665400223
 31
0.0
  0
LINE
  5
185B
  8
0
 10
75.447770178654196
 20
38.133814665400223
 30
0.0
 11
74.447770178654196
 21
37.13381466540023
 31
0.0
  0
LINE
  5
185C
  8
3
 10
74.906270178654324
 20
37.592314665400288
 30
0.0
 11
74.906270178654296
 21
56.195909153101873
 31
0.0
  0
LINE
  5
185D
  8
0
 10
69.447770178654196
 20
57.133814665400223
 30
0.0
 11
69.447770178654196
 21
38.133814665400223
 31
0.0
  0
LINE
  5
185E
  8
3
 10
69.989270178654095
 20
37.592314665400288
 30
0.0
 11
69.989270178654095
 21
56.195909153101873
 31
0.0
  0
LINE
  5
185F
  8
0
 10
69.447770178654196
 20
38.133814665400223
 30
0.0
 11
70.447770178654196
 21
37.13381466540023
 31
0.0
  0
LINE
  5
1860
  8
0
 10
69.447770178654196
 20
38.133814665400223
 30
0.0
 11
75.447770178654196
 21
38.133814665400223
 31
0.0
  0
LINE
  5
1861
  8
0
 10
74.447770178654196
 20
37.13381466540023
 30
0.0
 11
70.447770178654196
 21
37.13381466540023
 31
0.0
  0
LINE
  5
1862
  8
0
 10
69.447770178654196
 20
56.195909153101873
 30
0.0
 11
75.447770178654196
 21
56.195909153101873
 31
0.0
  0
LINE
  5
1863
  8
3
 10
69.989270178654095
 20
56.195909153101873
 30
0.0
 11
69.447770178654196
 21
57.133814665400223
 31
0.0
  0
LINE
  5
1864
  8
3
 10
74.906270178654296
 20
56.195909153101873
 30
0.0
 11
75.447770178654196
 21
57.133814665400223
 31
0.0
  0
LINE
  5
1869
  8
0
 10
124.15503532384091
 20
57.133814665400223
 30
0.0
 11
124.15503532384091
 21
38.133814665400223
 31
0.0
  0
LINE
  5
186A
  8
0
 10
124.15503532384091
 20
38.133814665400223
 30
0.0
 11
123.15503532384091
 21
37.13381466540023
 31
0.0
  0
LINE
  5
186B
  8
3
 10
123.61353532384101
 20
37.592314665400288
 30
0.0
 11
123.61353532384101
 21
56.195909153101873
 31
0.0
  0
LINE
  5
186C
  8
0
 10
118.15503532384091
 20
57.133814665400223
 30
0.0
 11
118.15503532384091
 21
38.133814665400223
 31
0.0
  0
LINE
  5
186D
  8
3
 10
118.69653532384081
 20
37.592314665400288
 30
0.0
 11
118.69653532384081
 21
56.195909153101873
 31
0.0
  0
LINE
  5
186E
  8
0
 10
118.15503532384091
 20
38.133814665400223
 30
0.0
 11
119.15503532384091
 21
37.13381466540023
 31
0.0
  0
LINE
  5
186F
  8
0
 10
118.15503532384091
 20
38.133814665400223
 30
0.0
 11
124.15503532384091
 21
38.133814665400223
 31
0.0
  0
LINE
  5
1870
  8
0
 10
123.15503532384091
 20
37.13381466540023
 30
0.0
 11
119.15503532384091
 21
37.13381466540023
 31
0.0
  0
LINE
  5
1871
  8
0
 10
118.15503532384091
 20
56.195909153101873
 30
0.0
 11
124.15503532384091
 21
56.195909153101873
 31
0.0
  0
LINE
  5
1872
  8
3
 10
118.69653532384081
 20
56.195909153101873
 30
0.0
 11
118.15503532384091
 21
57.133814665400223
 31
0.0
  0
LINE
  5
1873
  8
3
 10
123.61353532384101
 20
56.195909153101873
 30
0.0
 11
124.15503532384091
 21
57.133814665400223
 31
0.0
  0
TEXT
  5
1A1F
  8
0
 62
     3
 10
0.0
 20
0.0
 30
0.0
 40
10.0
  1
LSH6X20
  7
STANDARD1
  0
ENDSEC
  0
EOF
