  0
SECTION
  2
HEADER
  9
$ACADVER
  1
AC1009
  9
$INSBASE
 10
0.0
 20
0.0
 30
0.0
  9
$EXTMIN
 10
0.0
 20
-2.960436562073669
 30
0.0
  9
$EXTMAX
 10
117.82541103896121
 20
173.15406427934681
 30
0.0
  9
$LIMMIN
 10
0.0
 20
0.0
  9
$LIMMAX
 10
375.0
 20
270.0
  9
$ORTHOMODE
 70
     1
  9
$REGENMODE
 70
     1
  9
$FILLMODE
 70
     1
  9
$QTEXTMODE
 70
     0
  9
$MIRRTEXT
 70
     0
  9
$DRAGMODE
 70
     2
  9
$LTSCALE
 40
6.0
  9
$OSMODE
 70
    37
  9
$ATTMODE
 70
     1
  9
$TEXTSIZE
 40
0.2
  9
$TRACEWID
 40
0.05
  9
$TEXTSTYLE
  7
STANDARD
  9
$CLAYER
  8
0
  9
$CELTYPE
  6
BYLAYER
  9
$CECOLOR
 62
   256
  9
$DIMSCALE
 40
1.0
  9
$DIMASZ
 40
3.0
  9
$DIMEXO
 40
1.0
  9
$DIMDLI
 40
6.0
  9
$DIMRND
 40
0.0
  9
$DIMDLE
 40
0.0
  9
$DIMEXE
 40
1.0
  9
$DIMTP
 40
495.0
  9
$DIMTM
 40
0.0
  9
$DIMTXT
 40
3.0
  9
$DIMCEN
 40
0.0
  9
$DIMTSZ
 40
0.0
  9
$DIMTOL
 70
     0
  9
$DIMLIM
 70
     0
  9
$DIMTIH
 70
     0
  9
$DIMTOH
 70
     0
  9
$DIMSE1
 70
     0
  9
$DIMSE2
 70
     0
  9
$DIMTAD
 70
     1
  9
$DIMZIN
 70
     0
  9
$DIMBLK
  1

  9
$DIMASO
 70
     0
  9
$DIMSHO
 70
     0
  9
$DIMPOST
  1

  9
$DIMAPOST
  1

  9
$DIMALT
 70
     0
  9
$DIMALTD
 70
     2
  9
$DIMALTF
 40
25.399999999999999
  9
$DIMLFAC
 40
1.0
  9
$DIMTOFL
 70
     1
  9
$DIMTVP
 40
0.0
  9
$DIMTIX
 70
     1
  9
$DIMSOXD
 70
     0
  9
$DIMSAH
 70
     0
  9
$DIMBLK1
  1

  9
$DIMBLK2
  1

  9
$DIMSTYLE
  2
STANDARD
  9
$DIMCLRD
 70
     0
  9
$DIMCLRE
 70
     0
  9
$DIMCLRT
 70
     4
  9
$DIMTFAC
 40
1.0
  9
$DIMGAP
 40
1.0
  9
$LUNITS
 70
     2
  9
$LUPREC
 70
     4
  9
$SKETCHINC
 40
0.1
  9
$FILLETRAD
 40
2.0
  9
$AUNITS
 70
     0
  9
$AUPREC
 70
     0
  9
$MENU
  1
C:\R13\WIN\SUPPORT\ACAD-I
  9
$ELEVATION
 40
0.0
  9
$PELEVATION
 40
0.0
  9
$THICKNESS
 40
0.0
  9
$LIMCHECK
 70
     0
  9
$BLIPMODE
 70
     0
  9
$CHAMFERA
 40
0.0
  9
$CHAMFERB
 40
0.0
  9
$SKPOLY
 70
     0
  9
$TDCREATE
 40
2451961.711538055
  9
$TDUPDATE
 40
2456598.7185537382
  9
$TDINDWG
 40
0.0469807523
  9
$TDUSRTIMER
 40
2456598.0198420249
  9
$USRTIMER
 70
     1
  9
$ANGBASE
 50
0.0
  9
$ANGDIR
 70
     0
  9
$PDMODE
 70
     0
  9
$PDSIZE
 40
0.0
  9
$PLINEWID
 40
0.0
  9
$COORDS
 70
     1
  9
$SPLFRAME
 70
     0
  9
$SPLINETYPE
 70
     6
  9
$SPLINESEGS
 70
     8
  9
$ATTDIA
 70
     0
  9
$ATTREQ
 70
     1
  9
$HANDLING
 70
     1
  9
$HANDSEED
  5
2383
  9
$SURFTAB1
 70
     6
  9
$SURFTAB2
 70
     6
  9
$SURFTYPE
 70
     6
  9
$SURFU
 70
     6
  9
$SURFV
 70
     6
  9
$UCSNAME
  2

  9
$UCSORG
 10
0.0
 20
0.0
 30
0.0
  9
$UCSXDIR
 10
1.0
 20
0.0
 30
0.0
  9
$UCSYDIR
 10
0.0
 20
1.0
 30
0.0
  9
$PUCSNAME
  2

  9
$PUCSORG
 10
0.0
 20
0.0
 30
0.0
  9
$PUCSXDIR
 10
1.0
 20
0.0
 30
0.0
  9
$PUCSYDIR
 10
0.0
 20
1.0
 30
0.0
  9
$USERI1
 70
     4
  9
$USERI2
 70
     1
  9
$USERI3
 70
     0
  9
$USERI4
 70
     0
  9
$USERI5
 70
     0
  9
$USERR1
 40
1.0
  9
$USERR2
 40
3.0
  9
$USERR3
 40
3.0
  9
$USERR4
 40
3.0
  9
$USERR5
 40
10.0
  9
$WORLDVIEW
 70
     1
  9
$SHADEDGE
 70
     3
  9
$SHADEDIF
 70
    70
  9
$TILEMODE
 70
     1
  9
$MAXACTVP
 70
    16
  9
$PLIMCHECK
 70
     0
  9
$PEXTMIN
 10
1.0000000000000000E+020
 20
1.0000000000000000E+020
 30
1.0000000000000000E+020
  9
$PEXTMAX
 10
-1.0000000000000000E+020
 20
-1.0000000000000000E+020
 30
-1.0000000000000000E+020
  9
$PLIMMIN
 10
0.0
 20
0.0
  9
$PLIMMAX
 10
12.0
 20
9.0
  9
$UNITMODE
 70
     0
  9
$VISRETAIN
 70
     0
  9
$PLINEGEN
 70
     0
  9
$PSLTSCALE
 70
     0
  0
ENDSEC
  0
SECTION
  2
TABLES
  0
TABLE
  2
VPORT
 70
     1
  0
VPORT
  2
*ACTIVE
 70
     0
 10
0.0
 20
0.0
 11
1.0
 21
1.0
 12
187.49427839065231
 22
177.52205812711131
 13
0.0
 23
0.0
 14
10.0
 24
10.0
 15
10.0
 25
10.0
 16
0.0
 26
0.0
 36
1.0
 17
0.0
 27
0.0
 37
0.0
 40
364.13085016302909
 41
1.755244755244755
 42
50.0
 43
0.0
 44
0.0
 50
0.0
 51
0.0
 71
    16
 72
   100
 73
     1
 74
     0
 75
     0
 76
     0
 77
     0
 78
     0
  0
ENDTAB
  0
TABLE
  2
LTYPE
 70
     3
  0
LTYPE
  2
CONTINUOUS
 70
     0
  3
Solid Line
 72
    65
 73
     0
 40
0.0
  0
LTYPE
  2
PHANTOM2
 70
     0
  3
___ _ _ ___ _ _ ___ _ _ ___ _ _
 72
    65
 73
     6
 40
1.25
 49
0.625
 49
-0.125
 49
0.125
 49
-0.125
 49
0.125
 49
-0.125
  0
LTYPE
  2
CENTER
 70
     0
  3
____ _ ____ _ ____ _ ____ _ ____ _ ____ _ ____
 72
    65
 73
     4
 40
2.0
 49
1.25
 49
-0.25
 49
0.25
 49
-0.25
  0
ENDTAB
  0
TABLE
  2
LAYER
 70
     3
  0
LAYER
  2
0
 70
     0
 62
     7
  6
CONTINUOUS
  0
LAYER
  2
1
 70
     0
 62
     1
  6
CENTER
  0
LAYER
  2
3
 70
     0
 62
     3
  6
CONTINUOUS
  0
ENDTAB
  0
TABLE
  2
STYLE
 70
     3
  0
STYLE
  2
STANDARD
 70
     0
 40
0.0
 41
1.0
 50
0.0
 71
     0
 42
0.2
  3
SIMPLEX
  4
BIGFONT
  0
STYLE
  2
ANNOTATIVE
 70
     0
 40
0.0
 41
1.0
 50
0.0
 71
     0
 42
0.2
  3
txt
  4

  0
STYLE
  2
STANDARD1
 70
     0
 40
0.0
 41
1.0
 50
0.0
 71
     0
 42
3.0
  3
txt
  4

  0
ENDTAB
  0
TABLE
  2
VIEW
 70
     0
  0
ENDTAB
  0
TABLE
  2
UCS
 70
     0
  0
ENDTAB
  0
TABLE
  2
APPID
 70
    29
  0
APPID
  2
ACAD
 70
     0
  0
APPID
  2
ACADANNOTATIVE
 70
     0
  0
APPID
  2
GENIUS_GENOREF_13
 70
     0
  0
APPID
  2
GENIUS_GENOENT_13
 70
     0
  0
APPID
  2
GENIUS_GENBH_13
 70
     0
  0
APPID
  2
GENIUS_GENOBJ_13
 70
     0
  0
APPID
  2
GENIUS_GENODEF_13
 70
     0
  0
APPID
  2
GENIUS_GENOLIS_13
 70
     0
  0
APPID
  2
GENIUS_GENOBJ-NBEHI-BHF_13
 70
     0
  0
APPID
  2
GENIUS_GENOBJ-NBEHI-BHB_13
 70
     0
  0
APPID
  2
GENIUS_GENOBJ-F-PART_13
 70
     0
  0
APPID
  2
GENIUS_GEFSTDP_13
 70
     0
  0
APPID
  2
GENIUS_GENOBJ-N-RSSYM_13
 70
     0
  0
APPID
  2
GENIUS_GENSYMENT_13
 70
     0
  0
APPID
  2
GENIUS_GENOBJ-N-TIT_13
 70
     0
  0
APPID
  2
GENIUS_GENTITLE_13
 70
     0
  0
APPID
  2
GENIUS_GENZVEED_13
 70
     0
  0
APPID
  2
GENIUS_GENOBJ-N-LEADER_13
 70
     0
  0
APPID
  2
GENIUS_GENOBJ-N-FIL_13
 70
     0
  0
APPID
  2
GENIUS_GENOBJ-N-SEC_13
 70
     0
  0
APPID
  2
GENIUS_GENOBJ-N-CRS_13
 70
     0
  0
APPID
  2
GENIUS_GENOBJ-N-ZOO_13
 70
     0
  0
APPID
  2
GENIUS_GENZOO_13
 70
     0
  0
APPID
  2
GENIUS_GENOBJ-F-TOL_13
 70
     0
  0
APPID
  2
GENIUS_GENFIL_13
 70
     0
  0
APPID
  2
GENIUS_GENOBJ-N-CHA_13
 70
     0
  0
APPID
  2
ACAD_MLEADERVER
 70
     0
  0
APPID
  2
ACAD_EXEMPT_FROM_CAD_STANDARDS
 70
     0
  0
APPID
  2
ACAD_NAV_VCDISPLAY
 70
     0
  0
ENDTAB
  0
TABLE
  2
DIMSTYLE
 70
     2
  0
DIMSTYLE
  2
STANDARD
 70
     0
  3

  4

  5

  6

  7

 40
1.0
 41
0.18
 42
0.0625
 43
0.38
 44
0.18
 45
0.0
 46
0.0
 47
0.0
 48
0.0
140
0.18
141
0.09
142
0.0
143
25.399999999999999
144
1.0
145
0.0
146
1.0
147
0.09
 71
     0
 72
     0
 73
     1
 74
     1
 75
     0
 76
     0
 77
     0
 78
     0
170
     0
171
     2
172
     0
173
     0
174
     0
175
     0
176
     0
177
     0
178
     0
  0
DIMSTYLE
  2
ANNOTATIVE
 70
     0
  3

  4

  5

  6

  7

 40
1.0
 41
0.18
 42
0.0625
 43
0.38
 44
0.18
 45
0.0
 46
0.0
 47
0.0
 48
0.0
140
0.18
141
0.09
142
0.0
143
25.399999999999999
144
1.0
145
0.0
146
1.0
147
0.09
 71
     0
 72
     0
 73
     1
 74
     1
 75
     0
 76
     0
 77
     0
 78
     0
170
     0
171
     2
172
     0
173
     0
174
     0
175
     0
176
     0
177
     0
178
     0
  0
ENDTAB
  0
ENDSEC
  0
SECTION
  2
BLOCKS
  0
BLOCK
  8
0
  2
$MODEL_SPACE
 70
     0
 10
0.0
 20
0.0
 30
0.0
  3
$MODEL_SPACE
  1

  0
ENDBLK
  5
224A
  8
0
  0
BLOCK
 67
     1
  8
0
  2
$PAPER_SPACE
 70
     0
 10
0.0
 20
0.0
 30
0.0
  3
$PAPER_SPACE
  1

  0
ENDBLK
  5
2246
 67
     1
  8
0
  0
ENDSEC
  0
SECTION
  2
ENTITIES
  0
CIRCLE
  5
1BA9
  8
0
 10
33.539848953144542
 20
150.15406427934681
 30
0.0
 40
4.0
  0
CIRCLE
  5
1BAA
  8
3
 10
33.539848953144542
 20
150.15406427934681
 30
0.0
 40
3.3235000000000001
  0
CIRCLE
  5
1BAB
  8
0
 10
33.539848953144542
 20
150.15406427934681
 30
0.0
 40
6.25
  0
LINE
  5
1BAC
  8
0
 10
26.034295453679761
 20
150.15406427934681
 30
0.0
 11
29.787072203412151
 21
143.65406427934701
 31
0.0
  0
LINE
  5
1BAD
  8
0
 10
29.787072203412151
 20
156.6540642793465
 30
0.0
 11
26.034295453679761
 21
150.15406427934681
 31
0.0
  0
LINE
  5
1BAE
  8
0
 10
37.292625702876933
 20
156.6540642793465
 30
0.0
 11
29.787072203412151
 21
156.6540642793465
 31
0.0
  0
LINE
  5
1BAF
  8
0
 10
41.045402452609331
 20
150.15406427934681
 30
0.0
 11
37.292625702876933
 21
156.6540642793465
 31
0.0
  0
LINE
  5
1BB0
  8
0
 10
37.292625702876933
 20
143.65406427934701
 30
0.0
 11
41.045402452609331
 21
150.15406427934681
 31
0.0
  0
LINE
  5
1BB1
  8
0
 10
29.787072203412151
 20
143.65406427934701
 30
0.0
 11
37.292625702876933
 21
143.65406427934701
 31
0.0
  0
LINE
  5
1BB2
  8
1
 10
56.539848953144542
 20
150.15406427934681
 30
0.0
 11
10.53984895314454
 21
150.15406427934681
 31
0.0
  0
LINE
  5
1BB3
  8
1
 10
33.539848953144542
 20
173.15406427934681
 30
0.0
 11
33.539848953144542
 21
127.1540642793468
 31
0.0
  0
CIRCLE
  5
1BB4
  8
0
 10
33.539848953144542
 20
150.15406427934681
 30
0.0
 40
10.99533453162957
  0
CIRCLE
  5
1BB5
  8
0
 10
33.539848953144542
 20
150.15406427934681
 30
0.0
 40
12.00606342649878
  0
CIRCLE
  5
1BB6
  8
0
 10
33.539848953144542
 20
150.15406427934681
 30
0.0
 40
20.0
  0
ARC
  5
1BF5
  8
0
 10
37.039848953144563
 20
65.789167288337097
 30
0.0
 40
10.10924076103746
 50
249.74384199958311
 51
290.25615800041692
  0
LINE
  5
1BF6
  8
0
 10
40.539848953144649
 20
55.679926527299692
 30
0.0
 11
40.270618183912632
 21
55.524486070209477
 31
0.0
  0
LINE
  5
1BF7
  8
0
 10
26.53984895314467
 20
55.679926527299692
 30
0.0
 11
26.809079722376669
 21
55.524486070209477
 31
0.0
  0
ARC
  5
1BF8
  8
0
 10
30.03984895314478
 20
65.789167288337097
 30
0.0
 40
10.10924076103746
 50
249.74384199958311
 51
290.25615800041692
  0
LINE
  5
1BF9
  8
0
 10
40.270618183912632
 20
55.524486070209477
 30
0.0
 11
26.809079722376669
 21
55.524486070209477
 31
0.0
  0
ARC
  5
1BFA
  8
0
 10
37.039848953144563
 20
50.259804852081807
 30
0.0
 40
10.10924076103746
 50
69.743841999583083
 51
110.2561580004169
  0
LINE
  5
1BFB
  8
0
 10
40.539848953144649
 20
60.369045613119212
 30
0.0
 11
40.270618183912632
 21
60.524486070209477
 31
0.0
  0
LINE
  5
1BFC
  8
0
 10
26.53984895314467
 20
60.369045613119212
 30
0.0
 11
26.809079722376669
 21
60.524486070209477
 31
0.0
  0
ARC
  5
1BFD
  8
0
 10
30.03984895314478
 20
50.259804852081807
 30
0.0
 40
10.10924076103746
 50
69.743841999583097
 51
110.2561580004169
  0
LINE
  5
1BFE
  8
0
 10
40.270618183912632
 20
60.524486070209477
 30
0.0
 11
26.809079722376669
 21
60.524486070209477
 31
0.0
  0
LINE
  5
1BFF
  8
0
 10
40.539848953144649
 20
60.369045613119212
 30
0.0
 11
40.539848953144649
 21
55.679926527299692
 31
0.0
  0
LINE
  5
1C00
  8
0
 10
26.53984895314467
 20
60.369045613119212
 30
0.0
 11
26.53984895314467
 21
55.679926527299692
 31
0.0
  0
LINE
  5
1C02
  8
3
 10
36.863348953144751
 20
62.524486070209527
 30
0.0
 11
37.53984895314467
 21
61.35275369888943
 31
0.0
  0
LINE
  5
1C03
  8
3
 10
30.216348953144561
 20
62.524486070209527
 30
0.0
 11
29.53984895314467
 21
61.35275369888943
 31
0.0
  0
LINE
  5
1C04
  8
0
 10
29.53984895314467
 20
62.524486070209527
 30
0.0
 11
37.539848953144727
 21
62.52448607020947
 31
0.0
  0
LINE
  5
1C05
  8
0
 10
29.53984895314462
 20
102.3244860702095
 30
0.0
 11
37.539848953144677
 21
102.3244860702094
 31
0.0
  0
LINE
  5
1C06
  8
0
 10
36.339848953144632
 20
103.52448607020941
 30
0.0
 11
37.539848953144649
 21
102.3244860702094
 31
0.0
  0
LINE
  5
1C07
  8
0
 10
29.539848953144649
 20
102.3244860702095
 30
0.0
 11
30.739848953144669
 21
103.52448607020951
 31
0.0
  0
LINE
  5
1C08
  8
0
 10
29.539848953144659
 20
60.524486070209477
 30
0.0
 11
29.539848953144659
 21
74.524486070209463
 31
0.0
  0
LINE
  5
1C09
  8
3
 10
30.216348953144539
 20
62.524486070209527
 30
0.0
 11
30.216348953144578
 21
74.524486070209463
 31
0.0
  0
LINE
  5
1C0A
  8
3
 10
36.863348953144801
 20
62.524486070209477
 30
0.0
 11
36.863348953144801
 21
74.524486070209491
 31
0.0
  0
LINE
  5
1C0B
  8
0
 10
37.539848953144663
 20
60.524486070209477
 30
0.0
 11
37.539848953144663
 21
74.524486070209463
 31
0.0
  0
LINE
  5
1C0C
  8
0
 10
30.739848953144669
 20
103.52448607020951
 30
0.0
 11
36.339848953144632
 21
103.52448607020941
 31
0.0
  0
ARC
  5
1C0F
  8
0
 10
27.910683828547981
 20
77.557578929961409
 30
0.0
 40
3.3225695729499729
 50
55.615752531960531
 51
115.61575253217499
  0
ARC
  5
1C10
  8
0
 10
33.539848953147441
 20
68.460705086519013
 30
0.0
 40
12.41944341639239
 50
72.41204622599642
 51
107.5879537740048
  0
LINE
  5
1C11
  8
0
 10
26.03429545368164
 20
80.299591919310643
 30
0.0
 11
27.289848953147889
 21
81.024486070209463
 31
0.0
  0
LINE
  5
1C12
  8
0
 10
26.034295453680841
 20
75.249380221108282
 30
0.0
 11
27.2898489531471
 21
74.524486070209463
 31
0.0
  0
ARC
  5
1C13
  8
0
 10
27.910683828547182
 20
77.991393210457517
 30
0.0
 40
3.3225695729499729
 50
244.38424746782491
 51
304.38424746803918
  0
ARC
  5
1C14
  8
0
 10
33.539848953146652
 20
87.088267053899898
 30
0.0
 40
12.41944341639239
 50
252.4120462259952
 51
287.58795377400372
  0
LINE
  5
1C15
  8
0
 10
26.03429545368164
 20
80.299591919310643
 30
0.0
 11
26.034295453680841
 21
75.249380221108282
 31
0.0
  0
LINE
  5
1C16
  8
0
 10
29.787072203415899
 20
80.299591919310643
 30
0.0
 11
29.787072203413292
 21
75.249380221109817
 31
0.0
  0
LINE
  5
1C17
  8
0
 10
37.29262570287716
 20
80.299591919310643
 30
0.0
 11
37.29262570287819
 21
75.249380221109817
 31
0.0
  0
LINE
  5
1C18
  8
0
 10
41.045402452611427
 20
80.299591919310643
 30
0.0
 11
41.045402452610631
 21
75.249380221108282
 31
0.0
  0
ARC
  5
1C19
  8
0
 10
39.169014077744301
 20
77.991393210457517
 30
0.0
 40
3.3225695729499729
 50
235.6157525319604
 51
295.61575253217501
  0
LINE
  5
1C1A
  8
0
 10
41.045402452610631
 20
75.249380221108282
 30
0.0
 11
39.789848953144372
 21
74.524486070209463
 31
0.0
  0
LINE
  5
1C1B
  8
0
 10
41.045402452611427
 20
80.299591919310643
 30
0.0
 11
39.789848953145167
 21
81.024486070209463
 31
0.0
  0
ARC
  5
1C1C
  8
0
 10
39.169014077745103
 20
77.557578929961409
 30
0.0
 40
3.3225695729499729
 50
64.384247467824906
 51
124.3842474680394
  0
LINE
  5
1C1D
  8
0
 10
27.289848953146759
 20
81.024486070209463
 30
0.0
 11
39.78984895314494
 21
81.024486070209463
 31
0.0
  0
LINE
  5
1C1E
  8
0
 10
39.789848953144372
 20
74.524486070209463
 30
0.0
 11
27.289848953147331
 21
74.524486070209463
 31
0.0
  0
LINE
  5
1C1F
  8
0
 10
37.539848953145452
 20
81.024486070209463
 30
0.0
 11
37.539848953144649
 21
102.3244860702094
 31
0.0
  0
LINE
  5
1C20
  8
3
 10
36.863348953145596
 20
81.024486070209463
 30
0.0
 11
36.863348953144758
 21
103.00098607020929
 31
0.0
  0
LINE
  5
1C21
  8
3
 10
30.216348953145371
 20
81.024486070209463
 30
0.0
 11
30.216348953144539
 21
103.00098607020939
 31
0.0
  0
LINE
  5
1C22
  8
0
 10
29.539848953145452
 20
81.024486070209463
 30
0.0
 11
29.539848953144649
 21
102.3244860702095
 31
0.0
  0
LINE
  5
1C25
  8
0
 10
14.039848953144601
 20
32.52448607020937
 30
0.0
 11
14.039848953144711
 21
35.524486070209463
 31
0.0
  0
LINE
  5
1C2D
  8
1
 10
33.539848953144542
 20
29.524486070209491
 30
0.0
 11
33.539848953144649
 21
106.52448607020941
 31
0.0
  0
LINE
  5
1C2E
  8
0
 10
53.03984895314457
 20
32.52448607020937
 30
0.0
 11
53.039848953144457
 21
35.524486070209463
 31
0.0
  0
LINE
  5
1C2F
  8
0
 10
14.039848953144601
 20
32.524486070209491
 30
0.0
 11
53.03984895314457
 21
32.52448607020947
 31
0.0
  0
LINE
  5
1E10
  8
0
 10
39.039848953144642
 20
52.524486070209477
 30
0.0
 11
39.039848953144642
 21
55.524486070209477
 31
0.0
  0
LINE
  5
1E11
  8
0
 10
28.039848953144642
 20
55.524486070209477
 30
0.0
 11
28.039848953144642
 21
52.524486070209477
 31
0.0
  0
LINE
  5
1E12
  8
0
 10
45.545912379643319
 20
46.559574497141448
 30
0.0
 11
44.535183484774123
 21
52.524486070209477
 31
0.0
  0
LINE
  5
1E13
  8
0
 10
53.539848953144627
 20
41.024486070209477
 30
0.0
 11
45.545912379643319
 21
46.559574497141448
 31
0.0
  0
LINE
  5
1E14
  8
0
 10
53.039848953144642
 20
35.524486070209477
 30
0.0
 11
53.539848953144627
 21
36.024486070209477
 31
0.0
  0
LINE
  5
1E15
  8
0
 10
44.535183484774123
 20
52.52448607020947
 30
0.0
 11
22.544514421515181
 21
52.524486070209477
 31
0.0
  0
LINE
  5
1E16
  8
0
 10
53.539848953144627
 20
41.024486070209477
 30
0.0
 11
13.53984895314465
 21
41.024486070209477
 31
0.0
  0
LINE
  5
1E17
  8
0
 10
53.039848953144642
 20
35.524486070209477
 30
0.0
 11
14.03984895314465
 21
35.524486070209477
 31
0.0
  0
LINE
  5
1E18
  8
0
 10
26.539848953144642
 20
52.524486070209477
 30
0.0
 11
40.539848953144642
 21
52.524486070209477
 31
0.0
  0
LINE
  5
1E19
  8
0
 10
53.539848953144627
 20
36.024486070209477
 30
0.0
 11
53.539848953144627
 21
41.024486070209477
 31
0.0
  0
LINE
  5
1E1A
  8
0
 10
13.53984895314464
 20
41.024486070209477
 30
0.0
 11
21.533785526645961
 21
46.559574497141448
 31
0.0
  0
LINE
  5
1E1B
  8
0
 10
14.03984895314464
 20
35.524486070209477
 30
0.0
 11
13.53984895314464
 21
36.024486070209477
 31
0.0
  0
LINE
  5
1E1C
  8
0
 10
13.53984895314464
 20
36.024486070209477
 30
0.0
 11
13.53984895314464
 21
41.024486070209477
 31
0.0
  0
LINE
  5
1E1D
  8
0
 10
21.533785526645961
 20
46.559574497141448
 30
0.0
 11
22.544514421515181
 21
52.524486070209477
 31
0.0
  0
LINE
  5
1E1E
  8
0
 10
21.533785526645961
 20
46.559574497141448
 30
0.0
 11
45.545912379643319
 21
46.559574497141448
 31
0.0
  0
LINE
  5
1E72
  8
3
 10
101.1489110389613
 20
62.524486070209527
 30
0.0
 11
101.82541103896121
 21
61.35275369888943
 31
0.0
  0
LINE
  5
1E73
  8
3
 10
94.501911038961069
 20
62.524486070209527
 30
0.0
 11
93.825411038961207
 21
61.35275369888943
 31
0.0
  0
LINE
  5
1E74
  8
0
 10
93.825411038961207
 20
62.524486070209527
 30
0.0
 11
101.82541103896121
 21
62.52448607020947
 31
0.0
  0
LINE
  5
1E75
  8
0
 10
93.825411038961164
 20
102.3244860702095
 30
0.0
 11
101.82541103896121
 21
102.3244860702094
 31
0.0
  0
LINE
  5
1E76
  8
0
 10
100.6254110389612
 20
103.52448607020941
 30
0.0
 11
101.82541103896121
 21
102.3244860702094
 31
0.0
  0
LINE
  5
1E77
  8
0
 10
93.825411038961207
 20
102.3244860702095
 30
0.0
 11
95.025411038961195
 21
103.52448607020951
 31
0.0
  0
LINE
  5
1E78
  8
0
 10
93.825411038961207
 20
60.524486070209477
 30
0.0
 11
93.825411038961207
 21
74.524486070209463
 31
0.0
  0
LINE
  5
1E79
  8
3
 10
94.501911038961069
 20
62.524486070209527
 30
0.0
 11
94.501911038961126
 21
74.524486070209463
 31
0.0
  0
LINE
  5
1E7A
  8
3
 10
101.1489110389613
 20
62.524486070209477
 30
0.0
 11
101.1489110389613
 21
74.524486070209491
 31
0.0
  0
LINE
  5
1E7B
  8
0
 10
101.82541103896121
 20
60.524486070209477
 30
0.0
 11
101.82541103896121
 21
74.524486070209463
 31
0.0
  0
LINE
  5
1E7C
  8
0
 10
95.025411038961195
 20
103.52448607020951
 30
0.0
 11
100.6254110389612
 21
103.52448607020941
 31
0.0
  0
LINE
  5
1E8D
  8
0
 10
101.825411038962
 20
81.024486070209463
 30
0.0
 11
101.82541103896121
 21
102.3244860702094
 31
0.0
  0
LINE
  5
1E8E
  8
3
 10
101.1489110389621
 20
81.024486070209463
 30
0.0
 11
101.1489110389613
 21
103.00098607020929
 31
0.0
  0
LINE
  5
1E8F
  8
3
 10
94.501911038961907
 20
81.024486070209463
 30
0.0
 11
94.501911038961069
 21
103.00098607020939
 31
0.0
  0
LINE
  5
1E90
  8
0
 10
93.825411038961988
 20
81.024486070209463
 30
0.0
 11
93.825411038961207
 21
102.3244860702095
 31
0.0
  0
LINE
  5
1E91
  8
0
 10
78.32541103896115
 20
32.52448607020937
 30
0.0
 11
78.325411038961263
 21
35.524486070209463
 31
0.0
  0
LINE
  5
1E92
  8
1
 10
97.825411038961064
 20
29.524486070209491
 30
0.0
 11
97.825411038961221
 21
106.52448607020941
 31
0.0
  0
LINE
  5
1E93
  8
0
 10
117.32541103896109
 20
32.52448607020937
 30
0.0
 11
117.32541103896099
 21
35.524486070209463
 31
0.0
  0
LINE
  5
1E94
  8
0
 10
78.32541103896115
 20
32.524486070209491
 30
0.0
 11
117.32541103896109
 21
32.52448607020947
 31
0.0
  0
LINE
  5
1E95
  8
0
 10
103.32541103896121
 20
52.524486070209477
 30
0.0
 11
103.32541103896121
 21
55.524486070209477
 31
0.0
  0
LINE
  5
1E96
  8
0
 10
92.325411038961164
 20
55.524486070209477
 30
0.0
 11
92.325411038961164
 21
52.524486070209477
 31
0.0
  0
LINE
  5
1E97
  8
0
 10
109.83147446545981
 20
46.559574497141448
 30
0.0
 11
108.8207455705906
 21
52.524486070209477
 31
0.0
  0
LINE
  5
1E98
  8
0
 10
117.82541103896121
 20
41.024486070209477
 30
0.0
 11
109.83147446545981
 21
46.559574497141448
 31
0.0
  0
LINE
  5
1E99
  8
0
 10
117.32541103896121
 20
35.524486070209477
 30
0.0
 11
117.82541103896121
 21
36.024486070209477
 31
0.0
  0
LINE
  5
1E9A
  8
0
 10
108.8207455705906
 20
52.52448607020947
 30
0.0
 11
86.830076507331697
 21
52.524486070209477
 31
0.0
  0
LINE
  5
1E9B
  8
0
 10
117.82541103896121
 20
41.024486070209477
 30
0.0
 11
77.825411038961192
 21
41.024486070209477
 31
0.0
  0
LINE
  5
1E9C
  8
0
 10
117.32541103896121
 20
35.524486070209477
 30
0.0
 11
78.325411038961192
 21
35.524486070209477
 31
0.0
  0
LINE
  5
1E9D
  8
0
 10
90.825411038961164
 20
52.524486070209477
 30
0.0
 11
104.82541103896109
 21
52.524486070209477
 31
0.0
  0
LINE
  5
1E9E
  8
0
 10
117.82541103896121
 20
36.024486070209477
 30
0.0
 11
117.82541103896121
 21
41.024486070209477
 31
0.0
  0
LINE
  5
1E9F
  8
0
 10
77.825411038961192
 20
41.024486070209477
 30
0.0
 11
85.819347612462494
 21
46.559574497141448
 31
0.0
  0
LINE
  5
1EA0
  8
0
 10
78.325411038961192
 20
35.524486070209477
 30
0.0
 11
77.825411038961192
 21
36.024486070209477
 31
0.0
  0
LINE
  5
1EA1
  8
0
 10
77.825411038961192
 20
36.024486070209477
 30
0.0
 11
77.825411038961192
 21
41.024486070209477
 31
0.0
  0
LINE
  5
1EA2
  8
0
 10
85.819347612462494
 20
46.559574497141448
 30
0.0
 11
86.830076507331697
 21
52.524486070209477
 31
0.0
  0
LINE
  5
1EA3
  8
0
 10
85.819347612462494
 20
46.559574497141448
 30
0.0
 11
109.83147446545981
 21
46.559574497141448
 31
0.0
  0
LINE
  5
1EA5
  8
0
 10
104.3254110389621
 20
80.880148502911297
 30
0.0
 11
104.07541103896079
 21
81.024486070209349
 31
0.0
  0
ARC
  5
1EA6
  8
0
 10
101.0754110389621
 20
71.492996367662585
 30
0.0
 40
9.3871521352487513
 50
69.743841999583196
 51
110.2561580004168
  0
ARC
  5
1EA7
  8
0
 10
101.07541103896131
 20
84.055975772756113
 30
0.0
 40
9.3871521352487513
 50
249.7438419995832
 51
290.2561580004168
  0
LINE
  5
1EA8
  8
0
 10
104.32541103896131
 20
74.668823637507415
 30
0.0
 11
104.0754110389601
 21
74.524486070209349
 31
0.0
  0
LINE
  5
1EA9
  8
0
 10
104.3254110389621
 20
80.880148502911297
 30
0.0
 11
104.32541103896131
 21
74.668823637507415
 31
0.0
  0
LINE
  5
1EAA
  8
0
 10
97.825411038962343
 20
80.299591919310132
 30
0.0
 11
97.825411038961519
 21
75.249380221108154
 31
0.0
  0
LINE
  5
1EAB
  8
0
 10
91.325411038962557
 20
80.880148502911297
 30
0.0
 11
91.325411038961775
 21
74.668823637507415
 31
0.0
  0
LINE
  5
1EAC
  8
0
 10
91.325411038961775
 20
74.668823637507415
 30
0.0
 11
91.575411038962883
 21
74.524486070209349
 31
0.0
  0
ARC
  5
1EAD
  8
0
 10
94.575411038961775
 20
84.055975772756113
 30
0.0
 40
9.3871521352487513
 50
249.7438419995832
 51
290.2561580004168
  0
ARC
  5
1EAE
  8
0
 10
94.575411038962557
 20
71.492996367662585
 30
0.0
 40
9.3871521352487513
 50
69.743841999583196
 51
110.2561580004168
  0
LINE
  5
1EAF
  8
0
 10
91.325411038962557
 20
80.880148502911297
 30
0.0
 11
91.575411038963679
 21
81.024486070209349
 31
0.0
  0
LINE
  5
1EB0
  8
0
 10
91.575411038963679
 20
81.024486070209349
 30
0.0
 11
104.07541103896079
 21
81.024486070209349
 31
0.0
  0
LINE
  5
1EB1
  8
0
 10
104.0754110389601
 20
74.524486070209349
 30
0.0
 11
91.575411038962883
 21
74.524486070209349
 31
0.0
  0
ARC
  5
1EB2
  8
0
 10
91.763233212470283
 20
56.790893765326793
 30
0.0
 40
3.5781518477924039
 50
55.615752531961562
 51
115.6157525321739
  0
ARC
  5
1EB3
  8
0
 10
97.82541103896223
 20
46.994260395465439
 30
0.0
 40
13.374785217653811
 50
72.412046225997088
 51
107.5879537740046
  0
LINE
  5
1EB4
  8
0
 10
89.742507270306447
 20
59.743830830779942
 30
0.0
 11
91.094641808193259
 21
60.524486070209477
 31
0.0
  0
LINE
  5
1EB5
  8
0
 10
89.742507270306447
 20
56.305141309639147
 30
0.0
 11
91.094641808193259
 21
55.524486070209591
 31
0.0
  0
ARC
  5
1EB6
  8
0
 10
91.763233212470283
 20
59.258078375092268
 30
0.0
 40
3.5781518477924039
 50
244.3842474678261
 51
304.38424746803821
  0
ARC
  5
1EB7
  8
0
 10
97.82541103896223
 20
69.054711744953593
 30
0.0
 40
13.374785217653811
 50
252.41204622599531
 51
287.58795377400293
  0
LINE
  5
1EB8
  8
0
 10
89.742507270306447
 20
59.743830830779942
 30
0.0
 11
89.742507270306447
 21
56.305141309639147
 31
0.0
  0
LINE
  5
1EB9
  8
0
 10
93.783959154635653
 20
59.743830830778784
 30
0.0
 11
93.783959154633834
 21
56.305141309640803
 31
0.0
  0
LINE
  5
1EBA
  8
0
 10
101.8668629232869
 20
59.743830830780468
 30
0.0
 11
101.86686292328871
 21
56.305141309640803
 31
0.0
  0
LINE
  5
1EBB
  8
0
 10
105.90831480761599
 20
59.74383083077997
 30
0.0
 11
105.90831480761599
 21
56.305141309639147
 31
0.0
  0
ARC
  5
1EBC
  8
0
 10
103.8875888654522
 20
59.258078375092268
 30
0.0
 40
3.5781518477924039
 50
235.61575253196139
 51
295.61575253217387
  0
LINE
  5
1EBD
  8
0
 10
105.90831480761599
 20
56.305141309639147
 30
0.0
 11
104.5561802697292
 21
55.524486070209591
 31
0.0
  0
LINE
  5
1EBE
  8
0
 10
105.90831480761599
 20
59.743830830779942
 30
0.0
 11
104.5561802697292
 21
60.524486070209477
 31
0.0
  0
ARC
  5
1EBF
  8
0
 10
103.8875888654522
 20
56.790893765326793
 30
0.0
 40
3.5781518477924039
 50
64.384247467826086
 51
124.3842474680385
  0
LINE
  5
1EC0
  8
0
 10
91.094641808192065
 20
60.524486070209477
 30
0.0
 11
104.556180269729
 21
60.524486070209477
 31
0.0
  0
LINE
  5
1EC1
  8
0
 10
104.5561802697292
 20
55.524486070209591
 30
0.0
 11
91.094641808193487
 21
55.524486070209591
 31
0.0
  0
LINE
  5
203D
  8
0
 10
26.539848953144539
 20
154.19551616367411
 30
0.0
 11
26.539848953144539
 21
151.029708626364
 31
0.0
  0
LINE
  5
203E
  8
0
 10
26.539848953144539
 20
149.27841993232951
 30
0.0
 11
26.539848953144539
 21
146.11261239501931
 31
0.0
  0
LINE
  5
203F
  8
0
 10
40.539848953144542
 20
154.19551616367411
 30
0.0
 11
40.539848953144542
 21
151.029708626364
 31
0.0
  0
LINE
  5
2040
  8
0
 10
40.539848953144542
 20
149.27841993232951
 30
0.0
 11
40.539848953144542
 21
146.11261239501931
 31
0.0
  0
LINE
  5
2041
  8
0
 10
26.539848953144539
 20
146.11261239501931
 30
0.0
 11
29.281518703947281
 21
144.5297086263644
 31
0.0
  0
LINE
  5
2042
  8
0
 10
30.79817920234191
 20
143.6540642793469
 30
0.0
 11
33.539848953144549
 21
142.07116051069201
 31
0.0
  0
LINE
  5
2043
  8
0
 10
33.539848953144507
 20
158.2369680480015
 30
0.0
 11
36.281518703947206
 21
156.6540642793465
 31
0.0
  0
LINE
  5
2044
  8
0
 10
37.79817920234175
 20
155.7784199323292
 30
0.0
 11
40.539848953144542
 21
154.19551616367411
 31
0.0
  0
LINE
  5
2045
  8
0
 10
40.539848953144521
 20
146.11261239501931
 30
0.0
 11
37.798179202341693
 21
144.52970862636431
 31
0.0
  0
LINE
  5
2046
  8
0
 10
36.281518703947249
 20
143.6540642793469
 30
0.0
 11
33.539848953144549
 21
142.07116051069201
 31
0.0
  0
LINE
  5
2047
  8
0
 10
33.539848953144492
 20
158.2369680480015
 30
0.0
 11
30.798179202341881
 21
156.6540642793465
 31
0.0
  0
LINE
  5
2048
  8
0
 10
29.281518703947299
 20
155.77841993232909
 30
0.0
 11
26.539848953144539
 21
154.19551616367411
 31
0.0
  0
LINE
  5
2173
  8
0
 10
33.539848953144592
 20
59.743830830780041
 30
0.0
 11
33.53984895314472
 21
56.30514130963892
 31
0.0
  0
TEXT
  5
22CA
  8
0
 62
     3
 10
0.0
 20
0.0
 30
0.0
 40
10.0
  1
LSAR40S8A
  7
STANDARD1
  0
ENDSEC
  0
EOF
