  0
SECTION
  2
HEADER
  9
$ACADVER
  1
AC1009
  9
$INSBASE
 10
0.0
 20
0.0
 30
0.0
  9
$EXTMIN
 10
0.0
 20
-2.960436562073669
 30
0.0
  9
$EXTMAX
 10
117.295988346255
 20
289.70163269893192
 30
0.0
  9
$LIMMIN
 10
0.0
 20
0.0
  9
$LIMMAX
 10
375.0
 20
270.0
  9
$ORTHOMODE
 70
     1
  9
$REGENMODE
 70
     1
  9
$FILLMODE
 70
     1
  9
$QTEXTMODE
 70
     0
  9
$MIRRTEXT
 70
     0
  9
$DRAGMODE
 70
     2
  9
$LTSCALE
 40
6.0
  9
$OSMODE
 70
    37
  9
$ATTMODE
 70
     1
  9
$TEXTSIZE
 40
0.2
  9
$TRACEWID
 40
0.05
  9
$TEXTSTYLE
  7
STANDARD
  9
$CLAYER
  8
0
  9
$CELTYPE
  6
BYLAYER
  9
$CECOLOR
 62
   256
  9
$DIMSCALE
 40
1.0
  9
$DIMASZ
 40
3.0
  9
$DIMEXO
 40
1.0
  9
$DIMDLI
 40
6.0
  9
$DIMRND
 40
0.0
  9
$DIMDLE
 40
0.0
  9
$DIMEXE
 40
1.0
  9
$DIMTP
 40
495.0
  9
$DIMTM
 40
0.0
  9
$DIMTXT
 40
3.0
  9
$DIMCEN
 40
0.0
  9
$DIMTSZ
 40
0.0
  9
$DIMTOL
 70
     0
  9
$DIMLIM
 70
     0
  9
$DIMTIH
 70
     0
  9
$DIMTOH
 70
     0
  9
$DIMSE1
 70
     0
  9
$DIMSE2
 70
     0
  9
$DIMTAD
 70
     1
  9
$DIMZIN
 70
     0
  9
$DIMBLK
  1

  9
$DIMASO
 70
     0
  9
$DIMSHO
 70
     0
  9
$DIMPOST
  1

  9
$DIMAPOST
  1

  9
$DIMALT
 70
     0
  9
$DIMALTD
 70
     2
  9
$DIMALTF
 40
25.399999999999999
  9
$DIMLFAC
 40
1.0
  9
$DIMTOFL
 70
     1
  9
$DIMTVP
 40
0.0
  9
$DIMTIX
 70
     1
  9
$DIMSOXD
 70
     0
  9
$DIMSAH
 70
     0
  9
$DIMBLK1
  1

  9
$DIMBLK2
  1

  9
$DIMSTYLE
  2
STANDARD
  9
$DIMCLRD
 70
     0
  9
$DIMCLRE
 70
     0
  9
$DIMCLRT
 70
     4
  9
$DIMTFAC
 40
1.0
  9
$DIMGAP
 40
1.0
  9
$LUNITS
 70
     2
  9
$LUPREC
 70
     4
  9
$SKETCHINC
 40
0.1
  9
$FILLETRAD
 40
2.0
  9
$AUNITS
 70
     0
  9
$AUPREC
 70
     0
  9
$MENU
  1
C:\R13\WIN\SUPPORT\ACAD-I
  9
$ELEVATION
 40
0.0
  9
$PELEVATION
 40
0.0
  9
$THICKNESS
 40
0.0
  9
$LIMCHECK
 70
     0
  9
$BLIPMODE
 70
     0
  9
$CHAMFERA
 40
0.0
  9
$CHAMFERB
 40
0.0
  9
$SKPOLY
 70
     0
  9
$TDCREATE
 40
2451961.7177645951
  9
$TDUPDATE
 40
2456598.7185190618
  9
$TDINDWG
 40
0.0922897106
  9
$TDUSRTIMER
 40
2456598.0221807989
  9
$USRTIMER
 70
     1
  9
$ANGBASE
 50
0.0
  9
$ANGDIR
 70
     0
  9
$PDMODE
 70
     0
  9
$PDSIZE
 40
0.0
  9
$PLINEWID
 40
0.0
  9
$COORDS
 70
     1
  9
$SPLFRAME
 70
     0
  9
$SPLINETYPE
 70
     6
  9
$SPLINESEGS
 70
     8
  9
$ATTDIA
 70
     0
  9
$ATTREQ
 70
     1
  9
$HANDLING
 70
     1
  9
$HANDSEED
  5
30F1
  9
$SURFTAB1
 70
     6
  9
$SURFTAB2
 70
     6
  9
$SURFTYPE
 70
     6
  9
$SURFU
 70
     6
  9
$SURFV
 70
     6
  9
$UCSNAME
  2

  9
$UCSORG
 10
0.0
 20
0.0
 30
0.0
  9
$UCSXDIR
 10
1.0
 20
0.0
 30
0.0
  9
$UCSYDIR
 10
0.0
 20
1.0
 30
0.0
  9
$PUCSNAME
  2

  9
$PUCSORG
 10
0.0
 20
0.0
 30
0.0
  9
$PUCSXDIR
 10
1.0
 20
0.0
 30
0.0
  9
$PUCSYDIR
 10
0.0
 20
1.0
 30
0.0
  9
$USERI1
 70
     4
  9
$USERI2
 70
     1
  9
$USERI3
 70
     0
  9
$USERI4
 70
     0
  9
$USERI5
 70
     0
  9
$USERR1
 40
1.0
  9
$USERR2
 40
3.0
  9
$USERR3
 40
3.0
  9
$USERR4
 40
3.0
  9
$USERR5
 40
10.0
  9
$WORLDVIEW
 70
     1
  9
$SHADEDGE
 70
     3
  9
$SHADEDIF
 70
    70
  9
$TILEMODE
 70
     1
  9
$MAXACTVP
 70
    16
  9
$PLIMCHECK
 70
     0
  9
$PEXTMIN
 10
1.0000000000000000E+020
 20
1.0000000000000000E+020
 30
1.0000000000000000E+020
  9
$PEXTMAX
 10
-1.0000000000000000E+020
 20
-1.0000000000000000E+020
 30
-1.0000000000000000E+020
  9
$PLIMMIN
 10
0.0
 20
0.0
  9
$PLIMMAX
 10
12.0
 20
9.0
  9
$UNITMODE
 70
     0
  9
$VISRETAIN
 70
     0
  9
$PLINEGEN
 70
     0
  9
$PSLTSCALE
 70
     0
  0
ENDSEC
  0
SECTION
  2
TABLES
  0
TABLE
  2
VPORT
 70
     1
  0
VPORT
  2
*ACTIVE
 70
     0
 10
0.0
 20
0.0
 11
1.0
 21
1.0
 12
187.49427839065231
 22
183.94256731617861
 13
0.0
 23
0.0
 14
10.0
 24
10.0
 15
10.0
 25
10.0
 16
0.0
 26
0.0
 36
1.0
 17
0.0
 27
0.0
 37
0.0
 40
377.08384911723311
 41
1.7552447552447541
 42
50.0
 43
0.0
 44
0.0
 50
0.0
 51
0.0
 71
    16
 72
   100
 73
     1
 74
     0
 75
     0
 76
     0
 77
     0
 78
     0
  0
ENDTAB
  0
TABLE
  2
LTYPE
 70
     3
  0
LTYPE
  2
CONTINUOUS
 70
     0
  3
Solid Line
 72
    65
 73
     0
 40
0.0
  0
LTYPE
  2
PHANTOM2
 70
     0
  3
___ _ _ ___ _ _ ___ _ _ ___ _ _
 72
    65
 73
     6
 40
1.25
 49
0.625
 49
-0.125
 49
0.125
 49
-0.125
 49
0.125
 49
-0.125
  0
LTYPE
  2
CENTER
 70
     0
  3
____ _ ____ _ ____ _ ____ _ ____ _ ____ _ ____
 72
    65
 73
     4
 40
2.0
 49
1.25
 49
-0.25
 49
0.25
 49
-0.25
  0
ENDTAB
  0
TABLE
  2
LAYER
 70
     3
  0
LAYER
  2
0
 70
     0
 62
     7
  6
CONTINUOUS
  0
LAYER
  2
1
 70
     0
 62
     1
  6
CENTER
  0
LAYER
  2
3
 70
     0
 62
     3
  6
CONTINUOUS
  0
ENDTAB
  0
TABLE
  2
STYLE
 70
     3
  0
STYLE
  2
STANDARD
 70
     0
 40
0.0
 41
1.0
 50
0.0
 71
     0
 42
0.2
  3
SIMPLEX
  4
BIGFONT
  0
STYLE
  2
ANNOTATIVE
 70
     0
 40
0.0
 41
1.0
 50
0.0
 71
     0
 42
0.2
  3
txt
  4

  0
STYLE
  2
STANDARD1
 70
     0
 40
0.0
 41
1.0
 50
0.0
 71
     0
 42
3.0
  3
txt
  4

  0
ENDTAB
  0
TABLE
  2
VIEW
 70
     0
  0
ENDTAB
  0
TABLE
  2
UCS
 70
     0
  0
ENDTAB
  0
TABLE
  2
APPID
 70
    29
  0
APPID
  2
ACAD
 70
     0
  0
APPID
  2
ACADANNOTATIVE
 70
     0
  0
APPID
  2
GENIUS_GENOREF_13
 70
     0
  0
APPID
  2
GENIUS_GENOENT_13
 70
     0
  0
APPID
  2
GENIUS_GENBH_13
 70
     0
  0
APPID
  2
GENIUS_GENOBJ_13
 70
     0
  0
APPID
  2
GENIUS_GENODEF_13
 70
     0
  0
APPID
  2
GENIUS_GENOLIS_13
 70
     0
  0
APPID
  2
GENIUS_GENOBJ-NBEHI-BHF_13
 70
     0
  0
APPID
  2
GENIUS_GENOBJ-NBEHI-BHB_13
 70
     0
  0
APPID
  2
GENIUS_GENOBJ-F-PART_13
 70
     0
  0
APPID
  2
GENIUS_GEFSTDP_13
 70
     0
  0
APPID
  2
GENIUS_GENOBJ-N-RSSYM_13
 70
     0
  0
APPID
  2
GENIUS_GENSYMENT_13
 70
     0
  0
APPID
  2
GENIUS_GENOBJ-N-TIT_13
 70
     0
  0
APPID
  2
GENIUS_GENTITLE_13
 70
     0
  0
APPID
  2
GENIUS_GENZVEED_13
 70
     0
  0
APPID
  2
GENIUS_GENOBJ-N-LEADER_13
 70
     0
  0
APPID
  2
GENIUS_GENOBJ-N-FIL_13
 70
     0
  0
APPID
  2
GENIUS_GENOBJ-N-SEC_13
 70
     0
  0
APPID
  2
GENIUS_GENOBJ-N-CRS_13
 70
     0
  0
APPID
  2
GENIUS_GENOBJ-N-ZOO_13
 70
     0
  0
APPID
  2
GENIUS_GENZOO_13
 70
     0
  0
APPID
  2
GENIUS_GENOBJ-F-TOL_13
 70
     0
  0
APPID
  2
GENIUS_GENFIL_13
 70
     0
  0
APPID
  2
GENIUS_GENOBJ-N-CHA_13
 70
     0
  0
APPID
  2
ACAD_MLEADERVER
 70
     0
  0
APPID
  2
ACAD_EXEMPT_FROM_CAD_STANDARDS
 70
     0
  0
APPID
  2
ACAD_NAV_VCDISPLAY
 70
     0
  0
ENDTAB
  0
TABLE
  2
DIMSTYLE
 70
     2
  0
DIMSTYLE
  2
STANDARD
 70
     0
  3

  4

  5

  6

  7

 40
1.0
 41
0.18
 42
0.0625
 43
0.38
 44
0.18
 45
0.0
 46
0.0
 47
0.0
 48
0.0
140
0.18
141
0.09
142
0.0
143
25.399999999999999
144
1.0
145
0.0
146
1.0
147
0.09
 71
     0
 72
     0
 73
     1
 74
     1
 75
     0
 76
     0
 77
     0
 78
     0
170
     0
171
     2
172
     0
173
     0
174
     0
175
     0
176
     0
177
     0
178
     0
  0
DIMSTYLE
  2
ANNOTATIVE
 70
     0
  3

  4

  5

  6

  7

 40
1.0
 41
0.18
 42
0.0625
 43
0.38
 44
0.18
 45
0.0
 46
0.0
 47
0.0
 48
0.0
140
0.18
141
0.09
142
0.0
143
25.399999999999999
144
1.0
145
0.0
146
1.0
147
0.09
 71
     0
 72
     0
 73
     1
 74
     1
 75
     0
 76
     0
 77
     0
 78
     0
170
     0
171
     2
172
     0
173
     0
174
     0
175
     0
176
     0
177
     0
178
     0
  0
ENDTAB
  0
ENDSEC
  0
SECTION
  2
BLOCKS
  0
BLOCK
  8
0
  2
$MODEL_SPACE
 70
     0
 10
0.0
 20
0.0
 30
0.0
  3
$MODEL_SPACE
  1

  0
ENDBLK
  5
2FB8
  8
0
  0
BLOCK
 67
     1
  8
0
  2
$PAPER_SPACE
 70
     0
 10
0.0
 20
0.0
 30
0.0
  3
$PAPER_SPACE
  1

  0
ENDBLK
  5
2FB4
 67
     1
  8
0
  0
ENDSEC
  0
SECTION
  2
ENTITIES
  0
LINE
  5
29C8
  8
1
 10
56.010426260438628
 20
266.70163269893192
 30
0.0
 11
10.01042626043863
 21
266.70163269893192
 31
0.0
  0
LINE
  5
29C9
  8
1
 10
33.010426260438649
 20
289.70163269893192
 30
0.0
 11
33.010426260438649
 21
243.70163269893189
 31
0.0
  0
CIRCLE
  5
29CA
  8
0
 10
33.010426260438649
 20
266.70163269893192
 30
0.0
 40
11.500000000000011
  0
CIRCLE
  5
29CC
  8
0
 10
33.010426260438649
 20
266.70163269893192
 30
0.0
 40
20.0
  0
LINE
  5
29EB
  8
0
 10
39.938629490713993
 20
278.70163269893192
 30
0.0
 11
26.082223030163281
 21
278.70163269893192
 31
0.0
  0
LINE
  5
29EC
  8
0
 10
26.082223030163281
 20
278.70163269893192
 30
0.0
 11
19.154019799887461
 21
266.70163269893192
 31
0.0
  0
LINE
  5
29ED
  8
0
 10
19.154019799887461
 20
266.70163269893192
 30
0.0
 11
26.082223030163281
 21
254.70163269893189
 31
0.0
  0
LINE
  5
29EE
  8
0
 10
26.082223030163281
 20
254.70163269893189
 30
0.0
 11
39.938629490713993
 21
254.70163269893189
 31
0.0
  0
LINE
  5
29EF
  8
0
 10
39.938629490713993
 20
254.70163269893189
 30
0.0
 11
46.866832720989812
 21
266.70163269893192
 31
0.0
  0
LINE
  5
29F0
  8
0
 10
46.866832720989812
 20
266.70163269893192
 30
0.0
 11
39.938629490713993
 21
278.70163269893192
 31
0.0
  0
CIRCLE
  5
29F1
  8
0
 10
33.010426260438649
 20
266.70163269893192
 30
0.0
 40
8.0
  0
CIRCLE
  5
29F2
  8
3
 10
33.010426260438649
 20
266.70163269893192
 30
0.0
 40
6.9175000000000004
  0
ARC
  5
29F5
  8
0
 10
103.2959883462882
 20
75.208552206076391
 30
0.0
 40
17.330127017333279
 50
69.7438419976408
 51
110.2561580023591
  0
LINE
  5
29F6
  8
0
 10
109.2959883463032
 20
92.538679223409716
 30
0.0
 11
108.7959883462882
 21
92.827354358012883
 31
0.0
  0
LINE
  5
29F7
  8
0
 10
109.2959883463032
 20
80.116029492539667
 30
0.0
 11
108.7959883462882
 21
79.827354357936031
 31
0.0
  0
ARC
  5
29F8
  8
0
 10
103.2959883462882
 20
97.446156509872992
 30
0.0
 40
17.330127017333279
 50
249.7438419976408
 51
290.2561580023592
  0
LINE
  5
29F9
  8
0
 10
109.2959883463032
 20
92.538679223409716
 30
0.0
 11
109.2959883462882
 21
80.116029492531027
 31
0.0
  0
LINE
  5
29FB
  8
0
 10
85.295988346273205
 20
92.538679223409716
 30
0.0
 11
85.295988346288226
 21
80.116029492531027
 31
0.0
  0
ARC
  5
29FC
  8
0
 10
91.295988346288198
 20
97.446156509872992
 30
0.0
 40
17.330127017333279
 50
249.7438419976408
 51
290.2561580023592
  0
LINE
  5
29FD
  8
0
 10
85.295988346273205
 20
80.116029492539667
 30
0.0
 11
85.795988346288226
 21
79.827354357936031
 31
0.0
  0
LINE
  5
29FE
  8
0
 10
85.295988346273205
 20
92.538679223409716
 30
0.0
 11
85.795988346288226
 21
92.827354358012883
 31
0.0
  0
ARC
  5
29FF
  8
0
 10
91.295988346288198
 20
75.208552206076391
 30
0.0
 40
17.330127017333279
 50
69.7438419976408
 51
110.2561580023591
  0
LINE
  5
2A00
  8
0
 10
85.795988346221804
 20
92.827354357974684
 30
0.0
 11
108.7959883462882
 21
92.827354358012883
 31
0.0
  0
LINE
  5
2A01
  8
0
 10
108.7959883462882
 20
79.827354357936031
 30
0.0
 11
85.795988346221804
 21
79.827354357974698
 31
0.0
  0
ARC
  5
2A23
  8
0
 10
33.010426260438408
 20
69.610475995250908
 30
0.0
 40
22.928203228139491
 50
72.412046224314139
 51
107.5879537756858
  0
ARC
  5
2A24
  8
0
 10
22.61812141502492
 20
86.404704627669616
 30
0.0
 40
6.1339745957208196
 50
55.615752528788683
 51
115.6157525301479
  0
LINE
  5
2A25
  8
0
 10
19.154019799865399
 20
91.466882453561084
 30
0.0
 11
21.510426260546179
 21
92.827354357955301
 31
0.0
  0
LINE
  5
2A26
  8
0
 10
19.154019799865399
 20
81.187826262349503
 30
0.0
 11
21.510426260546179
 21
79.827354357955301
 31
0.0
  0
ARC
  5
2A27
  8
0
 10
22.61812141502492
 20
86.250004088240985
 30
0.0
 40
6.1339745957208196
 50
244.38424746985211
 51
304.38424747121132
  0
ARC
  5
2A28
  8
0
 10
33.010426260438408
 20
103.04423272065971
 30
0.0
 40
22.928203228139491
 50
252.41204622431411
 51
287.58795377568589
  0
LINE
  5
2A29
  8
0
 10
19.154019799887241
 20
91.466882453561084
 30
0.0
 11
19.154019799887241
 21
81.187826262336785
 31
0.0
  0
LINE
  5
2A2A
  8
0
 10
26.08222303016305
 20
91.466882453561084
 30
0.0
 11
26.08222303016305
 21
81.187826262349503
 31
0.0
  0
LINE
  5
2A2B
  8
0
 10
39.938629490713772
 20
91.466882453561084
 30
0.0
 11
39.938629490713772
 21
81.187826262349503
 31
0.0
  0
LINE
  5
2A2C
  8
0
 10
46.866832720989571
 20
91.466882453561084
 30
0.0
 11
46.866832720989571
 21
81.187826262336785
 31
0.0
  0
ARC
  5
2A2D
  8
0
 10
43.402731105851892
 20
86.250004088240985
 30
0.0
 40
6.1339745957208196
 50
235.6157525287887
 51
295.6157525301478
  0
LINE
  5
2A2E
  8
0
 10
46.866832721011413
 20
81.187826262349503
 30
0.0
 11
44.510426260330632
 21
79.827354357955301
 31
0.0
  0
LINE
  5
2A2F
  8
0
 10
46.866832721011413
 20
91.466882453561084
 30
0.0
 11
44.510426260330632
 21
92.827354357955301
 31
0.0
  0
ARC
  5
2A30
  8
0
 10
43.402731105851892
 20
86.404704627669616
 30
0.0
 40
6.1339745957208196
 50
64.38424746985207
 51
124.3842474712113
  0
LINE
  5
2A31
  8
0
 10
21.510426260438411
 20
92.827354357955301
 30
0.0
 11
44.510426260330632
 21
92.827354357955301
 31
0.0
  0
LINE
  5
2A32
  8
0
 10
44.510426260330632
 20
79.827354357955301
 30
0.0
 11
21.510426260546179
 21
79.827354357955301
 31
0.0
  0
LINE
  5
2A36
  8
0
 10
41.010426260438628
 20
218.03867922339029
 30
0.0
 11
25.010426260438638
 21
218.03867922339029
 31
0.0
  0
LINE
  5
2A37
  8
0
 10
39.010426260438642
 20
220.03867922339029
 30
0.0
 11
41.010426260438628
 21
218.03867922339029
 31
0.0
  0
LINE
  5
2A38
  8
0
 10
25.010426260438638
 20
218.03867922339049
 30
0.0
 11
27.010426260438638
 21
220.03867922339029
 31
0.0
  0
LINE
  5
2A39
  8
0
 10
25.010426260438638
 20
51.902832101227631
 30
0.0
 11
25.010426260438638
 21
79.827354357955301
 31
0.0
  0
LINE
  5
2A3A
  8
3
 10
26.09292626043862
 20
54.038679223390631
 30
0.0
 11
26.09292626043862
 21
79.827354357955301
 31
0.0
  0
LINE
  5
2A3B
  8
3
 10
39.927926260438653
 20
54.038679223390631
 30
0.0
 11
39.927926260438653
 21
79.827354357955301
 31
0.0
  0
LINE
  5
2A3C
  8
0
 10
41.010426260438628
 20
51.902832101227681
 30
0.0
 11
41.010426260438628
 21
79.827354357955301
 31
0.0
  0
LINE
  5
2A3D
  8
0
 10
27.010426260438638
 20
220.03867922339029
 30
0.0
 11
39.010426260438642
 21
220.03867922339029
 31
0.0
  0
LINE
  5
2A4B
  8
3
 10
39.927926260438653
 20
92.827354357955301
 30
0.0
 11
39.927926260438653
 21
219.1211792233903
 31
0.0
  0
LINE
  5
2A4C
  8
0
 10
41.010426260438628
 20
92.827354357955301
 30
0.0
 11
41.010426260438628
 21
218.03867922339029
 31
0.0
  0
LINE
  5
2A4D
  8
3
 10
26.09292626043862
 20
92.827354357955301
 30
0.0
 11
26.09292626043862
 21
219.1211792233903
 31
0.0
  0
LINE
  5
2A4E
  8
0
 10
25.010426260438638
 20
92.827354357955301
 30
0.0
 11
25.010426260438638
 21
218.03867922339049
 31
0.0
  0
LINE
  5
2A54
  8
1
 10
33.010426260438649
 20
21.038679223390311
 30
0.0
 11
33.010426260438649
 21
223.03867922339029
 31
0.0
  0
LINE
  5
2A55
  8
1
 10
97.295988346254944
 20
21.038679223390311
 30
0.0
 11
97.295988346255186
 21
223.03867922339029
 31
0.0
  0
LINE
  5
2C84
  8
0
 10
25.245720378085679
 20
47.038679223390389
 30
0.0
 11
40.775132142791598
 21
47.038679223390389
 31
0.0
  0
LINE
  5
2C85
  8
0
 10
40.775132142790582
 20
52.038679223390389
 30
0.0
 11
25.24572037808667
 21
52.038679223390389
 31
0.0
  0
ARC
  5
2C86
  8
0
 10
29.010426260438692
 20
40.349414088600341
 30
0.0
 40
11.55341801262729
 50
69.743841999607554
 51
110.2561580003924
  0
LINE
  5
2C87
  8
0
 10
25.010426260438638
 20
51.902832101227631
 30
0.0
 11
25.24572037808667
 21
52.038679223390389
 31
0.0
  0
ARC
  5
2C88
  8
0
 10
29.01042626043866
 20
58.727944358179883
 30
0.0
 40
11.55341801262729
 50
249.74384199960909
 51
290.25615800039242
  0
LINE
  5
2C89
  8
0
 10
25.01042626043861
 20
47.174526345552721
 30
0.0
 11
25.245720378086649
 21
47.038679223389842
 31
0.0
  0
LINE
  5
2C8A
  8
0
 10
25.010426260438638
 20
51.902832101227631
 30
0.0
 11
25.01042626043866
 21
47.174526345552721
 31
0.0
  0
LINE
  5
2C8B
  8
0
 10
33.010426260438692
 20
51.188300921411688
 30
0.0
 11
33.010426260438663
 21
47.889057525368308
 31
0.0
  0
LINE
  5
2C8C
  8
0
 10
41.010426260438742
 20
51.902832101227631
 30
0.0
 11
41.010426260438663
 21
47.174526345552721
 31
0.0
  0
ARC
  5
2C8D
  8
0
 10
37.01042626043867
 20
58.727944358179883
 30
0.0
 40
11.55341801262729
 50
249.74384199960909
 51
290.25615800039242
  0
LINE
  5
2C8E
  8
0
 10
41.01042626043872
 20
47.174526345552721
 30
0.0
 11
40.775132142790611
 21
47.038679223389842
 31
0.0
  0
LINE
  5
2C8F
  8
0
 10
41.010426260438742
 20
51.902832101227631
 30
0.0
 11
40.775132142790639
 21
52.038679223390389
 31
0.0
  0
ARC
  5
2C90
  8
0
 10
37.010426260438678
 20
40.349414088600341
 30
0.0
 40
11.55341801262729
 50
69.743841999607596
 51
110.2561580003924
  0
LINE
  5
2C91
  8
0
 10
25.01042626043921
 20
54.038679223390623
 30
0.0
 11
41.010426260439203
 21
54.038679223390623
 31
0.0
  0
LINE
  5
2C92
  8
3
 10
26.092926260439189
 20
54.038679223390623
 30
0.0
 11
25.01042626043921
 21
52.16373422419732
 31
0.0
  0
LINE
  5
2C93
  8
3
 10
39.927926260439222
 20
54.038679223390623
 30
0.0
 11
41.010426260439203
 21
52.16373422419732
 31
0.0
  0
LINE
  5
2C94
  8
0
 10
38.510426260437733
 20
44.03867922339041
 30
0.0
 11
38.51042626043855
 21
47.038679223390389
 31
0.0
  0
LINE
  5
2C95
  8
0
 10
27.510426260437729
 20
44.03867922339041
 30
0.0
 11
27.51042626043855
 21
47.038679223390389
 31
0.0
  0
LINE
  5
2C99
  8
0
 10
105.01430916366201
 20
47.038679223390631
 30
0.0
 11
89.484897398955454
 21
47.038679223390631
 31
0.0
  0
LINE
  5
2C9A
  8
0
 10
89.484897398955781
 20
52.038679223390737
 30
0.0
 11
105.01430916366191
 21
52.038679223390517
 31
0.0
  0
ARC
  5
2C9B
  8
0
 10
104.17780651158419
 20
47.813515703746901
 30
0.0
 40
4.0893163974808306
 50
64.384247467890859
 51
124.3842474680048
  0
LINE
  5
2C9C
  8
0
 10
106.4872075883427
 20
51.18830092141215
 30
0.0
 11
105.01430916366159
 21
52.038679223390737
 31
0.0
  0
LINE
  5
2C9D
  8
0
 10
106.4872075883426
 20
47.889057525368997
 30
0.0
 11
105.01430916366159
 21
47.038679223390389
 31
0.0
  0
ARC
  5
2C9E
  8
0
 10
104.17780651158419
 20
51.263842743034253
 30
0.0
 40
4.0893163974808306
 50
235.61575253199521
 51
295.61575253210918
  0
LINE
  5
2C9F
  8
0
 10
106.4872075883427
 20
51.18830092141215
 30
0.0
 11
106.4872075883426
 21
47.889057525368997
 31
0.0
  0
LINE
  5
2CA0
  8
0
 10
101.8684054348267
 20
51.18830092141215
 30
0.0
 11
101.868405434826
 21
47.88905752536877
 31
0.0
  0
LINE
  5
2CA1
  8
0
 10
92.630801127790775
 20
51.18830092141215
 30
0.0
 11
92.630801127791344
 21
47.88905752536877
 31
0.0
  0
LINE
  5
2CA2
  8
0
 10
88.011998974274775
 20
51.18830092141215
 30
0.0
 11
88.011998974274775
 21
47.889057525368997
 31
0.0
  0
ARC
  5
2CA3
  8
0
 10
97.249603281308211
 20
62.459995165757249
 30
0.0
 40
15.28546882020385
 50
252.41204622602959
 51
287.58795377396882
  0
ARC
  5
2CA4
  8
0
 10
90.321400051033194
 20
51.263842743034253
 30
0.0
 40
4.0893163974808306
 50
244.38424746789079
 51
304.38424746800479
  0
LINE
  5
2CA5
  8
0
 10
88.011998974274775
 20
47.889057525368997
 30
0.0
 11
89.484897398955766
 21
47.038679223390389
 31
0.0
  0
LINE
  5
2CA6
  8
0
 10
88.011998974274775
 20
51.18830092141215
 30
0.0
 11
89.484897398955781
 21
52.038679223390737
 31
0.0
  0
ARC
  5
2CA7
  8
0
 10
97.249603281308225
 20
36.617363281023898
 30
0.0
 40
15.28546882020385
 50
72.412046226031137
 51
107.58795377396881
  0
ARC
  5
2CA8
  8
0
 10
90.321400051033237
 20
47.813515703746901
 30
0.0
 40
4.0893163974808306
 50
55.615752531995142
 51
115.615752532109
  0
LINE
  5
2CA9
  8
0
 10
91.795988346255058
 20
44.038679223390318
 30
0.0
 11
91.795988346255854
 21
47.038679223390517
 31
0.0
  0
LINE
  5
2CAA
  8
0
 10
102.795988346255
 20
44.038679223390318
 30
0.0
 11
102.7959883462558
 21
47.038679223390517
 31
0.0
  0
LINE
  5
2CAB
  8
0
 10
45.016489686937312
 20
38.073767650322388
 30
0.0
 11
44.010426260438628
 21
44.03867922339041
 31
0.0
  0
LINE
  5
2CAC
  8
0
 10
53.010426260438628
 20
32.538679223390403
 30
0.0
 11
45.016489686937312
 21
38.073767650322388
 31
0.0
  0
LINE
  5
2CAD
  8
0
 10
52.510426260438628
 20
27.0386792233904
 30
0.0
 11
53.010426260438628
 21
27.5386792233904
 31
0.0
  0
LINE
  5
2CAE
  8
0
 10
44.010426260438628
 20
44.03867922339041
 30
0.0
 11
22.010426260438638
 21
44.03867922339041
 31
0.0
  0
LINE
  5
2CAF
  8
0
 10
53.010426260438628
 20
32.538679223390403
 30
0.0
 11
13.097701585079729
 21
32.538679223390403
 31
0.0
  0
LINE
  5
2CB0
  8
0
 10
52.510426260438628
 20
27.0386792233904
 30
0.0
 11
13.51042626043863
 21
27.0386792233904
 31
0.0
  0
LINE
  5
2CB1
  8
0
 10
53.010426260438628
 20
27.5386792233904
 30
0.0
 11
53.010426260438628
 21
32.538679223390403
 31
0.0
  0
LINE
  5
2CB2
  8
0
 10
21.00436283393995
 20
38.073767650322388
 30
0.0
 11
22.010426260438638
 21
44.03867922339041
 31
0.0
  0
LINE
  5
2CB3
  8
0
 10
13.01042626043863
 20
32.538679223390403
 30
0.0
 11
21.00436283393995
 21
38.073767650322388
 31
0.0
  0
LINE
  5
2CB4
  8
0
 10
13.51042626043863
 20
27.0386792233904
 30
0.0
 11
13.01042626043863
 21
27.5386792233904
 31
0.0
  0
LINE
  5
2CB5
  8
0
 10
13.01042626043863
 20
27.5386792233904
 30
0.0
 11
13.01042626043863
 21
32.538679223390403
 31
0.0
  0
LINE
  5
2CB6
  8
0
 10
21.00436283393995
 20
38.073767650322388
 30
0.0
 11
45.016489686937312
 21
38.073767650322388
 31
0.0
  0
LINE
  5
2CB7
  8
0
 10
13.51042626043863
 20
24.0386792233904
 30
0.0
 11
52.510426260438628
 21
24.0386792233904
 31
0.0
  0
LINE
  5
2CB8
  8
0
 10
52.510426260438628
 20
24.03867922339029
 30
0.0
 11
52.510426260438393
 21
27.0386792233904
 31
0.0
  0
LINE
  5
2CB9
  8
0
 10
13.51042626043863
 20
24.03867922339029
 30
0.0
 11
13.51042626043863
 21
27.0386792233904
 31
0.0
  0
LINE
  5
2CBA
  8
0
 10
109.3020517727537
 20
38.073767650322303
 30
0.0
 11
108.295988346255
 21
44.038679223390318
 31
0.0
  0
LINE
  5
2CBB
  8
0
 10
117.295988346255
 20
32.538679223390318
 30
0.0
 11
109.3020517727537
 21
38.073767650322303
 31
0.0
  0
LINE
  5
2CBC
  8
0
 10
116.795988346255
 20
27.038679223390321
 30
0.0
 11
117.295988346255
 21
27.538679223390321
 31
0.0
  0
LINE
  5
2CBD
  8
0
 10
108.295988346255
 20
44.038679223390318
 30
0.0
 11
86.295988346255058
 21
44.038679223390318
 31
0.0
  0
LINE
  5
2CBE
  8
0
 10
117.295988346255
 20
32.538679223390318
 30
0.0
 11
77.383263670896142
 21
32.538679223390318
 31
0.0
  0
LINE
  5
2CBF
  8
0
 10
116.795988346255
 20
27.038679223390321
 30
0.0
 11
77.795988346255058
 21
27.038679223390321
 31
0.0
  0
LINE
  5
2CC0
  8
0
 10
117.295988346255
 20
27.538679223390321
 30
0.0
 11
117.295988346255
 21
32.538679223390318
 31
0.0
  0
LINE
  5
2CC1
  8
0
 10
85.289924919756416
 20
38.073767650322303
 30
0.0
 11
86.295988346255058
 21
44.038679223390318
 31
0.0
  0
LINE
  5
2CC2
  8
0
 10
77.295988346255044
 20
32.538679223390318
 30
0.0
 11
85.289924919756416
 21
38.073767650322303
 31
0.0
  0
LINE
  5
2CC3
  8
0
 10
77.795988346255058
 20
27.038679223390321
 30
0.0
 11
77.295988346255044
 21
27.538679223390321
 31
0.0
  0
LINE
  5
2CC4
  8
0
 10
77.295988346255044
 20
27.538679223390321
 30
0.0
 11
77.295988346255044
 21
32.538679223390318
 31
0.0
  0
LINE
  5
2CC5
  8
0
 10
85.289924919756416
 20
38.073767650322303
 30
0.0
 11
109.3020517727537
 21
38.073767650322303
 31
0.0
  0
LINE
  5
2CC6
  8
0
 10
77.795988346255058
 20
24.038679223390311
 30
0.0
 11
116.795988346255
 21
24.038679223390311
 31
0.0
  0
LINE
  5
2CC7
  8
0
 10
116.795988346255
 20
24.038679223390201
 30
0.0
 11
116.7959883462548
 21
27.038679223390321
 31
0.0
  0
LINE
  5
2CC8
  8
0
 10
77.795988346255058
 20
24.038679223390201
 30
0.0
 11
77.795988346255058
 21
27.038679223390321
 31
0.0
  0
LINE
  5
2D9B
  8
0
 10
105.295988346255
 20
218.0386792233902
 30
0.0
 11
89.295988346255058
 21
218.0386792233902
 31
0.0
  0
LINE
  5
2D9C
  8
0
 10
103.295988346255
 20
220.0386792233902
 30
0.0
 11
105.295988346255
 21
218.0386792233902
 31
0.0
  0
LINE
  5
2D9D
  8
0
 10
89.295988346255058
 20
218.0386792233904
 30
0.0
 11
91.295988346255072
 21
220.0386792233902
 31
0.0
  0
LINE
  5
2D9E
  8
0
 10
89.295988346255058
 20
51.902832101227538
 30
0.0
 11
89.295988346255058
 21
79.827354357955215
 31
0.0
  0
LINE
  5
2D9F
  8
3
 10
90.378488346255054
 20
54.038679223390552
 30
0.0
 11
90.378488346255054
 21
79.827354357955215
 31
0.0
  0
LINE
  5
2DA0
  8
3
 10
104.2134883462551
 20
54.038679223390552
 30
0.0
 11
104.2134883462551
 21
79.827354357955215
 31
0.0
  0
LINE
  5
2DA1
  8
0
 10
105.295988346255
 20
51.902832101227602
 30
0.0
 11
105.295988346255
 21
79.827354357955215
 31
0.0
  0
LINE
  5
2DA2
  8
0
 10
91.295988346255072
 20
220.0386792233902
 30
0.0
 11
103.295988346255
 21
220.0386792233902
 31
0.0
  0
LINE
  5
2DA3
  8
3
 10
104.2134883462551
 20
92.827354357955215
 30
0.0
 11
104.2134883462551
 21
219.12117922339019
 31
0.0
  0
LINE
  5
2DA4
  8
0
 10
105.295988346255
 20
92.827354357955215
 30
0.0
 11
105.295988346255
 21
218.0386792233902
 31
0.0
  0
LINE
  5
2DA5
  8
3
 10
90.378488346255054
 20
92.827354357955215
 30
0.0
 11
90.378488346255054
 21
219.12117922339019
 31
0.0
  0
LINE
  5
2DA6
  8
0
 10
89.295988346255058
 20
92.827354357955215
 30
0.0
 11
89.295988346255058
 21
218.0386792233904
 31
0.0
  0
LINE
  5
2DA7
  8
0
 10
89.295988346255626
 20
54.038679223390531
 30
0.0
 11
105.2959883462555
 21
54.038679223390531
 31
0.0
  0
LINE
  5
2DA8
  8
3
 10
90.378488346255608
 20
54.038679223390531
 30
0.0
 11
89.295988346255626
 21
52.163734224197242
 31
0.0
  0
LINE
  5
2DA9
  8
3
 10
104.2134883462556
 20
54.038679223390531
 30
0.0
 11
105.2959883462555
 21
52.163734224197242
 31
0.0
  0
LINE
  5
2EE1
  8
0
 10
97.295988346255044
 20
91.466882453592675
 30
0.0
 11
97.295988346287047
 21
81.18782626236937
 31
0.0
  0
TEXT
  5
3038
  8
0
 62
     3
 10
0.0
 20
0.0
 30
0.0
 40
10.0
  1
LSAR40S16D
  7
STANDARD1
  0
ENDSEC
  0
EOF
