  0
SECTION
  2
HEADER
  9
$ACADVER
  1
AC1009
  9
$INSBASE
 10
0.0
 20
0.0
 30
0.0
  9
$EXTMIN
 10
0.0
 20
-2.960436562073669
 30
0.0
  9
$EXTMAX
 10
116.3317061419876
 20
172.22292609635289
 30
0.0
  9
$LIMMIN
 10
0.0
 20
0.0
  9
$LIMMAX
 10
375.0
 20
270.0
  9
$ORTHOMODE
 70
     1
  9
$REGENMODE
 70
     1
  9
$FILLMODE
 70
     1
  9
$QTEXTMODE
 70
     0
  9
$MIRRTEXT
 70
     0
  9
$DRAGMODE
 70
     2
  9
$LTSCALE
 40
6.0
  9
$OSMODE
 70
    37
  9
$ATTMODE
 70
     1
  9
$TEXTSIZE
 40
0.2
  9
$TRACEWID
 40
0.05
  9
$TEXTSTYLE
  7
STANDARD
  9
$CLAYER
  8
0
  9
$CELTYPE
  6
BYLAYER
  9
$CECOLOR
 62
   256
  9
$DIMSCALE
 40
1.0
  9
$DIMASZ
 40
3.0
  9
$DIMEXO
 40
1.0
  9
$DIMDLI
 40
6.0
  9
$DIMRND
 40
0.0
  9
$DIMDLE
 40
0.0
  9
$DIMEXE
 40
1.0
  9
$DIMTP
 40
495.0
  9
$DIMTM
 40
0.0
  9
$DIMTXT
 40
3.0
  9
$DIMCEN
 40
0.0
  9
$DIMTSZ
 40
0.0
  9
$DIMTOL
 70
     0
  9
$DIMLIM
 70
     0
  9
$DIMTIH
 70
     0
  9
$DIMTOH
 70
     0
  9
$DIMSE1
 70
     0
  9
$DIMSE2
 70
     0
  9
$DIMTAD
 70
     1
  9
$DIMZIN
 70
     0
  9
$DIMBLK
  1

  9
$DIMASO
 70
     0
  9
$DIMSHO
 70
     0
  9
$DIMPOST
  1

  9
$DIMAPOST
  1

  9
$DIMALT
 70
     0
  9
$DIMALTD
 70
     2
  9
$DIMALTF
 40
25.399999999999999
  9
$DIMLFAC
 40
1.0
  9
$DIMTOFL
 70
     1
  9
$DIMTVP
 40
0.0
  9
$DIMTIX
 70
     1
  9
$DIMSOXD
 70
     0
  9
$DIMSAH
 70
     0
  9
$DIMBLK1
  1

  9
$DIMBLK2
  1

  9
$DIMSTYLE
  2
STANDARD
  9
$DIMCLRD
 70
     0
  9
$DIMCLRE
 70
     0
  9
$DIMCLRT
 70
     4
  9
$DIMTFAC
 40
1.0
  9
$DIMGAP
 40
1.0
  9
$LUNITS
 70
     2
  9
$LUPREC
 70
     4
  9
$SKETCHINC
 40
0.1
  9
$FILLETRAD
 40
2.0
  9
$AUNITS
 70
     0
  9
$AUPREC
 70
     0
  9
$MENU
  1
C:\R13\WIN\SUPPORT\ACAD-I
  9
$ELEVATION
 40
0.0
  9
$PELEVATION
 40
0.0
  9
$THICKNESS
 40
0.0
  9
$LIMCHECK
 70
     0
  9
$BLIPMODE
 70
     0
  9
$CHAMFERA
 40
0.0
  9
$CHAMFERB
 40
0.0
  9
$SKPOLY
 70
     0
  9
$TDCREATE
 40
2451961.7146120369
  9
$TDUPDATE
 40
2456598.7184266201
  9
$TDINDWG
 40
0.0578793403
  9
$TDUSRTIMER
 40
2456598.0207536691
  9
$USRTIMER
 70
     1
  9
$ANGBASE
 50
0.0
  9
$ANGDIR
 70
     0
  9
$PDMODE
 70
     0
  9
$PDSIZE
 40
0.0
  9
$PLINEWID
 40
0.0
  9
$COORDS
 70
     1
  9
$SPLFRAME
 70
     0
  9
$SPLINETYPE
 70
     6
  9
$SPLINESEGS
 70
     8
  9
$ATTDIA
 70
     0
  9
$ATTREQ
 70
     1
  9
$HANDLING
 70
     1
  9
$HANDSEED
  5
28D6
  9
$SURFTAB1
 70
     6
  9
$SURFTAB2
 70
     6
  9
$SURFTYPE
 70
     6
  9
$SURFU
 70
     6
  9
$SURFV
 70
     6
  9
$UCSNAME
  2

  9
$UCSORG
 10
0.0
 20
0.0
 30
0.0
  9
$UCSXDIR
 10
1.0
 20
0.0
 30
0.0
  9
$UCSYDIR
 10
0.0
 20
1.0
 30
0.0
  9
$PUCSNAME
  2

  9
$PUCSORG
 10
0.0
 20
0.0
 30
0.0
  9
$PUCSXDIR
 10
1.0
 20
0.0
 30
0.0
  9
$PUCSYDIR
 10
0.0
 20
1.0
 30
0.0
  9
$USERI1
 70
     4
  9
$USERI2
 70
     1
  9
$USERI3
 70
     0
  9
$USERI4
 70
     0
  9
$USERI5
 70
     0
  9
$USERR1
 40
1.0
  9
$USERR2
 40
3.0
  9
$USERR3
 40
3.0
  9
$USERR4
 40
3.0
  9
$USERR5
 40
10.0
  9
$WORLDVIEW
 70
     1
  9
$SHADEDGE
 70
     3
  9
$SHADEDIF
 70
    70
  9
$TILEMODE
 70
     1
  9
$MAXACTVP
 70
    16
  9
$PLIMCHECK
 70
     0
  9
$PEXTMIN
 10
1.0000000000000000E+020
 20
1.0000000000000000E+020
 30
1.0000000000000000E+020
  9
$PEXTMAX
 10
-1.0000000000000000E+020
 20
-1.0000000000000000E+020
 30
-1.0000000000000000E+020
  9
$PLIMMIN
 10
0.0
 20
0.0
  9
$PLIMMAX
 10
12.0
 20
9.0
  9
$UNITMODE
 70
     0
  9
$VISRETAIN
 70
     0
  9
$PLINEGEN
 70
     0
  9
$PSLTSCALE
 70
     0
  0
ENDSEC
  0
SECTION
  2
TABLES
  0
TABLE
  2
VPORT
 70
     1
  0
VPORT
  2
*ACTIVE
 70
     0
 10
0.0
 20
0.0
 11
1.0
 21
1.0
 12
187.49427839065231
 22
177.52205812711131
 13
0.0
 23
0.0
 14
10.0
 24
10.0
 15
10.0
 25
10.0
 16
0.0
 26
0.0
 36
1.0
 17
0.0
 27
0.0
 37
0.0
 40
364.13085016302909
 41
1.755244755244755
 42
50.0
 43
0.0
 44
0.0
 50
0.0
 51
0.0
 71
    16
 72
   100
 73
     1
 74
     0
 75
     0
 76
     0
 77
     0
 78
     0
  0
ENDTAB
  0
TABLE
  2
LTYPE
 70
     3
  0
LTYPE
  2
CONTINUOUS
 70
     0
  3
Solid Line
 72
    65
 73
     0
 40
0.0
  0
LTYPE
  2
PHANTOM2
 70
     0
  3
___ _ _ ___ _ _ ___ _ _ ___ _ _
 72
    65
 73
     6
 40
1.25
 49
0.625
 49
-0.125
 49
0.125
 49
-0.125
 49
0.125
 49
-0.125
  0
LTYPE
  2
CENTER
 70
     0
  3
____ _ ____ _ ____ _ ____ _ ____ _ ____ _ ____
 72
    65
 73
     4
 40
2.0
 49
1.25
 49
-0.25
 49
0.25
 49
-0.25
  0
ENDTAB
  0
TABLE
  2
LAYER
 70
     3
  0
LAYER
  2
0
 70
     0
 62
     7
  6
CONTINUOUS
  0
LAYER
  2
1
 70
     0
 62
     1
  6
CENTER
  0
LAYER
  2
3
 70
     0
 62
     3
  6
CONTINUOUS
  0
ENDTAB
  0
TABLE
  2
STYLE
 70
     3
  0
STYLE
  2
STANDARD
 70
     0
 40
0.0
 41
1.0
 50
0.0
 71
     0
 42
0.2
  3
SIMPLEX
  4
BIGFONT
  0
STYLE
  2
ANNOTATIVE
 70
     0
 40
0.0
 41
1.0
 50
0.0
 71
     0
 42
0.2
  3
txt
  4

  0
STYLE
  2
STANDARD1
 70
     0
 40
0.0
 41
1.0
 50
0.0
 71
     0
 42
3.0
  3
txt
  4

  0
ENDTAB
  0
TABLE
  2
VIEW
 70
     0
  0
ENDTAB
  0
TABLE
  2
UCS
 70
     0
  0
ENDTAB
  0
TABLE
  2
APPID
 70
    29
  0
APPID
  2
ACAD
 70
     0
  0
APPID
  2
ACADANNOTATIVE
 70
     0
  0
APPID
  2
GENIUS_GENOREF_13
 70
     0
  0
APPID
  2
GENIUS_GENOENT_13
 70
     0
  0
APPID
  2
GENIUS_GENBH_13
 70
     0
  0
APPID
  2
GENIUS_GENOBJ_13
 70
     0
  0
APPID
  2
GENIUS_GENODEF_13
 70
     0
  0
APPID
  2
GENIUS_GENOLIS_13
 70
     0
  0
APPID
  2
GENIUS_GENOBJ-NBEHI-BHF_13
 70
     0
  0
APPID
  2
GENIUS_GENOBJ-NBEHI-BHB_13
 70
     0
  0
APPID
  2
GENIUS_GENOBJ-F-PART_13
 70
     0
  0
APPID
  2
GENIUS_GEFSTDP_13
 70
     0
  0
APPID
  2
GENIUS_GENOBJ-N-RSSYM_13
 70
     0
  0
APPID
  2
GENIUS_GENSYMENT_13
 70
     0
  0
APPID
  2
GENIUS_GENOBJ-N-TIT_13
 70
     0
  0
APPID
  2
GENIUS_GENTITLE_13
 70
     0
  0
APPID
  2
GENIUS_GENZVEED_13
 70
     0
  0
APPID
  2
GENIUS_GENOBJ-N-LEADER_13
 70
     0
  0
APPID
  2
GENIUS_GENOBJ-N-FIL_13
 70
     0
  0
APPID
  2
GENIUS_GENOBJ-N-SEC_13
 70
     0
  0
APPID
  2
GENIUS_GENOBJ-N-CRS_13
 70
     0
  0
APPID
  2
GENIUS_GENOBJ-N-ZOO_13
 70
     0
  0
APPID
  2
GENIUS_GENZOO_13
 70
     0
  0
APPID
  2
GENIUS_GENOBJ-F-TOL_13
 70
     0
  0
APPID
  2
GENIUS_GENFIL_13
 70
     0
  0
APPID
  2
GENIUS_GENOBJ-N-CHA_13
 70
     0
  0
APPID
  2
ACAD_MLEADERVER
 70
     0
  0
APPID
  2
ACAD_EXEMPT_FROM_CAD_STANDARDS
 70
     0
  0
APPID
  2
ACAD_NAV_VCDISPLAY
 70
     0
  0
ENDTAB
  0
TABLE
  2
DIMSTYLE
 70
     2
  0
DIMSTYLE
  2
STANDARD
 70
     0
  3

  4

  5

  6

  7

 40
1.0
 41
0.18
 42
0.0625
 43
0.38
 44
0.18
 45
0.0
 46
0.0
 47
0.0
 48
0.0
140
0.18
141
0.09
142
0.0
143
25.399999999999999
144
1.0
145
0.0
146
1.0
147
0.09
 71
     0
 72
     0
 73
     1
 74
     1
 75
     0
 76
     0
 77
     0
 78
     0
170
     0
171
     2
172
     0
173
     0
174
     0
175
     0
176
     0
177
     0
178
     0
  0
DIMSTYLE
  2
ANNOTATIVE
 70
     0
  3

  4

  5

  6

  7

 40
1.0
 41
0.18
 42
0.0625
 43
0.38
 44
0.18
 45
0.0
 46
0.0
 47
0.0
 48
0.0
140
0.18
141
0.09
142
0.0
143
25.399999999999999
144
1.0
145
0.0
146
1.0
147
0.09
 71
     0
 72
     0
 73
     1
 74
     1
 75
     0
 76
     0
 77
     0
 78
     0
170
     0
171
     2
172
     0
173
     0
174
     0
175
     0
176
     0
177
     0
178
     0
  0
ENDTAB
  0
ENDSEC
  0
SECTION
  2
BLOCKS
  0
BLOCK
  8
0
  2
$MODEL_SPACE
 70
     0
 10
0.0
 20
0.0
 30
0.0
  3
$MODEL_SPACE
  1

  0
ENDBLK
  5
279D
  8
0
  0
BLOCK
 67
     1
  8
0
  2
$PAPER_SPACE
 70
     0
 10
0.0
 20
0.0
 30
0.0
  3
$PAPER_SPACE
  1

  0
ENDBLK
  5
2799
 67
     1
  8
0
  0
ENDSEC
  0
SECTION
  2
ENTITIES
  0
LINE
  5
222F
  8
0
 10
21.076488941568179
 20
149.22292609635289
 30
0.0
 11
26.561316498869701
 21
139.72292609635281
 31
0.0
  0
LINE
  5
2230
  8
0
 10
26.561316498869829
 20
158.72292609635289
 30
0.0
 11
21.076488941568179
 21
149.22292609635289
 31
0.0
  0
LINE
  5
2231
  8
0
 10
37.53097161347263
 20
158.72292609635289
 30
0.0
 11
26.561316498869829
 21
158.72292609635289
 31
0.0
  0
LINE
  5
2232
  8
0
 10
43.01579917077391
 20
149.22292609635289
 30
0.0
 11
37.53097161347263
 21
158.72292609635289
 31
0.0
  0
LINE
  5
2233
  8
0
 10
37.530971613472389
 20
139.72292609635281
 30
0.0
 11
43.01579917077391
 21
149.22292609635289
 31
0.0
  0
CIRCLE
  5
2234
  8
3
 10
32.046144056171109
 20
149.22292609635289
 30
0.0
 40
5.052999999999999
  0
CIRCLE
  5
2235
  8
0
 10
32.046144056171109
 20
149.22292609635289
 30
0.0
 40
6.0
  0
CIRCLE
  5
2236
  8
0
 10
32.046144056171109
 20
149.22292609635289
 30
0.0
 40
9.0
  0
LINE
  5
2237
  8
0
 10
26.561316498869701
 20
139.72292609635281
 30
0.0
 11
37.530971613472389
 21
139.72292609635281
 31
0.0
  0
LINE
  5
2238
  8
0
 10
26.046144056171318
 20
81.593347887215486
 30
0.0
 11
26.046144056171219
 21
100.5933478872157
 31
0.0
  0
LINE
  5
2239
  8
3
 10
26.993144056171289
 20
81.593347887215486
 30
0.0
 11
26.993144056171221
 21
101.5403478872156
 31
0.0
  0
LINE
  5
223A
  8
3
 10
37.099144056171369
 20
81.5933478872156
 30
0.0
 11
37.099144056171284
 21
101.5403478872155
 31
0.0
  0
LINE
  5
223B
  8
0
 10
38.046144056171322
 20
81.593347887215486
 30
0.0
 11
38.046144056171222
 21
100.5933478872155
 31
0.0
  0
LINE
  5
223C
  8
0
 10
37.530971613468623
 20
80.456166976589657
 30
0.0
 11
37.530971613472587
 21
72.730528797841089
 31
0.0
  0
LINE
  5
223D
  8
0
 10
43.01579917077445
 20
80.456166976589657
 30
0.0
 11
43.015799170774322
 21
72.730528797841302
 31
0.0
  0
LINE
  5
223E
  8
0
 10
26.561316498874241
 20
80.456166976589657
 30
0.0
 11
26.56131649887001
 21
72.730528797841089
 31
0.0
  0
LINE
  5
223F
  8
0
 10
21.0764889415684
 20
80.456166976589657
 30
0.0
 11
21.076488941568272
 21
72.730528797841302
 31
0.0
  0
LINE
  5
2240
  8
0
 10
21.076488941568272
 20
72.730528797841302
 30
0.0
 11
23.04614405616994
 21
71.593347887215486
 31
0.0
  0
ARC
  5
2241
  8
0
 10
23.818902720218912
 20
76.738086243818771
 30
0.0
 40
4.8560632220084567
 50
244.3842474680873
 51
304.3842474680165
  0
ARC
  5
2242
  8
0
 10
32.0461440561713
 20
90.033517245795778
 30
0.0
 40
18.15149422398537
 50
252.41204622603641
 51
287.5879537739637
  0
ARC
  5
2243
  8
0
 10
40.273385392123679
 20
76.738086243818771
 30
0.0
 40
4.8560632220084567
 50
235.6157525319833
 51
295.61575253191268
  0
LINE
  5
2244
  8
0
 10
43.015799170774322
 20
72.730528797841302
 30
0.0
 11
41.04614405617265
 21
71.593347887215486
 31
0.0
  0
LINE
  5
2245
  8
0
 10
23.04614405616994
 20
71.593347887215486
 30
0.0
 11
41.04614405617265
 21
71.593347887215486
 31
0.0
  0
LINE
  5
2246
  8
0
 10
23.046144056170071
 20
81.593347887215486
 30
0.0
 11
41.046144056172793
 21
81.593347887215486
 31
0.0
  0
LINE
  5
2247
  8
0
 10
43.01579917077445
 20
80.456166976589657
 30
0.0
 11
41.046144056172793
 21
81.593347887215486
 31
0.0
  0
ARC
  5
2248
  8
0
 10
40.273385392123807
 20
76.448609530612202
 30
0.0
 40
4.8560632220084567
 50
64.384247468087224
 51
124.3842474680165
  0
ARC
  5
2249
  8
0
 10
32.046144056171428
 20
63.153178528635159
 30
0.0
 40
18.15149422398537
 50
72.412046226036338
 51
107.58795377396351
  0
ARC
  5
224A
  8
0
 10
23.81890272021904
 20
76.448609530612202
 30
0.0
 40
4.8560632220084567
 50
55.615752531983411
 51
115.6157525319127
  0
LINE
  5
224B
  8
0
 10
21.0764889415684
 20
80.456166976589657
 30
0.0
 11
23.046144056170071
 21
81.593347887215486
 31
0.0
  0
LINE
  5
224C
  8
0
 10
28.046144056171219
 20
102.5933478872157
 30
0.0
 11
36.046144056171222
 21
102.5933478872155
 31
0.0
  0
LINE
  5
224D
  8
0
 10
38.046144056171158
 20
59.593347887215252
 30
0.0
 11
38.046144056171158
 21
71.593347887215486
 31
0.0
  0
LINE
  5
224E
  8
3
 10
37.09914405617122
 20
61.593347887215252
 30
0.0
 11
37.09914405617122
 21
71.593347887215486
 31
0.0
  0
LINE
  5
224F
  8
3
 10
26.993144056171161
 20
61.593347887215252
 30
0.0
 11
26.993144056171161
 21
71.5933478872156
 31
0.0
  0
LINE
  5
2250
  8
0
 10
26.046144056171158
 20
59.593347887215252
 30
0.0
 11
26.046144056171201
 21
71.593347887215486
 31
0.0
  0
LINE
  5
2251
  8
0
 10
28.046144056171219
 20
102.5933478872157
 30
0.0
 11
26.046144056171219
 21
100.5933478872157
 31
0.0
  0
LINE
  5
2252
  8
0
 10
36.046144056171222
 20
102.5933478872155
 30
0.0
 11
38.046144056171222
 21
100.5933478872155
 31
0.0
  0
LINE
  5
2253
  8
0
 10
26.046144056171219
 20
100.5933478872156
 30
0.0
 11
38.046144056171272
 21
100.5933478872155
 31
0.0
  0
LINE
  5
2254
  8
0
 10
38.046144056171158
 20
61.593347887215252
 30
0.0
 11
26.046144056171158
 21
61.593347887215252
 31
0.0
  0
LINE
  5
2255
  8
3
 10
26.993144056171161
 20
61.593347887215252
 30
0.0
 11
26.046144056171158
 21
59.953095772447561
 31
0.0
  0
LINE
  5
2256
  8
3
 10
37.099144056171163
 20
61.593347887215252
 30
0.0
 11
38.046144056171158
 21
59.953095772447561
 31
0.0
  0
ARC
  5
2257
  8
0
 10
35.54614405617081
 20
64.858029105342425
 30
0.0
 40
10.10924076103746
 50
249.74384199958439
 51
290.25615800041561
  0
LINE
  5
2258
  8
0
 10
39.046144056170931
 20
54.748788344305012
 30
0.0
 11
38.776913286938971
 21
54.593347887214797
 31
0.0
  0
LINE
  5
2259
  8
0
 10
25.046144056170931
 20
54.748788344305012
 30
0.0
 11
25.315374825402898
 21
54.593347887214797
 31
0.0
  0
ARC
  5
225A
  8
0
 10
28.546144056171041
 20
64.858029105342425
 30
0.0
 40
10.10924076103746
 50
249.74384199958439
 51
290.25615800041561
  0
LINE
  5
225B
  8
0
 10
38.776913286938971
 20
54.593347887214797
 30
0.0
 11
25.315374825402898
 21
54.593347887214797
 31
0.0
  0
ARC
  5
225C
  8
0
 10
35.54614405617081
 20
49.328666669087163
 30
0.0
 40
10.10924076103746
 50
69.743841999584404
 51
110.2561580004156
  0
LINE
  5
225D
  8
0
 10
39.046144056170931
 20
59.437907430124589
 30
0.0
 11
38.776913286938971
 21
59.593347887214797
 31
0.0
  0
LINE
  5
225E
  8
0
 10
25.046144056170931
 20
59.437907430124589
 30
0.0
 11
25.315374825402898
 21
59.593347887214797
 31
0.0
  0
ARC
  5
225F
  8
0
 10
28.546144056171041
 20
49.328666669087163
 30
0.0
 40
10.10924076103746
 50
69.743841999584419
 51
110.2561580004156
  0
LINE
  5
2260
  8
0
 10
38.776913286938971
 20
59.593347887214797
 30
0.0
 11
25.315374825402898
 21
59.593347887214797
 31
0.0
  0
LINE
  5
2261
  8
0
 10
39.046144056170931
 20
59.437907430124589
 30
0.0
 11
39.046144056170931
 21
54.748788344305012
 31
0.0
  0
LINE
  5
2262
  8
0
 10
25.046144056170931
 20
59.437907430124589
 30
0.0
 11
25.046144056170931
 21
54.748788344305012
 31
0.0
  0
LINE
  5
2264
  8
0
 10
26.546144056171052
 20
51.593347887215373
 30
0.0
 11
26.546144056171052
 21
54.593347887214797
 31
0.0
  0
LINE
  5
2265
  8
0
 10
37.546144056171038
 20
51.593347887215373
 30
0.0
 11
37.546144056171038
 21
54.593347887214797
 31
0.0
  0
LINE
  5
2266
  8
0
 10
102.33170614198779
 20
81.593347887215486
 30
0.0
 11
102.3317061419876
 21
100.5933478872152
 31
0.0
  0
LINE
  5
2267
  8
3
 10
101.38470614198791
 20
81.593347887215486
 30
0.0
 11
101.38470614198781
 21
101.5403478872152
 31
0.0
  0
LINE
  5
2268
  8
0
 10
90.331706141987866
 20
81.593347887215486
 30
0.0
 11
90.331706141987794
 21
100.5933478872155
 31
0.0
  0
LINE
  5
2269
  8
3
 10
91.278706141987897
 20
81.593347887215373
 30
0.0
 11
91.278706141987783
 21
101.5403478872153
 31
0.0
  0
LINE
  5
226A
  8
3
 10
91.278706141987726
 20
61.59334788721501
 30
0.0
 11
90.331706141987709
 21
59.953095772447341
 31
0.0
  0
LINE
  5
226B
  8
0
 10
92.33170614198778
 20
102.5933478872155
 30
0.0
 11
90.331706141987794
 21
100.5933478872155
 31
0.0
  0
LINE
  5
226C
  8
3
 10
91.278706141987726
 20
61.59334788721501
 30
0.0
 11
91.278706141987755
 21
71.593347887215486
 31
0.0
  0
LINE
  5
226D
  8
0
 10
90.331706141987709
 20
59.59334788721501
 30
0.0
 11
90.331706141987709
 21
71.593347887215373
 31
0.0
  0
LINE
  5
226E
  8
3
 10
101.38470614198771
 20
61.59334788721501
 30
0.0
 11
102.3317061419876
 21
59.953095772447341
 31
0.0
  0
LINE
  5
226F
  8
0
 10
102.3317061419876
 20
61.59334788721501
 30
0.0
 11
90.331706141987709
 21
61.59334788721501
 31
0.0
  0
LINE
  5
2270
  8
0
 10
90.331706141987794
 20
100.5933478872153
 30
0.0
 11
102.33170614198779
 21
100.5933478872152
 31
0.0
  0
LINE
  5
2271
  8
0
 10
100.33170614198779
 20
102.5933478872152
 30
0.0
 11
102.3317061419876
 21
100.5933478872152
 31
0.0
  0
LINE
  5
2272
  8
3
 10
101.38470614198781
 20
61.59334788721501
 30
0.0
 11
101.38470614198781
 21
71.593347887215486
 31
0.0
  0
LINE
  5
2273
  8
0
 10
102.3317061419876
 20
59.59334788721501
 30
0.0
 11
102.3317061419876
 21
71.593347887215486
 31
0.0
  0
LINE
  5
2274
  8
0
 10
92.33170614198778
 20
102.5933478872155
 30
0.0
 11
100.33170614198779
 21
102.5933478872152
 31
0.0
  0
LINE
  5
2276
  8
0
 10
105.33170614198769
 20
71.593347887215486
 30
0.0
 11
87.331706141987709
 21
71.593347887215486
 31
0.0
  0
LINE
  5
2277
  8
0
 10
87.331706141987851
 20
81.593347887215486
 30
0.0
 11
105.33170614198789
 21
81.593347887215486
 31
0.0
  0
LINE
  5
2278
  8
0
 10
86.831706141987823
 20
81.30467275262049
 30
0.0
 11
87.331706141987851
 21
81.593347887215486
 31
0.0
  0
ARC
  5
2279
  8
0
 10
91.581706141987866
 20
67.58498886262737
 30
0.0
 40
13.719683889993171
 50
69.743841999613011
 51
110.256158000387
  0
LINE
  5
227A
  8
0
 10
87.331706141987709
 20
71.593347887215486
 30
0.0
 11
86.831706141987695
 21
71.953819791535579
 31
0.0
  0
LINE
  5
227B
  8
0
 10
86.831706141987695
 20
71.953819791535579
 30
0.0
 11
86.831706141987823
 21
81.30467275262049
 31
0.0
  0
ARC
  5
227C
  8
0
 10
91.581706141987709
 20
85.601706911803376
 30
0.0
 40
13.719683889993171
 50
249.7438419996115
 51
290.25615800038702
  0
ARC
  5
227D
  8
0
 10
101.08170614198769
 20
85.601706911803376
 30
0.0
 40
13.719683889993171
 50
249.7438419996115
 51
290.25615800038707
  0
LINE
  5
227E
  8
0
 10
105.83170614198769
 20
71.953819791535579
 30
0.0
 11
105.83170614198789
 21
81.30467275262049
 31
0.0
  0
LINE
  5
227F
  8
0
 10
105.33170614198769
 20
71.593347887215486
 30
0.0
 11
105.83170614198769
 21
71.953819791535579
 31
0.0
  0
ARC
  5
2280
  8
0
 10
101.08170614198779
 20
67.58498886262737
 30
0.0
 40
13.719683889993171
 50
69.743841999613011
 51
110.256158000387
  0
LINE
  5
2281
  8
0
 10
105.83170614198789
 20
81.30467275262049
 30
0.0
 11
105.33170614198789
 21
81.593347887215486
 31
0.0
  0
LINE
  5
2282
  8
0
 10
101.83170614198779
 20
51.593347887215472
 30
0.0
 11
101.83170614198779
 21
54.593347887214797
 31
0.0
  0
LINE
  5
2283
  8
0
 10
90.831706141987837
 20
51.593347887215472
 30
0.0
 11
90.831706141987837
 21
54.593347887214797
 31
0.0
  0
ARC
  5
2284
  8
0
 10
90.269528315496785
 20
55.859755582332014
 30
0.0
 40
3.5781518477924039
 50
55.615752531961242
 51
115.6157525321741
  0
ARC
  5
2285
  8
0
 10
96.331706141988747
 20
46.063122212470603
 30
0.0
 40
13.374785217653811
 50
72.412046225995169
 51
107.5879537740048
  0
LINE
  5
2286
  8
0
 10
88.248802373332936
 20
58.812692647785063
 30
0.0
 11
89.600936911219804
 21
59.593347887214691
 31
0.0
  0
LINE
  5
2287
  8
0
 10
88.248802373332936
 20
55.374003126644311
 30
0.0
 11
89.600936911219804
 21
54.593347887214797
 31
0.0
  0
ARC
  5
2288
  8
0
 10
90.269528315496785
 20
58.326940192097467
 30
0.0
 40
3.5781518477924039
 50
244.38424746782579
 51
304.38424746803872
  0
ARC
  5
2289
  8
0
 10
96.331706141988747
 20
68.123573561958779
 30
0.0
 40
13.374785217653811
 50
252.4120462259952
 51
287.5879537740048
  0
LINE
  5
228A
  8
0
 10
88.248802373332936
 20
58.812692647785063
 30
0.0
 11
88.248802373332936
 21
55.374003126644311
 31
0.0
  0
LINE
  5
228B
  8
0
 10
92.290254257662085
 20
58.812692647783919
 30
0.0
 11
92.29025425766028
 21
55.374003126646009
 31
0.0
  0
LINE
  5
228C
  8
0
 10
100.37315802631331
 20
58.812692647785632
 30
0.0
 11
100.3731580263151
 21
55.374003126646009
 31
0.0
  0
LINE
  5
228D
  8
0
 10
104.4146099106425
 20
58.812692647785163
 30
0.0
 11
104.4146099106425
 21
55.374003126644311
 31
0.0
  0
ARC
  5
228E
  8
0
 10
102.3938839684787
 20
58.326940192097467
 30
0.0
 40
3.5781518477924039
 50
235.61575253196131
 51
295.61575253217421
  0
LINE
  5
228F
  8
0
 10
104.4146099106425
 20
55.374003126644311
 30
0.0
 11
103.0624753727558
 21
54.593347887214797
 31
0.0
  0
LINE
  5
2290
  8
0
 10
104.4146099106425
 20
58.812692647785063
 30
0.0
 11
103.0624753727558
 21
59.593347887214691
 31
0.0
  0
ARC
  5
2291
  8
0
 10
102.3938839684787
 20
55.859755582332014
 30
0.0
 40
3.5781518477924039
 50
64.38424746782583
 51
124.38424746803869
  0
LINE
  5
2292
  8
0
 10
89.600936911218554
 20
59.593347887214691
 30
0.0
 11
103.0624753727555
 21
59.593347887214691
 31
0.0
  0
LINE
  5
2293
  8
0
 10
103.0624753727558
 20
54.593347887214797
 30
0.0
 11
89.600936911220018
 21
54.593347887214797
 31
0.0
  0
LINE
  5
2294
  8
1
 10
55.046144056171102
 20
149.22292609635289
 30
0.0
 11
9.0461440561711015
 21
149.22292609635289
 31
0.0
  0
LINE
  5
2295
  8
1
 10
32.046144056171109
 20
172.22292609635289
 30
0.0
 11
32.046144056171109
 21
126.22292609635289
 31
0.0
  0
CIRCLE
  5
2296
  8
0
 10
32.046144056171109
 20
149.22292609635289
 30
0.0
 40
10.99533453162951
  0
CIRCLE
  5
2297
  8
0
 10
32.046144056171109
 20
149.22292609635289
 30
0.0
 40
12.006063426498701
  0
CIRCLE
  5
2298
  8
0
 10
32.046144056171109
 20
149.22292609635289
 30
0.0
 40
20.0
  0
LINE
  5
229E
  8
1
 10
96.331706141987681
 20
28.54281036723421
 30
0.0
 11
96.33170614198778
 21
105.5428103672342
 31
0.0
  0
LINE
  5
22B3
  8
1
 10
32.046144056171109
 20
28.5933478872156
 30
0.0
 11
32.046144056171208
 21
105.5933478872156
 31
0.0
  0
LINE
  5
24DC
  8
0
 10
12.5461440561711
 20
31.59334788721527
 30
0.0
 11
12.54614405617121
 21
34.593347887215359
 31
0.0
  0
LINE
  5
24DD
  8
0
 10
51.546144056171073
 20
31.59334788721527
 30
0.0
 11
51.546144056170952
 21
34.593347887215359
 31
0.0
  0
LINE
  5
24DE
  8
0
 10
12.5461440561711
 20
31.593347887215391
 30
0.0
 11
51.546144056171073
 21
31.593347887215359
 31
0.0
  0
LINE
  5
24DF
  8
0
 10
44.052207482669807
 20
45.628436314147351
 30
0.0
 11
43.041478587800597
 21
51.593347887215373
 31
0.0
  0
LINE
  5
24E0
  8
0
 10
52.04614405617113
 20
40.093347887215359
 30
0.0
 11
44.052207482669807
 21
45.628436314147351
 31
0.0
  0
LINE
  5
24E1
  8
0
 10
51.54614405617113
 20
34.593347887215373
 30
0.0
 11
52.04614405617113
 21
35.093347887215373
 31
0.0
  0
LINE
  5
24E2
  8
0
 10
43.041478587800597
 20
51.593347887215373
 30
0.0
 11
21.05080952454168
 21
51.593347887215373
 31
0.0
  0
LINE
  5
24E3
  8
0
 10
52.04614405617113
 20
40.093347887215359
 30
0.0
 11
12.04614405617116
 21
40.093347887215359
 31
0.0
  0
LINE
  5
24E4
  8
0
 10
51.54614405617113
 20
34.593347887215373
 30
0.0
 11
12.54614405617116
 21
34.593347887215373
 31
0.0
  0
LINE
  5
24E5
  8
0
 10
52.04614405617113
 20
35.093347887215373
 30
0.0
 11
52.04614405617113
 21
40.093347887215359
 31
0.0
  0
LINE
  5
24E6
  8
0
 10
12.04614405617116
 20
40.093347887215359
 30
0.0
 11
20.040080629672438
 21
45.628436314147351
 31
0.0
  0
LINE
  5
24E7
  8
0
 10
12.54614405617116
 20
34.593347887215373
 30
0.0
 11
12.04614405617116
 21
35.093347887215373
 31
0.0
  0
LINE
  5
24E8
  8
0
 10
12.04614405617116
 20
35.093347887215373
 30
0.0
 11
12.04614405617116
 21
40.093347887215359
 31
0.0
  0
LINE
  5
24E9
  8
0
 10
20.040080629672438
 20
45.628436314147351
 30
0.0
 11
21.05080952454168
 21
51.593347887215373
 31
0.0
  0
LINE
  5
24EA
  8
0
 10
20.040080629672438
 20
45.628436314147351
 30
0.0
 11
44.052207482669807
 21
45.628436314147351
 31
0.0
  0
LINE
  5
24EB
  8
0
 10
76.831706141987652
 20
31.59334788721527
 30
0.0
 11
76.831706141987738
 21
34.593347887215359
 31
0.0
  0
LINE
  5
24EC
  8
0
 10
115.8317061419876
 20
31.59334788721527
 30
0.0
 11
115.8317061419875
 21
34.593347887215359
 31
0.0
  0
LINE
  5
24ED
  8
0
 10
76.831706141987652
 20
31.593347887215391
 30
0.0
 11
115.8317061419876
 21
31.593347887215359
 31
0.0
  0
LINE
  5
24EE
  8
0
 10
108.33776956848629
 20
45.628436314147351
 30
0.0
 11
107.32704067361711
 21
51.593347887215373
 31
0.0
  0
LINE
  5
24EF
  8
0
 10
116.3317061419876
 20
40.093347887215359
 30
0.0
 11
108.33776956848629
 21
45.628436314147351
 31
0.0
  0
LINE
  5
24F0
  8
0
 10
115.83170614198769
 20
34.593347887215373
 30
0.0
 11
116.3317061419876
 21
35.093347887215373
 31
0.0
  0
LINE
  5
24F1
  8
0
 10
107.32704067361711
 20
51.593347887215373
 30
0.0
 11
85.336371610358185
 21
51.593347887215373
 31
0.0
  0
LINE
  5
24F2
  8
0
 10
116.3317061419876
 20
40.093347887215359
 30
0.0
 11
76.331706141987709
 21
40.093347887215359
 31
0.0
  0
LINE
  5
24F3
  8
0
 10
115.83170614198769
 20
34.593347887215373
 30
0.0
 11
76.831706141987709
 21
34.593347887215373
 31
0.0
  0
LINE
  5
24F4
  8
0
 10
116.3317061419876
 20
35.093347887215373
 30
0.0
 11
116.3317061419876
 21
40.093347887215359
 31
0.0
  0
LINE
  5
24F5
  8
0
 10
76.331706141987652
 20
40.093347887215359
 30
0.0
 11
84.325642715488982
 21
45.628436314147351
 31
0.0
  0
LINE
  5
24F6
  8
0
 10
76.831706141987652
 20
34.593347887215373
 30
0.0
 11
76.331706141987652
 21
35.093347887215373
 31
0.0
  0
LINE
  5
24F7
  8
0
 10
76.331706141987652
 20
35.093347887215373
 30
0.0
 11
76.331706141987652
 21
40.093347887215359
 31
0.0
  0
LINE
  5
24F8
  8
0
 10
84.325642715488982
 20
45.628436314147351
 30
0.0
 11
85.336371610358185
 21
51.593347887215373
 31
0.0
  0
LINE
  5
24F9
  8
0
 10
84.325642715488982
 20
45.628436314147351
 30
0.0
 11
108.33776956848629
 21
45.628436314147351
 31
0.0
  0
LINE
  5
26C5
  8
0
 10
32.046144056171137
 20
58.812692647785269
 30
0.0
 11
32.046144056171137
 21
55.374003126644311
 31
0.0
  0
LINE
  5
26C6
  8
0
 10
96.331706141989912
 20
80.456166976590282
 30
0.0
 11
96.331706141985691
 21
72.730528797840464
 31
0.0
  0
TEXT
  5
281D
  8
0
 62
     3
 10
0.0
 20
0.0
 30
0.0
 40
10.0
  1
LSAR40S12A
  7
STANDARD1
  0
ENDSEC
  0
EOF
