  0
SECTION
  2
HEADER
  9
$ACADVER
  1
AC1009
  9
$INSBASE
 10
0.0
 20
0.0
 30
0.0
  9
$EXTMIN
 10
0.0
 20
-2.960436562073669
 30
0.0
  9
$EXTMAX
 10
110.5182540897075
 20
170.37126899688101
 30
0.0
  9
$LIMMIN
 10
0.0
 20
0.0
  9
$LIMMAX
 10
375.0
 20
270.0
  9
$ORTHOMODE
 70
     1
  9
$REGENMODE
 70
     1
  9
$FILLMODE
 70
     1
  9
$QTEXTMODE
 70
     0
  9
$MIRRTEXT
 70
     0
  9
$DRAGMODE
 70
     2
  9
$LTSCALE
 40
6.0
  9
$OSMODE
 70
  3071
  9
$ATTMODE
 70
     1
  9
$TEXTSIZE
 40
0.2
  9
$TRACEWID
 40
0.05
  9
$TEXTSTYLE
  7
STANDARD
  9
$CLAYER
  8
0
  9
$CELTYPE
  6
BYLAYER
  9
$CECOLOR
 62
   256
  9
$DIMSCALE
 40
1.0
  9
$DIMASZ
 40
3.0
  9
$DIMEXO
 40
1.0
  9
$DIMDLI
 40
6.0
  9
$DIMRND
 40
0.0
  9
$DIMDLE
 40
0.0
  9
$DIMEXE
 40
1.0
  9
$DIMTP
 40
495.0
  9
$DIMTM
 40
0.0
  9
$DIMTXT
 40
3.0
  9
$DIMCEN
 40
0.0
  9
$DIMTSZ
 40
0.0
  9
$DIMTOL
 70
     0
  9
$DIMLIM
 70
     0
  9
$DIMTIH
 70
     0
  9
$DIMTOH
 70
     0
  9
$DIMSE1
 70
     0
  9
$DIMSE2
 70
     0
  9
$DIMTAD
 70
     1
  9
$DIMZIN
 70
     0
  9
$DIMBLK
  1

  9
$DIMASO
 70
     0
  9
$DIMSHO
 70
     0
  9
$DIMPOST
  1

  9
$DIMAPOST
  1

  9
$DIMALT
 70
     0
  9
$DIMALTD
 70
     2
  9
$DIMALTF
 40
25.399999999999999
  9
$DIMLFAC
 40
1.0
  9
$DIMTOFL
 70
     1
  9
$DIMTVP
 40
0.0
  9
$DIMTIX
 70
     1
  9
$DIMSOXD
 70
     0
  9
$DIMSAH
 70
     0
  9
$DIMBLK1
  1

  9
$DIMBLK2
  1

  9
$DIMSTYLE
  2
STANDARD
  9
$DIMCLRD
 70
     0
  9
$DIMCLRE
 70
     0
  9
$DIMCLRT
 70
     4
  9
$DIMTFAC
 40
1.0
  9
$DIMGAP
 40
1.0
  9
$LUNITS
 70
     2
  9
$LUPREC
 70
     4
  9
$SKETCHINC
 40
0.1
  9
$FILLETRAD
 40
2.0
  9
$AUNITS
 70
     0
  9
$AUPREC
 70
     0
  9
$MENU
  1
C:\R13\WIN\SUPPORT\ACAD-I
  9
$ELEVATION
 40
0.0
  9
$PELEVATION
 40
0.0
  9
$THICKNESS
 40
0.0
  9
$LIMCHECK
 70
     0
  9
$BLIPMODE
 70
     0
  9
$CHAMFERA
 40
0.0
  9
$CHAMFERB
 40
0.0
  9
$SKPOLY
 70
     0
  9
$TDCREATE
 40
2451961.6916169678
  9
$TDUPDATE
 40
2456597.607481366
  9
$TDINDWG
 40
0.0569000579
  9
$TDUSRTIMER
 40
2456548.0705004861
  9
$USRTIMER
 70
     1
  9
$ANGBASE
 50
0.0
  9
$ANGDIR
 70
     0
  9
$PDMODE
 70
     0
  9
$PDSIZE
 40
0.0
  9
$PLINEWID
 40
0.0
  9
$COORDS
 70
     1
  9
$SPLFRAME
 70
     0
  9
$SPLINETYPE
 70
     6
  9
$SPLINESEGS
 70
     8
  9
$ATTDIA
 70
     0
  9
$ATTREQ
 70
     1
  9
$HANDLING
 70
     1
  9
$HANDSEED
  5
199D
  9
$SURFTAB1
 70
     6
  9
$SURFTAB2
 70
     6
  9
$SURFTYPE
 70
     6
  9
$SURFU
 70
     6
  9
$SURFV
 70
     6
  9
$UCSNAME
  2

  9
$UCSORG
 10
0.0
 20
0.0
 30
0.0
  9
$UCSXDIR
 10
1.0
 20
0.0
 30
0.0
  9
$UCSYDIR
 10
0.0
 20
1.0
 30
0.0
  9
$PUCSNAME
  2

  9
$PUCSORG
 10
0.0
 20
0.0
 30
0.0
  9
$PUCSXDIR
 10
1.0
 20
0.0
 30
0.0
  9
$PUCSYDIR
 10
0.0
 20
1.0
 30
0.0
  9
$USERI1
 70
     4
  9
$USERI2
 70
     1
  9
$USERI3
 70
     0
  9
$USERI4
 70
     0
  9
$USERI5
 70
     0
  9
$USERR1
 40
1.0
  9
$USERR2
 40
3.0
  9
$USERR3
 40
3.0
  9
$USERR4
 40
3.0
  9
$USERR5
 40
10.0
  9
$WORLDVIEW
 70
     1
  9
$SHADEDGE
 70
     3
  9
$SHADEDIF
 70
    70
  9
$TILEMODE
 70
     1
  9
$MAXACTVP
 70
    16
  9
$PLIMCHECK
 70
     0
  9
$PEXTMIN
 10
1.0000000000000000E+020
 20
1.0000000000000000E+020
 30
1.0000000000000000E+020
  9
$PEXTMAX
 10
-1.0000000000000000E+020
 20
-1.0000000000000000E+020
 30
-1.0000000000000000E+020
  9
$PLIMMIN
 10
0.0
 20
0.0
  9
$PLIMMAX
 10
12.0
 20
9.0
  9
$UNITMODE
 70
     0
  9
$VISRETAIN
 70
     0
  9
$PLINEGEN
 70
     0
  9
$PSLTSCALE
 70
     0
  0
ENDSEC
  0
SECTION
  2
TABLES
  0
TABLE
  2
VPORT
 70
     1
  0
VPORT
  2
*ACTIVE
 70
     0
 10
0.0
 20
0.0
 11
1.0
 21
1.0
 12
187.49427839065231
 22
134.10366293909439
 13
0.0
 23
0.0
 14
10.0
 24
10.0
 15
10.0
 25
10.0
 16
0.0
 26
0.0
 36
1.0
 17
0.0
 27
0.0
 37
0.0
 40
277.29405978699532
 41
2.304913294797688
 42
50.0
 43
0.0
 44
0.0
 50
0.0
 51
0.0
 71
    16
 72
   100
 73
     1
 74
     0
 75
     0
 76
     0
 77
     0
 78
     0
  0
ENDTAB
  0
TABLE
  2
LTYPE
 70
     3
  0
LTYPE
  2
CONTINUOUS
 70
     0
  3
Solid Line
 72
    65
 73
     0
 40
0.0
  0
LTYPE
  2
PHANTOM2
 70
     0
  3
___ _ _ ___ _ _ ___ _ _ ___ _ _
 72
    65
 73
     6
 40
1.25
 49
0.625
 49
-0.125
 49
0.125
 49
-0.125
 49
0.125
 49
-0.125
  0
LTYPE
  2
CENTER
 70
     0
  3
____ _ ____ _ ____ _ ____ _ ____ _ ____ _ ____
 72
    65
 73
     4
 40
2.0
 49
1.25
 49
-0.25
 49
0.25
 49
-0.25
  0
ENDTAB
  0
TABLE
  2
LAYER
 70
     3
  0
LAYER
  2
0
 70
     0
 62
     7
  6
CONTINUOUS
  0
LAYER
  2
1
 70
     0
 62
     1
  6
CENTER
  0
LAYER
  2
3
 70
     0
 62
     3
  6
CONTINUOUS
  0
ENDTAB
  0
TABLE
  2
STYLE
 70
     3
  0
STYLE
  2
STANDARD
 70
     0
 40
0.0
 41
1.0
 50
0.0
 71
     0
 42
0.2
  3
SIMPLEX
  4
BIGFONT
  0
STYLE
  2
ANNOTATIVE
 70
     0
 40
0.0
 41
1.0
 50
0.0
 71
     0
 42
0.2
  3
txt
  4

  0
STYLE
  2
STANDARD1
 70
     0
 40
0.0
 41
1.0
 50
0.0
 71
     0
 42
3.0
  3
txt
  4

  0
ENDTAB
  0
TABLE
  2
VIEW
 70
     0
  0
ENDTAB
  0
TABLE
  2
UCS
 70
     0
  0
ENDTAB
  0
TABLE
  2
APPID
 70
    29
  0
APPID
  2
ACAD
 70
     0
  0
APPID
  2
ACADANNOTATIVE
 70
     0
  0
APPID
  2
GENIUS_GENOREF_13
 70
     0
  0
APPID
  2
GENIUS_GENOENT_13
 70
     0
  0
APPID
  2
GENIUS_GENBH_13
 70
     0
  0
APPID
  2
GENIUS_GENOBJ_13
 70
     0
  0
APPID
  2
GENIUS_GENODEF_13
 70
     0
  0
APPID
  2
GENIUS_GENOLIS_13
 70
     0
  0
APPID
  2
GENIUS_GENOBJ-NBEHI-BHF_13
 70
     0
  0
APPID
  2
GENIUS_GENOBJ-NBEHI-BHB_13
 70
     0
  0
APPID
  2
GENIUS_GENOBJ-F-PART_13
 70
     0
  0
APPID
  2
GENIUS_GEFSTDP_13
 70
     0
  0
APPID
  2
GENIUS_GENOBJ-N-RSSYM_13
 70
     0
  0
APPID
  2
GENIUS_GENSYMENT_13
 70
     0
  0
APPID
  2
GENIUS_GENOBJ-N-TIT_13
 70
     0
  0
APPID
  2
GENIUS_GENTITLE_13
 70
     0
  0
APPID
  2
GENIUS_GENZVEED_13
 70
     0
  0
APPID
  2
GENIUS_GENOBJ-N-LEADER_13
 70
     0
  0
APPID
  2
GENIUS_GENOBJ-N-FIL_13
 70
     0
  0
APPID
  2
GENIUS_GENOBJ-N-SEC_13
 70
     0
  0
APPID
  2
GENIUS_GENOBJ-N-CRS_13
 70
     0
  0
APPID
  2
GENIUS_GENOBJ-N-ZOO_13
 70
     0
  0
APPID
  2
GENIUS_GENZOO_13
 70
     0
  0
APPID
  2
GENIUS_GENOBJ-F-TOL_13
 70
     0
  0
APPID
  2
GENIUS_GENFIL_13
 70
     0
  0
APPID
  2
GENIUS_GENOBJ-N-CHA_13
 70
     0
  0
APPID
  2
ACAD_MLEADERVER
 70
     0
  0
APPID
  2
ACAD_EXEMPT_FROM_CAD_STANDARDS
 70
     0
  0
APPID
  2
ACAD_NAV_VCDISPLAY
 70
     0
  0
ENDTAB
  0
TABLE
  2
DIMSTYLE
 70
     2
  0
DIMSTYLE
  2
STANDARD
 70
     0
  3

  4

  5

  6

  7

 40
1.0
 41
0.18
 42
0.0625
 43
0.38
 44
0.18
 45
0.0
 46
0.0
 47
0.0
 48
0.0
140
0.18
141
0.09
142
0.0
143
25.399999999999999
144
1.0
145
0.0
146
1.0
147
0.09
 71
     0
 72
     0
 73
     1
 74
     1
 75
     0
 76
     0
 77
     0
 78
     0
170
     0
171
     2
172
     0
173
     0
174
     0
175
     0
176
     0
177
     0
178
     0
  0
DIMSTYLE
  2
ANNOTATIVE
 70
     0
  3

  4

  5

  6

  7

 40
1.0
 41
0.18
 42
0.0625
 43
0.38
 44
0.18
 45
0.0
 46
0.0
 47
0.0
 48
0.0
140
0.18
141
0.09
142
0.0
143
25.399999999999999
144
1.0
145
0.0
146
1.0
147
0.09
 71
     0
 72
     0
 73
     1
 74
     1
 75
     0
 76
     0
 77
     0
 78
     0
170
     0
171
     2
172
     0
173
     0
174
     0
175
     0
176
     0
177
     0
178
     0
  0
ENDTAB
  0
ENDSEC
  0
SECTION
  2
BLOCKS
  0
BLOCK
  8
0
  2
$MODEL_SPACE
 70
     0
 10
0.0
 20
0.0
 30
0.0
  3
$MODEL_SPACE
  1

  0
ENDBLK
  5
18C0
  8
0
  0
BLOCK
 67
     1
  8
0
  2
$PAPER_SPACE
 70
     0
 10
0.0
 20
0.0
 30
0.0
  3
$PAPER_SPACE
  1

  0
ENDBLK
  5
18BC
 67
     1
  8
0
  0
ENDSEC
  0
SECTION
  2
ENTITIES
  0
LINE
  5
1506
  8
1
 10
98.018254089707511
 20
125.078693549291
 30
0.0
 11
98.018254089707511
 21
24.078693549291248
 31
0.0
  0
LINE
  5
1507
  8
1
 10
28.041597459976739
 20
154.87126899688101
 30
0.0
 11
61.754410381078849
 21
154.87126899688101
 31
0.0
  0
ARC
  5
1508
  8
0
 10
44.898003920527842
 20
154.87126899688101
 30
0.0
 40
12.5
 50
313.73979529168719
 51
346.26020470831241
  0
ARC
  5
1509
  8
0
 10
44.898003920527842
 20
154.87126899688101
 30
0.0
 40
12.5
 50
13.739795291687591
 51
46.260204708312813
  0
ARC
  5
150A
  8
0
 10
44.898003920527842
 20
154.87126899688101
 30
0.0
 40
12.5
 50
73.739795291686903
 51
106.260204708313
  0
ARC
  5
150B
  8
0
 10
44.898003920527842
 20
154.87126899688101
 30
0.0
 40
12.5
 50
133.73979529168821
 51
166.26020470831131
  0
ARC
  5
150C
  8
0
 10
44.898003920527842
 20
154.87126899688101
 30
0.0
 40
12.5
 50
193.73979529168861
 51
226.2602047083117
  0
LINE
  5
150D
  8
0
 10
36.898003920527522
 20
93.867368683841079
 30
0.0
 11
36.898003920527522
 21
120.0786935492763
 31
0.0
  0
LINE
  5
150E
  8
3
 10
37.980503920527489
 20
93.867368683841207
 30
0.0
 11
37.980503920527489
 21
121.16119354927621
 31
0.0
  0
LINE
  5
150F
  8
0
 10
52.898003920527501
 20
93.867368683841207
 30
0.0
 11
52.898003920527501
 21
120.0786935492761
 31
0.0
  0
LINE
  5
1510
  8
3
 10
51.815503920527533
 20
93.867368683841079
 30
0.0
 11
51.815503920527533
 21
121.16119354927611
 31
0.0
  0
LINE
  5
1511
  8
3
 10
104.9357540897075
 20
93.867368683877714
 30
0.0
 11
104.9357540897075
 21
121.16119354927611
 31
0.0
  0
LINE
  5
1512
  8
0
 10
106.0182540897075
 20
93.867368683879647
 30
0.0
 11
106.0182540897075
 21
120.0786935492761
 31
0.0
  0
LINE
  5
1513
  8
0
 10
90.01825408970754
 20
93.867368683852717
 30
0.0
 11
90.018254089707483
 21
120.0786935492763
 31
0.0
  0
LINE
  5
1514
  8
3
 10
91.100754089707493
 20
93.867368683854536
 30
0.0
 11
91.100754089707493
 21
121.16119354927621
 31
0.0
  0
LINE
  5
1515
  8
3
 10
91.100754089707493
 20
56.078693549276238
 30
0.0
 11
90.018254089707483
 21
54.203748550082942
 31
0.0
  0
LINE
  5
1516
  8
0
 10
90.018254089707483
 20
120.0786935492763
 30
0.0
 11
92.018254089707511
 21
122.0786935492762
 31
0.0
  0
LINE
  5
1517
  8
0
 10
90.018254089707483
 20
53.942846427113579
 30
0.0
 11
90.01825408970754
 21
80.867368683841093
 31
0.0
  0
LINE
  5
1518
  8
3
 10
91.100754089707493
 20
56.078693549276238
 30
0.0
 11
91.100754089707493
 21
80.867368683839175
 31
0.0
  0
LINE
  5
1519
  8
3
 10
104.9357540897075
 20
56.078693549276238
 30
0.0
 11
106.0182540897075
 21
54.203748550082942
 31
0.0
  0
LINE
  5
151A
  8
0
 10
90.018254089707483
 20
56.078693549276238
 30
0.0
 11
106.0182540897075
 21
56.078693549276238
 31
0.0
  0
LINE
  5
151B
  8
0
 10
106.0182540897075
 20
120.0786935492761
 30
0.0
 11
90.018254089707483
 21
120.0786935492762
 31
0.0
  0
LINE
  5
151C
  8
0
 10
104.0182540897075
 20
122.078693549276
 30
0.0
 11
106.0182540897075
 21
120.0786935492761
 31
0.0
  0
LINE
  5
151D
  8
3
 10
104.9357540897075
 20
56.078693549276238
 30
0.0
 11
104.9357540897075
 21
80.867368683816196
 31
0.0
  0
LINE
  5
151E
  8
0
 10
106.0182540897075
 20
53.942846427113011
 30
0.0
 11
106.0182540897075
 21
80.867368683814263
 31
0.0
  0
LINE
  5
151F
  8
0
 10
92.018254089707511
 20
122.0786935492762
 30
0.0
 11
104.0182540897075
 21
122.078693549276
 31
0.0
  0
LINE
  5
1520
  8
1
 10
44.89800392052674
 20
24.078693549276242
 30
0.0
 11
44.8980039205277
 21
125.078693549276
 31
0.0
  0
LINE
  5
1521
  8
0
 10
105.73657490711371
 20
48.078693549276238
 30
0.0
 11
90.207163142407225
 21
48.078693549276238
 31
0.0
  0
LINE
  5
1522
  8
0
 10
90.207163142407495
 20
54.078693549276352
 30
0.0
 11
105.73657490711361
 21
54.07869354927611
 31
0.0
  0
ARC
  5
1523
  8
0
 10
104.90007225503599
 20
49.853530029632502
 30
0.0
 40
4.0893163974808306
 50
64.384247467888486
 51
124.3842474680048
  0
LINE
  5
1524
  8
0
 10
107.2094733317944
 20
53.228315247297751
 30
0.0
 11
105.73657490711339
 21
54.078693549276352
 31
0.0
  0
LINE
  5
1525
  8
0
 10
107.2094733317944
 20
48.929071851254598
 30
0.0
 11
105.73657490711339
 21
48.078693549276011
 31
0.0
  0
ARC
  5
1526
  8
0
 10
104.90007225503599
 20
52.303857068919847
 30
0.0
 40
4.0893163974808306
 50
235.6157525319951
 51
295.61575253211151
  0
LINE
  5
1527
  8
0
 10
107.2094733317944
 20
53.228315247297751
 30
0.0
 11
107.2094733317944
 21
48.929071851254598
 31
0.0
  0
LINE
  5
1528
  8
0
 10
102.5906711782784
 20
53.228315247297751
 30
0.0
 11
102.5906711782778
 21
48.929071851254371
 31
0.0
  0
LINE
  5
1529
  8
0
 10
93.353066871242504
 20
53.228315247297751
 30
0.0
 11
93.353066871243129
 21
48.929071851254371
 31
0.0
  0
LINE
  5
152A
  8
0
 10
88.73426471772656
 20
53.228315247297751
 30
0.0
 11
88.73426471772656
 21
48.929071851254598
 31
0.0
  0
ARC
  5
152B
  8
0
 10
97.971869024759997
 20
63.500009491642857
 30
0.0
 40
15.28546882020385
 50
252.41204622602851
 51
287.58795377397138
  0
ARC
  5
152C
  8
0
 10
91.04366579448498
 20
52.303857068919847
 30
0.0
 40
4.0893163974808306
 50
244.3842474678884
 51
304.38424746800479
  0
LINE
  5
152D
  8
0
 10
88.73426471772656
 20
48.929071851254598
 30
0.0
 11
90.207163142407495
 21
48.078693549276011
 31
0.0
  0
LINE
  5
152E
  8
0
 10
88.73426471772656
 20
53.228315247297751
 30
0.0
 11
90.207163142407495
 21
54.078693549276352
 31
0.0
  0
ARC
  5
152F
  8
0
 10
97.971869024759997
 20
38.657377606909513
 30
0.0
 40
15.28546882020385
 50
72.412046226028565
 51
107.58795377397141
  0
ARC
  5
1530
  8
0
 10
91.04366579448498
 20
49.853530029632502
 30
0.0
 40
4.0893163974808306
 50
55.615752531995177
 51
115.6157525321115
  0
LINE
  5
1531
  8
0
 10
37.133298038174011
 20
48.078693549276011
 30
0.0
 11
52.662709802879931
 21
48.078693549276011
 31
0.0
  0
LINE
  5
1532
  8
0
 10
52.662709802878886
 20
54.078693549276011
 30
0.0
 11
37.133298038174992
 21
54.078693549276011
 31
0.0
  0
ARC
  5
1533
  8
0
 10
40.898003920527003
 20
42.389428414485963
 30
0.0
 40
11.55341801262729
 50
69.743841999606843
 51
110.256158000393
  0
LINE
  5
1534
  8
0
 10
36.898003920526961
 20
53.942846427113238
 30
0.0
 11
37.133298038174992
 21
54.078693549276011
 31
0.0
  0
ARC
  5
1535
  8
0
 10
40.898003920527003
 20
59.767958684065498
 30
0.0
 40
11.55341801262729
 50
249.74384199960679
 51
290.2561580003931
  0
LINE
  5
1536
  8
0
 10
36.898003920526961
 20
48.214540671438321
 30
0.0
 11
37.133298038174992
 21
48.078693549275428
 31
0.0
  0
LINE
  5
1537
  8
0
 10
36.898003920526961
 20
53.942846427113238
 30
0.0
 11
36.898003920527003
 21
48.214540671438321
 31
0.0
  0
LINE
  5
1538
  8
0
 10
44.898003920527003
 20
53.228315247297289
 30
0.0
 11
44.898003920527003
 21
48.929071851253923
 31
0.0
  0
LINE
  5
1539
  8
0
 10
52.898003920527067
 20
53.942846427113238
 30
0.0
 11
52.89800392052701
 21
48.214540671438321
 31
0.0
  0
ARC
  5
153A
  8
0
 10
48.898003920527003
 20
59.767958684065498
 30
0.0
 40
11.55341801262729
 50
249.74384199960679
 51
290.2561580003931
  0
LINE
  5
153B
  8
0
 10
52.898003920527067
 20
48.214540671438321
 30
0.0
 11
52.662709802878958
 21
48.078693549275428
 31
0.0
  0
LINE
  5
153C
  8
0
 10
52.898003920527067
 20
53.942846427113238
 30
0.0
 11
52.662709802878958
 21
54.078693549276011
 31
0.0
  0
ARC
  5
153D
  8
0
 10
48.898003920527003
 20
42.389428414485963
 30
0.0
 40
11.55341801262729
 50
69.743841999606843
 51
110.256158000393
  0
LINE
  5
153E
  8
0
 10
38.898003920527522
 20
122.0786935492762
 30
0.0
 11
50.898003920527508
 21
122.078693549276
 31
0.0
  0
LINE
  5
153F
  8
0
 10
52.898003920527543
 20
53.942846427113011
 30
0.0
 11
52.898003920527543
 21
80.867368683840979
 31
0.0
  0
LINE
  5
1540
  8
3
 10
51.815503920527533
 20
56.078693549276238
 30
0.0
 11
51.815503920527533
 21
80.867368683840979
 31
0.0
  0
LINE
  5
1541
  8
3
 10
37.980503920527489
 20
56.078693549276238
 30
0.0
 11
37.980503920527489
 21
80.867368683840979
 31
0.0
  0
LINE
  5
1542
  8
0
 10
36.898003920527522
 20
53.942846427113579
 30
0.0
 11
36.898003920527522
 21
80.867368683841093
 31
0.0
  0
LINE
  5
1543
  8
0
 10
36.898003920527522
 20
120.0786935492763
 30
0.0
 11
38.898003920527522
 21
122.0786935492762
 31
0.0
  0
LINE
  5
1544
  8
0
 10
50.898003920527508
 20
122.078693549276
 30
0.0
 11
52.898003920527501
 21
120.0786935492761
 31
0.0
  0
LINE
  5
1545
  8
0
 10
52.898003920527501
 20
120.0786935492761
 30
0.0
 11
36.898003920527522
 21
120.0786935492762
 31
0.0
  0
LINE
  5
1546
  8
0
 10
36.898003920527522
 20
56.078693549276238
 30
0.0
 11
52.898003920527501
 21
56.078693549276238
 31
0.0
  0
LINE
  5
1547
  8
3
 10
37.980503920527489
 20
56.078693549276238
 30
0.0
 11
36.898003920527522
 21
54.203748550082942
 31
0.0
  0
LINE
  5
1548
  8
3
 10
51.815503920527533
 20
56.078693549276238
 30
0.0
 11
52.898003920527501
 21
54.203748550082942
 31
0.0
  0
LINE
  5
1549
  8
0
 10
56.398003920419448
 20
80.867368683841093
 30
0.0
 11
33.398003920635013
 21
80.867368683841093
 31
0.0
  0
LINE
  5
154A
  8
0
 10
33.398003920527231
 20
93.867368683841079
 30
0.0
 11
56.398003920419448
 21
93.867368683841079
 31
0.0
  0
ARC
  5
154B
  8
0
 10
55.290308765940722
 20
87.444718953555295
 30
0.0
 40
6.1339745957208196
 50
64.384247469851928
 51
124.3842474712113
  0
LINE
  5
154C
  8
0
 10
58.754410381100229
 20
92.506896779446905
 30
0.0
 11
56.398003920419448
 21
93.867368683841079
 31
0.0
  0
LINE
  5
154D
  8
0
 10
58.754410381100229
 20
82.227840588235324
 30
0.0
 11
56.398003920419448
 21
80.867368683841093
 31
0.0
  0
ARC
  5
154E
  8
0
 10
55.290308765940722
 20
87.290018414126905
 30
0.0
 40
6.1339745957208196
 50
235.6157525287887
 51
295.61575253014797
  0
LINE
  5
154F
  8
0
 10
58.754410381078387
 20
92.506896779446905
 30
0.0
 11
58.754410381078387
 21
82.227840588222705
 31
0.0
  0
LINE
  5
1550
  8
0
 10
51.826207150802581
 20
92.506896779446905
 30
0.0
 11
51.826207150802581
 21
82.227840588235324
 31
0.0
  0
LINE
  5
1551
  8
0
 10
37.969800690251873
 20
92.506896779446905
 30
0.0
 11
37.969800690251873
 21
82.227840588235324
 31
0.0
  0
LINE
  5
1552
  8
0
 10
31.04159745997606
 20
92.506896779446905
 30
0.0
 11
31.04159745997606
 21
82.227840588222705
 31
0.0
  0
ARC
  5
1553
  8
0
 10
44.898003920527231
 20
104.0842470465456
 30
0.0
 40
22.928203228139491
 50
252.41204622431411
 51
287.58795377568589
  0
ARC
  5
1554
  8
0
 10
34.505699075113732
 20
87.290018414126905
 30
0.0
 40
6.1339745957208196
 50
244.384247469852
 51
304.38424747121132
  0
LINE
  5
1555
  8
0
 10
31.041597459954229
 20
82.227840588235324
 30
0.0
 11
33.398003920635013
 21
80.867368683841093
 31
0.0
  0
LINE
  5
1556
  8
0
 10
31.041597459954229
 20
92.506896779446905
 30
0.0
 11
33.398003920635013
 21
93.867368683841079
 31
0.0
  0
ARC
  5
1557
  8
0
 10
34.505699075113732
 20
87.444718953555295
 30
0.0
 40
6.1339745957208196
 50
55.61575252878869
 51
115.615752530148
  0
ARC
  5
1558
  8
0
 10
44.898003920527231
 20
70.650490321136587
 30
0.0
 40
22.928203228139491
 50
72.412046224314182
 51
107.5879537756858
  0
LINE
  5
1559
  8
0
 10
109.51825408974069
 20
80.867368683822008
 30
0.0
 11
86.518254089674315
 21
80.867368683860434
 31
0.0
  0
LINE
  5
155A
  8
0
 10
86.518254089674315
 20
93.867368683860434
 30
0.0
 11
109.51825408974069
 21
93.867368683898874
 31
0.0
  0
ARC
  5
155B
  8
0
 10
92.018254089740694
 20
76.248566531962112
 30
0.0
 40
17.330127017333279
 50
69.743841997641496
 51
110.2561580023585
  0
LINE
  5
155C
  8
0
 10
86.018254089725716
 20
93.578693549295465
 30
0.0
 11
86.518254089740694
 21
93.867368683898874
 31
0.0
  0
LINE
  5
155D
  8
0
 10
86.018254089725716
 20
81.156043818425402
 30
0.0
 11
86.518254089740694
 21
80.867368683822008
 31
0.0
  0
ARC
  5
155E
  8
0
 10
92.018254089740694
 20
98.486170835758742
 30
0.0
 40
17.330127017333279
 50
249.7438419976414
 51
290.25615800235852
  0
LINE
  5
155F
  8
0
 10
86.018254089725716
 20
93.578693549295465
 30
0.0
 11
86.018254089740694
 21
81.156043818416748
 31
0.0
  0
LINE
  5
1560
  8
0
 10
98.018254089740694
 20
82.227840588254665
 30
0.0
 11
98.018254089740694
 21
92.506896779466203
 31
0.0
  0
LINE
  5
1561
  8
0
 10
110.0182540897557
 20
93.578693549295465
 30
0.0
 11
110.01825408974069
 21
81.156043818416748
 31
0.0
  0
ARC
  5
1562
  8
0
 10
104.01825408974069
 20
98.486170835758742
 30
0.0
 40
17.330127017333279
 50
249.7438419976414
 51
290.25615800235852
  0
LINE
  5
1563
  8
0
 10
110.0182540897557
 20
81.156043818425402
 30
0.0
 11
109.51825408974069
 21
80.867368683822008
 31
0.0
  0
LINE
  5
1564
  8
0
 10
110.0182540897557
 20
93.578693549295465
 30
0.0
 11
109.51825408974069
 21
93.867368683898874
 31
0.0
  0
ARC
  5
1565
  8
0
 10
104.01825408974069
 20
76.248566531962112
 30
0.0
 40
17.330127017333279
 50
69.743841997641496
 51
110.2561580023585
  0
CIRCLE
  5
1566
  8
3
 10
44.898003920527842
 20
154.87126899688101
 30
0.0
 40
6.9175000000000004
  0
CIRCLE
  5
1567
  8
0
 10
44.898003920527842
 20
154.87126899688101
 30
0.0
 40
8.0
  0
CIRCLE
  5
1568
  8
0
 10
44.898003920527842
 20
154.87126899688101
 30
0.0
 40
11.5
  0
LINE
  5
1569
  8
0
 10
58.754410381078863
 20
154.87126899688101
 30
0.0
 11
51.82620715080327
 21
166.87126899688101
 31
0.0
  0
LINE
  5
156A
  8
0
 10
51.82620715080327
 20
142.87126899688101
 30
0.0
 11
58.754410381078863
 21
154.87126899688101
 31
0.0
  0
LINE
  5
156B
  8
0
 10
37.969800690252328
 20
142.87126899688101
 30
0.0
 11
51.82620715080327
 21
142.87126899688101
 31
0.0
  0
LINE
  5
156C
  8
0
 10
31.041597459976732
 20
154.87126899688101
 30
0.0
 11
37.969800690252328
 21
142.87126899688101
 31
0.0
  0
LINE
  5
156D
  8
0
 10
37.969800690252328
 20
166.87126899688101
 30
0.0
 11
31.041597459976732
 21
154.87126899688101
 31
0.0
  0
LINE
  5
156E
  8
0
 10
51.82620715080327
 20
166.87126899688101
 30
0.0
 11
37.969800690252328
 21
166.87126899688101
 31
0.0
  0
LINE
  5
157E
  8
1
 10
44.898003920527842
 20
170.37126899688101
 30
0.0
 11
44.898003920527842
 21
139.37126899688101
 31
0.0
  0
ARC
  5
157F
  8
0
 10
44.898003920527842
 20
154.87126899688101
 30
0.0
 40
12.5
 50
253.73979529168909
 51
286.26020470831071
  0
LINE
  5
1580
  8
0
 10
86.018254089707526
 20
30.078693549276242
 30
0.0
 11
110.0182540897075
 21
30.078693549276242
 31
0.0
  0
LINE
  5
1581
  8
0
 10
85.518254089707483
 20
30.578693549276242
 30
0.0
 11
85.518254089707483
 21
34.078693549276238
 31
0.0
  0
LINE
  5
1582
  8
0
 10
110.5182540897075
 20
30.578693549276242
 30
0.0
 11
110.5182540897075
 21
34.078693549276238
 31
0.0
  0
LINE
  5
1583
  8
0
 10
86.018254089707526
 20
30.078693549276242
 30
0.0
 11
85.518254089707483
 21
30.578693549276242
 31
0.0
  0
LINE
  5
1584
  8
0
 10
110.5182540897075
 20
30.578693549276242
 30
0.0
 11
110.0182540897075
 21
30.078693549276242
 31
0.0
  0
LINE
  5
1585
  8
0
 10
89.518254089707511
 20
42.078693549276217
 30
0.0
 11
106.5182540897075
 21
42.078693549276217
 31
0.0
  0
LINE
  5
1586
  8
0
 10
85.518254089707483
 20
34.078693549276238
 30
0.0
 11
110.5182540897075
 21
34.078693549276238
 31
0.0
  0
LINE
  5
1587
  8
0
 10
110.5182540897075
 20
34.078693549276238
 30
0.0
 11
108.0182540897075
 21
36.578693549276252
 31
0.0
  0
LINE
  5
1588
  8
0
 10
106.5182540897075
 20
42.078693549276217
 30
0.0
 11
108.0182540897075
 21
36.578693549276252
 31
0.0
  0
LINE
  5
1589
  8
0
 10
85.518254089707483
 20
34.078693549276238
 30
0.0
 11
88.018254089707511
 21
36.578693549276252
 31
0.0
  0
LINE
  5
158A
  8
0
 10
89.518254089707511
 20
42.078693549276217
 30
0.0
 11
88.018254089707511
 21
36.578693549276252
 31
0.0
  0
LINE
  5
158B
  8
0
 10
108.0182540897075
 20
36.578693549276252
 30
0.0
 11
88.018254089707511
 21
36.578693549276252
 31
0.0
  0
LINE
  5
158C
  8
0
 10
103.5182540897076
 20
45.078693549276231
 30
0.0
 11
92.518254089707625
 21
45.078693549276231
 31
0.0
  0
LINE
  5
158D
  8
0
 10
92.518254089707625
 20
45.078693549276231
 30
0.0
 11
92.518254089707625
 21
48.07869354927611
 31
0.0
  0
LINE
  5
158E
  8
0
 10
103.5182540897076
 20
45.078693549276231
 30
0.0
 11
103.5182540897076
 21
48.07869354927611
 31
0.0
  0
ARC
  5
158F
  8
0
 10
98.018254089707625
 20
40.748566530354033
 30
0.0
 40
7.0
 50
141.78678929826171
 51
169.04615684538459
  0
ARC
  5
1590
  8
0
 10
98.018254089707625
 20
40.748566530354033
 30
0.0
 40
7.0
 50
10.95384315461536
 51
38.213210701738468
  0
ARC
  5
1591
  8
0
 10
44.898003920526882
 20
40.748566530354033
 30
0.0
 40
7.0
 50
10.95384315461536
 51
38.213210701738468
  0
ARC
  5
1592
  8
0
 10
44.898003920526882
 20
40.748566530354033
 30
0.0
 40
7.0
 50
141.78678929826171
 51
169.04615684538459
  0
LINE
  5
1593
  8
0
 10
50.398003920526889
 20
45.078693549276231
 30
0.0
 11
50.398003920526889
 21
48.078693549276011
 31
0.0
  0
LINE
  5
1594
  8
0
 10
39.398003920526889
 20
45.078693549276231
 30
0.0
 11
39.398003920526889
 21
48.078693549276011
 31
0.0
  0
LINE
  5
1595
  8
0
 10
50.398003920526889
 20
45.078693549276231
 30
0.0
 11
39.398003920526889
 21
45.078693549276231
 31
0.0
  0
LINE
  5
1596
  8
0
 10
54.89800392052679
 20
36.578693549276252
 30
0.0
 11
34.89800392052679
 21
36.578693549276252
 31
0.0
  0
LINE
  5
1597
  8
0
 10
36.398003920526783
 20
42.078693549276217
 30
0.0
 11
34.89800392052679
 21
36.578693549276252
 31
0.0
  0
LINE
  5
1598
  8
0
 10
32.39800392052679
 20
34.078693549276238
 30
0.0
 11
34.89800392052679
 21
36.578693549276252
 31
0.0
  0
LINE
  5
1599
  8
0
 10
53.398003920526762
 20
42.078693549276217
 30
0.0
 11
54.89800392052679
 21
36.578693549276252
 31
0.0
  0
LINE
  5
159A
  8
0
 10
57.39800392052679
 20
34.078693549276238
 30
0.0
 11
54.89800392052679
 21
36.578693549276252
 31
0.0
  0
LINE
  5
159B
  8
0
 10
32.39800392052679
 20
34.078693549276238
 30
0.0
 11
57.39800392052679
 21
34.078693549276238
 31
0.0
  0
LINE
  5
159C
  8
0
 10
36.398003920526783
 20
42.078693549276217
 30
0.0
 11
53.398003920526762
 21
42.078693549276217
 31
0.0
  0
LINE
  5
159D
  8
0
 10
57.39800392052679
 20
30.578693549276242
 30
0.0
 11
56.898003920526783
 21
30.078693549276242
 31
0.0
  0
LINE
  5
159E
  8
0
 10
32.898003920526783
 20
30.078693549276242
 30
0.0
 11
32.39800392052679
 21
30.578693549276242
 31
0.0
  0
LINE
  5
159F
  8
0
 10
57.39800392052679
 20
30.578693549276242
 30
0.0
 11
57.39800392052679
 21
34.078693549276238
 31
0.0
  0
LINE
  5
15A0
  8
0
 10
32.39800392052679
 20
30.578693549276242
 30
0.0
 11
32.39800392052679
 21
34.078693549276238
 31
0.0
  0
LINE
  5
15A1
  8
0
 10
32.898003920526783
 20
30.078693549276242
 30
0.0
 11
56.898003920526783
 21
30.078693549276242
 31
0.0
  0
LINE
  5
15A2
  8
0
 10
32.898003920526783
 20
27.078693549276242
 30
0.0
 11
56.898003920526783
 21
27.078693549276242
 31
0.0
  0
LINE
  5
15A3
  8
0
 10
32.898003920526783
 20
27.078693549276348
 30
0.0
 11
32.898003920526783
 21
30.078693549276242
 31
0.0
  0
LINE
  5
15A4
  8
0
 10
56.898003920526783
 20
27.078693549276132
 30
0.0
 11
56.898003920526648
 21
30.078693549276242
 31
0.0
  0
LINE
  5
15A5
  8
0
 10
110.0182540897075
 20
27.078693549276132
 30
0.0
 11
110.0182540897074
 21
30.078693549276242
 31
0.0
  0
LINE
  5
15A6
  8
0
 10
86.018254089707526
 20
27.078693549276348
 30
0.0
 11
86.018254089707526
 21
30.078693549276242
 31
0.0
  0
LINE
  5
15A7
  8
0
 10
86.018254089707526
 20
27.078693549276242
 30
0.0
 11
110.0182540897075
 21
27.078693549276242
 31
0.0
  0
TEXT
  5
1940
  8
0
 62
     3
 10
0.0
 20
0.0
 30
0.0
 40
10.0
  1
LSAR25S16A
  7
STANDARD1
  0
ENDSEC
  0
EOF
