  0
SECTION
  2
HEADER
  9
$ACADVER
  1
AC1009
  9
$INSBASE
 10
0.0
 20
0.0
 30
0.0
  9
$EXTMIN
 10
0.0
 20
-2.960436562073669
 30
0.0
  9
$EXTMAX
 10
110.5182540897075
 20
197.7802021464326
 30
0.0
  9
$LIMMIN
 10
0.0
 20
0.0
  9
$LIMMAX
 10
375.0
 20
270.0
  9
$ORTHOMODE
 70
     1
  9
$REGENMODE
 70
     1
  9
$FILLMODE
 70
     1
  9
$QTEXTMODE
 70
     0
  9
$MIRRTEXT
 70
     0
  9
$DRAGMODE
 70
     2
  9
$LTSCALE
 40
6.0
  9
$OSMODE
 70
  3071
  9
$ATTMODE
 70
     1
  9
$TEXTSIZE
 40
0.2
  9
$TRACEWID
 40
0.05
  9
$TEXTSTYLE
  7
STANDARD
  9
$CLAYER
  8
0
  9
$CELTYPE
  6
BYLAYER
  9
$CECOLOR
 62
   256
  9
$DIMSCALE
 40
1.0
  9
$DIMASZ
 40
3.0
  9
$DIMEXO
 40
1.0
  9
$DIMDLI
 40
6.0
  9
$DIMRND
 40
0.0
  9
$DIMDLE
 40
0.0
  9
$DIMEXE
 40
1.0
  9
$DIMTP
 40
495.0
  9
$DIMTM
 40
0.0
  9
$DIMTXT
 40
3.0
  9
$DIMCEN
 40
0.0
  9
$DIMTSZ
 40
0.0
  9
$DIMTOL
 70
     0
  9
$DIMLIM
 70
     0
  9
$DIMTIH
 70
     0
  9
$DIMTOH
 70
     0
  9
$DIMSE1
 70
     0
  9
$DIMSE2
 70
     0
  9
$DIMTAD
 70
     1
  9
$DIMZIN
 70
     0
  9
$DIMBLK
  1

  9
$DIMASO
 70
     0
  9
$DIMSHO
 70
     0
  9
$DIMPOST
  1

  9
$DIMAPOST
  1

  9
$DIMALT
 70
     0
  9
$DIMALTD
 70
     2
  9
$DIMALTF
 40
25.399999999999999
  9
$DIMLFAC
 40
1.0
  9
$DIMTOFL
 70
     1
  9
$DIMTVP
 40
0.0
  9
$DIMTIX
 70
     1
  9
$DIMSOXD
 70
     0
  9
$DIMSAH
 70
     0
  9
$DIMBLK1
  1

  9
$DIMBLK2
  1

  9
$DIMSTYLE
  2
STANDARD
  9
$DIMCLRD
 70
     0
  9
$DIMCLRE
 70
     0
  9
$DIMCLRT
 70
     4
  9
$DIMTFAC
 40
1.0
  9
$DIMGAP
 40
1.0
  9
$LUNITS
 70
     2
  9
$LUPREC
 70
     4
  9
$SKETCHINC
 40
0.1
  9
$FILLETRAD
 40
2.0
  9
$AUNITS
 70
     0
  9
$AUPREC
 70
     0
  9
$MENU
  1
C:\R13\WIN\SUPPORT\ACAD-I
  9
$ELEVATION
 40
0.0
  9
$PELEVATION
 40
0.0
  9
$THICKNESS
 40
0.0
  9
$LIMCHECK
 70
     0
  9
$BLIPMODE
 70
     0
  9
$CHAMFERA
 40
0.0
  9
$CHAMFERB
 40
0.0
  9
$SKPOLY
 70
     0
  9
$TDCREATE
 40
2451961.6910885531
  9
$TDUPDATE
 40
2456597.6074631251
  9
$TDINDWG
 40
0.0326037963
  9
$TDUSRTIMER
 40
2456548.0791986692
  9
$USRTIMER
 70
     1
  9
$ANGBASE
 50
0.0
  9
$ANGDIR
 70
     0
  9
$PDMODE
 70
     0
  9
$PDSIZE
 40
0.0
  9
$PLINEWID
 40
0.0
  9
$COORDS
 70
     1
  9
$SPLFRAME
 70
     0
  9
$SPLINETYPE
 70
     6
  9
$SPLINESEGS
 70
     8
  9
$ATTDIA
 70
     0
  9
$ATTREQ
 70
     1
  9
$HANDLING
 70
     1
  9
$HANDSEED
  5
1843
  9
$SURFTAB1
 70
     6
  9
$SURFTAB2
 70
     6
  9
$SURFTYPE
 70
     6
  9
$SURFU
 70
     6
  9
$SURFV
 70
     6
  9
$UCSNAME
  2

  9
$UCSORG
 10
0.0
 20
0.0
 30
0.0
  9
$UCSXDIR
 10
1.0
 20
0.0
 30
0.0
  9
$UCSYDIR
 10
0.0
 20
1.0
 30
0.0
  9
$PUCSNAME
  2

  9
$PUCSORG
 10
0.0
 20
0.0
 30
0.0
  9
$PUCSXDIR
 10
1.0
 20
0.0
 30
0.0
  9
$PUCSYDIR
 10
0.0
 20
1.0
 30
0.0
  9
$USERI1
 70
     4
  9
$USERI2
 70
     1
  9
$USERI3
 70
     0
  9
$USERI4
 70
     0
  9
$USERI5
 70
     0
  9
$USERR1
 40
1.0
  9
$USERR2
 40
3.0
  9
$USERR3
 40
3.0
  9
$USERR4
 40
3.0
  9
$USERR5
 40
10.0
  9
$WORLDVIEW
 70
     1
  9
$SHADEDGE
 70
     3
  9
$SHADEDIF
 70
    70
  9
$TILEMODE
 70
     1
  9
$MAXACTVP
 70
    16
  9
$PLIMCHECK
 70
     0
  9
$PEXTMIN
 10
1.0000000000000000E+020
 20
1.0000000000000000E+020
 30
1.0000000000000000E+020
  9
$PEXTMAX
 10
-1.0000000000000000E+020
 20
-1.0000000000000000E+020
 30
-1.0000000000000000E+020
  9
$PLIMMIN
 10
0.0
 20
0.0
  9
$PLIMMAX
 10
12.0
 20
9.0
  9
$UNITMODE
 70
     0
  9
$VISRETAIN
 70
     0
  9
$PLINEGEN
 70
     0
  9
$PSLTSCALE
 70
     0
  0
ENDSEC
  0
SECTION
  2
TABLES
  0
TABLE
  2
VPORT
 70
     1
  0
VPORT
  2
*ACTIVE
 70
     0
 10
0.0
 20
0.0
 11
1.0
 21
1.0
 12
187.49427839065231
 22
134.10366293909439
 13
0.0
 23
0.0
 14
10.0
 24
10.0
 15
10.0
 25
10.0
 16
0.0
 26
0.0
 36
1.0
 17
0.0
 27
0.0
 37
0.0
 40
277.29405978699532
 41
2.304913294797688
 42
50.0
 43
0.0
 44
0.0
 50
0.0
 51
0.0
 71
    16
 72
   100
 73
     1
 74
     0
 75
     0
 76
     0
 77
     0
 78
     0
  0
ENDTAB
  0
TABLE
  2
LTYPE
 70
     3
  0
LTYPE
  2
CONTINUOUS
 70
     0
  3
Solid Line
 72
    65
 73
     0
 40
0.0
  0
LTYPE
  2
PHANTOM2
 70
     0
  3
___ _ _ ___ _ _ ___ _ _ ___ _ _
 72
    65
 73
     6
 40
1.25
 49
0.625
 49
-0.125
 49
0.125
 49
-0.125
 49
0.125
 49
-0.125
  0
LTYPE
  2
CENTER
 70
     0
  3
____ _ ____ _ ____ _ ____ _ ____ _ ____ _ ____
 72
    65
 73
     4
 40
2.0
 49
1.25
 49
-0.25
 49
0.25
 49
-0.25
  0
ENDTAB
  0
TABLE
  2
LAYER
 70
     3
  0
LAYER
  2
0
 70
     0
 62
     7
  6
CONTINUOUS
  0
LAYER
  2
1
 70
     0
 62
     1
  6
CENTER
  0
LAYER
  2
3
 70
     0
 62
     3
  6
CONTINUOUS
  0
ENDTAB
  0
TABLE
  2
STYLE
 70
     3
  0
STYLE
  2
STANDARD
 70
     0
 40
0.0
 41
1.0
 50
0.0
 71
     0
 42
0.2
  3
SIMPLEX
  4
BIGFONT
  0
STYLE
  2
ANNOTATIVE
 70
     0
 40
0.0
 41
1.0
 50
0.0
 71
     0
 42
0.2
  3
txt
  4

  0
STYLE
  2
STANDARD1
 70
     0
 40
0.0
 41
1.0
 50
0.0
 71
     0
 42
3.0
  3
txt
  4

  0
ENDTAB
  0
TABLE
  2
VIEW
 70
     0
  0
ENDTAB
  0
TABLE
  2
UCS
 70
     0
  0
ENDTAB
  0
TABLE
  2
APPID
 70
    29
  0
APPID
  2
ACAD
 70
     0
  0
APPID
  2
ACADANNOTATIVE
 70
     0
  0
APPID
  2
GENIUS_GENOREF_13
 70
     0
  0
APPID
  2
GENIUS_GENOENT_13
 70
     0
  0
APPID
  2
GENIUS_GENBH_13
 70
     0
  0
APPID
  2
GENIUS_GENOBJ_13
 70
     0
  0
APPID
  2
GENIUS_GENODEF_13
 70
     0
  0
APPID
  2
GENIUS_GENOLIS_13
 70
     0
  0
APPID
  2
GENIUS_GENOBJ-NBEHI-BHF_13
 70
     0
  0
APPID
  2
GENIUS_GENOBJ-NBEHI-BHB_13
 70
     0
  0
APPID
  2
GENIUS_GENOBJ-F-PART_13
 70
     0
  0
APPID
  2
GENIUS_GEFSTDP_13
 70
     0
  0
APPID
  2
GENIUS_GENOBJ-N-RSSYM_13
 70
     0
  0
APPID
  2
GENIUS_GENSYMENT_13
 70
     0
  0
APPID
  2
GENIUS_GENOBJ-N-TIT_13
 70
     0
  0
APPID
  2
GENIUS_GENTITLE_13
 70
     0
  0
APPID
  2
GENIUS_GENZVEED_13
 70
     0
  0
APPID
  2
GENIUS_GENOBJ-N-LEADER_13
 70
     0
  0
APPID
  2
GENIUS_GENOBJ-N-FIL_13
 70
     0
  0
APPID
  2
GENIUS_GENOBJ-N-SEC_13
 70
     0
  0
APPID
  2
GENIUS_GENOBJ-N-CRS_13
 70
     0
  0
APPID
  2
GENIUS_GENOBJ-N-ZOO_13
 70
     0
  0
APPID
  2
GENIUS_GENZOO_13
 70
     0
  0
APPID
  2
GENIUS_GENOBJ-F-TOL_13
 70
     0
  0
APPID
  2
GENIUS_GENFIL_13
 70
     0
  0
APPID
  2
GENIUS_GENOBJ-N-CHA_13
 70
     0
  0
APPID
  2
ACAD_MLEADERVER
 70
     0
  0
APPID
  2
ACAD_EXEMPT_FROM_CAD_STANDARDS
 70
     0
  0
APPID
  2
ACAD_NAV_VCDISPLAY
 70
     0
  0
ENDTAB
  0
TABLE
  2
DIMSTYLE
 70
     2
  0
DIMSTYLE
  2
STANDARD
 70
     0
  3

  4

  5

  6

  7

 40
1.0
 41
0.18
 42
0.0625
 43
0.38
 44
0.18
 45
0.0
 46
0.0
 47
0.0
 48
0.0
140
0.18
141
0.09
142
0.0
143
25.399999999999999
144
1.0
145
0.0
146
1.0
147
0.09
 71
     0
 72
     0
 73
     1
 74
     1
 75
     0
 76
     0
 77
     0
 78
     0
170
     0
171
     2
172
     0
173
     0
174
     0
175
     0
176
     0
177
     0
178
     0
  0
DIMSTYLE
  2
ANNOTATIVE
 70
     0
  3

  4

  5

  6

  7

 40
1.0
 41
0.18
 42
0.0625
 43
0.38
 44
0.18
 45
0.0
 46
0.0
 47
0.0
 48
0.0
140
0.18
141
0.09
142
0.0
143
25.399999999999999
144
1.0
145
0.0
146
1.0
147
0.09
 71
     0
 72
     0
 73
     1
 74
     1
 75
     0
 76
     0
 77
     0
 78
     0
170
     0
171
     2
172
     0
173
     0
174
     0
175
     0
176
     0
177
     0
178
     0
  0
ENDTAB
  0
ENDSEC
  0
SECTION
  2
BLOCKS
  0
BLOCK
  8
0
  2
$MODEL_SPACE
 70
     0
 10
0.0
 20
0.0
 30
0.0
  3
$MODEL_SPACE
  1

  0
ENDBLK
  5
1766
  8
0
  0
BLOCK
 67
     1
  8
0
  2
$PAPER_SPACE
 70
     0
 10
0.0
 20
0.0
 30
0.0
  3
$PAPER_SPACE
  1

  0
ENDBLK
  5
1762
 67
     1
  8
0
  0
ENDSEC
  0
SECTION
  2
ENTITIES
  0
LINE
  5
13B6
  8
0
 10
93.976802205381873
 20
50.298038309845367
 30
0.0
 11
93.976802205380054
 21
46.859348788707557
 31
0.0
  0
LINE
  5
13B7
  8
0
 10
102.05970597403299
 20
50.298038309847179
 30
0.0
 11
102.0597059740349
 21
46.859348788707557
 31
0.0
  0
LINE
  5
13B8
  8
0
 10
106.1011578583622
 20
50.298038309846717
 30
0.0
 11
106.1011578583622
 21
46.859348788705752
 31
0.0
  0
ARC
  5
13B9
  8
0
 10
104.08043191619841
 20
49.812285854158887
 30
0.0
 40
3.5781518477924039
 50
235.61575253196131
 51
295.61575253217421
  0
LINE
  5
13BA
  8
0
 10
106.1011578583622
 20
46.859348788705752
 30
0.0
 11
104.7490233204755
 21
46.078693549276238
 31
0.0
  0
LINE
  5
13BB
  8
0
 10
106.1011578583622
 20
50.298038309846611
 30
0.0
 11
104.7490233204755
 21
51.078693549276238
 31
0.0
  0
ARC
  5
13BC
  8
0
 10
104.08043191619841
 20
47.34510124439354
 30
0.0
 40
3.5781518477924039
 50
64.384247467825759
 51
124.38424746803869
  0
LINE
  5
13BD
  8
0
 10
91.287484858938356
 20
51.078693549276238
 30
0.0
 11
104.7490233204753
 21
51.078693549276238
 31
0.0
  0
LINE
  5
13BE
  8
0
 10
104.7490233204755
 20
46.078693549276238
 30
0.0
 11
91.287484858939806
 21
46.078693549276238
 31
0.0
  0
CIRCLE
  5
13BF
  8
0
 10
44.898003920527557
 20
182.2802021464326
 30
0.0
 40
12.5
  0
LINE
  5
13C0
  8
1
 10
44.898003920527557
 20
197.7802021464326
 30
0.0
 11
44.898003920527557
 21
166.7802021464326
 31
0.0
  0
LINE
  5
13C1
  8
1
 10
60.398003920527557
 20
182.2802021464326
 30
0.0
 11
29.398003920527561
 21
182.2802021464326
 31
0.0
  0
LINE
  5
13D1
  8
0
 10
104.0182540897075
 20
72.078693549276593
 30
0.0
 11
104.0182540897075
 21
147.07869354927661
 31
0.0
  0
LINE
  5
13D2
  8
3
 10
103.07125408970759
 20
72.078693549276593
 30
0.0
 11
103.07125408970759
 21
148.02569354927661
 31
0.0
  0
LINE
  5
13D3
  8
0
 10
92.018254089707483
 20
72.078693549276593
 30
0.0
 11
92.018254089707483
 21
147.07869354927669
 31
0.0
  0
LINE
  5
13D4
  8
3
 10
92.965254089707486
 20
72.078693549276593
 30
0.0
 11
92.965254089707585
 21
148.02569354927661
 31
0.0
  0
LINE
  5
13D5
  8
0
 10
38.898003920526989
 20
72.078693549276451
 30
0.0
 11
38.898003920526989
 21
147.07869354927669
 31
0.0
  0
LINE
  5
13D6
  8
3
 10
39.845003920526992
 20
72.078693549276451
 30
0.0
 11
39.845003920527112
 21
148.02569354927661
 31
0.0
  0
LINE
  5
13D7
  8
3
 10
49.951003920527107
 20
72.078693549276593
 30
0.0
 11
49.951003920527107
 21
148.02569354927661
 31
0.0
  0
LINE
  5
13D8
  8
0
 10
50.898003920526982
 20
72.078693549276451
 30
0.0
 11
50.898003920526982
 21
147.07869354927661
 31
0.0
  0
LINE
  5
13D9
  8
3
 10
92.965254089707486
 20
53.078693549276579
 30
0.0
 11
92.018254089707483
 21
51.438441434508889
 31
0.0
  0
LINE
  5
13DA
  8
0
 10
94.018254089707483
 20
149.07869354927669
 30
0.0
 11
92.018254089707483
 21
147.07869354927669
 31
0.0
  0
LINE
  5
13DB
  8
3
 10
92.965254089707486
 20
53.078693549276579
 30
0.0
 11
92.965254089707486
 21
62.0786935492767
 31
0.0
  0
LINE
  5
13DC
  8
0
 10
92.018254089707483
 20
51.078693549276572
 30
0.0
 11
92.018254089707483
 21
62.0786935492767
 31
0.0
  0
LINE
  5
13DD
  8
3
 10
103.07125408970749
 20
53.078693549276579
 30
0.0
 11
104.0182540897075
 21
51.438441434508889
 31
0.0
  0
LINE
  5
13DE
  8
0
 10
104.0182540897075
 20
53.078693549276579
 30
0.0
 11
92.018254089707483
 21
53.078693549276579
 31
0.0
  0
LINE
  5
13DF
  8
0
 10
92.018254089707483
 20
147.07869354927669
 30
0.0
 11
104.0182540897075
 21
147.07869354927661
 31
0.0
  0
LINE
  5
13E0
  8
0
 10
102.0182540897075
 20
149.07869354927661
 30
0.0
 11
104.0182540897075
 21
147.07869354927661
 31
0.0
  0
LINE
  5
13E1
  8
3
 10
103.07125408970759
 20
53.078693549276579
 30
0.0
 11
103.07125408970759
 21
62.0786935492767
 31
0.0
  0
LINE
  5
13E2
  8
0
 10
104.0182540897075
 20
51.078693549276572
 30
0.0
 11
104.0182540897075
 21
62.0786935492767
 31
0.0
  0
LINE
  5
13E3
  8
0
 10
94.018254089707483
 20
149.07869354927669
 30
0.0
 11
102.0182540897075
 21
149.07869354927661
 31
0.0
  0
LINE
  5
13E4
  8
0
 10
50.38283147782429
 20
70.941512638650636
 30
0.0
 11
50.38283147782839
 21
63.215874459902068
 31
0.0
  0
LINE
  5
13E5
  8
0
 10
55.867659035130131
 20
70.941512638650636
 30
0.0
 11
55.867659035130131
 21
63.215874459902281
 31
0.0
  0
LINE
  5
13E6
  8
0
 10
39.413176363229901
 20
70.941512638650636
 30
0.0
 11
39.41317636322583
 21
63.215874459902068
 31
0.0
  0
LINE
  5
13E7
  8
0
 10
33.928348805924081
 20
70.941512638650636
 30
0.0
 11
33.928348805924081
 21
63.215874459902281
 31
0.0
  0
LINE
  5
13E8
  8
0
 10
33.928348805924081
 20
63.215874459902409
 30
0.0
 11
35.898003920525731
 21
62.078693549276579
 31
0.0
  0
ARC
  5
13E9
  8
0
 10
36.670762584574717
 20
67.223431905879863
 30
0.0
 40
4.8560632220084567
 50
244.3842474680865
 51
304.38424746801689
  0
ARC
  5
13EA
  8
0
 10
44.898003920527103
 20
80.518862907856857
 30
0.0
 40
18.15149422398537
 50
252.41204622603641
 51
287.5879537739637
  0
ARC
  5
13EB
  8
0
 10
53.125245256479481
 20
67.223431905879863
 30
0.0
 40
4.8560632220084567
 50
235.61575253198311
 51
295.61575253191347
  0
LINE
  5
13EC
  8
0
 10
55.867659035130131
 20
63.215874459902409
 30
0.0
 11
53.898003920528467
 21
62.078693549276579
 31
0.0
  0
LINE
  5
13ED
  8
0
 10
35.898003920525731
 20
62.078693549276579
 30
0.0
 11
53.898003920528467
 21
62.078693549276579
 31
0.0
  0
LINE
  5
13EE
  8
0
 10
35.898003920525731
 20
72.078693549276451
 30
0.0
 11
53.898003920528467
 21
72.078693549276451
 31
0.0
  0
LINE
  5
13EF
  8
0
 10
55.867659035130131
 20
70.941512638650636
 30
0.0
 11
53.898003920528467
 21
72.078693549276451
 31
0.0
  0
ARC
  5
13F0
  8
0
 10
53.125245256479481
 20
66.933955192673182
 30
0.0
 40
4.8560632220084567
 50
64.384247468086485
 51
124.3842474680168
  0
ARC
  5
13F1
  8
0
 10
44.898003920527103
 20
53.638524190696153
 30
0.0
 40
18.15149422398537
 50
72.412046226036352
 51
107.5879537739636
  0
ARC
  5
13F2
  8
0
 10
36.670762584574717
 20
66.933955192673182
 30
0.0
 40
4.8560632220084567
 50
55.61575253198307
 51
115.6157525319135
  0
LINE
  5
13F3
  8
0
 10
33.928348805924081
 20
70.941512638650636
 30
0.0
 11
35.898003920525731
 21
72.078693549276451
 31
0.0
  0
LINE
  5
13F5
  8
0
 10
107.0182540897075
 20
62.0786935492767
 30
0.0
 11
89.018254089707483
 21
62.0786935492767
 31
0.0
  0
LINE
  5
13F6
  8
0
 10
89.018254089707483
 20
72.078693549276593
 30
0.0
 11
107.0182540897075
 21
72.078693549276593
 31
0.0
  0
LINE
  5
13F7
  8
0
 10
88.518254089707483
 20
71.790018414681697
 30
0.0
 11
89.018254089707483
 21
72.078693549276593
 31
0.0
  0
ARC
  5
13F8
  8
0
 10
93.268254089707483
 20
58.070334524688569
 30
0.0
 40
13.719683889993171
 50
69.74384199961149
 51
110.2561580003885
  0
LINE
  5
13F9
  8
0
 10
89.018254089707483
 20
62.0786935492767
 30
0.0
 11
88.518254089707483
 21
62.439165453596779
 31
0.0
  0
LINE
  5
13FA
  8
0
 10
88.518254089707483
 20
62.439165453596779
 30
0.0
 11
88.518254089707483
 21
71.790018414681697
 31
0.0
  0
ARC
  5
13FB
  8
0
 10
93.268254089707483
 20
76.087052573864682
 30
0.0
 40
13.719683889993171
 50
249.74384199961139
 51
290.2561580003885
  0
ARC
  5
13FC
  8
0
 10
102.7682540897075
 20
76.087052573864682
 30
0.0
 40
13.719683889993171
 50
249.74384199961139
 51
290.2561580003885
  0
LINE
  5
13FD
  8
0
 10
107.5182540897075
 20
62.439165453596779
 30
0.0
 11
107.5182540897075
 21
71.790018414681697
 31
0.0
  0
LINE
  5
13FE
  8
0
 10
107.0182540897075
 20
62.0786935492767
 30
0.0
 11
107.5182540897075
 21
62.439165453596779
 31
0.0
  0
ARC
  5
13FF
  8
0
 10
102.7682540897075
 20
58.070334524688569
 30
0.0
 40
13.719683889993171
 50
69.74384199961149
 51
110.2561580003885
  0
LINE
  5
1400
  8
0
 10
107.5182540897075
 20
71.790018414681697
 30
0.0
 11
107.0182540897075
 21
72.078693549276593
 31
0.0
  0
LINE
  5
1401
  8
0
 10
33.928348805924422
 20
182.2802021464326
 30
0.0
 11
39.413176363225929
 21
172.7802021464326
 31
0.0
  0
LINE
  5
1402
  8
0
 10
39.413176363226157
 20
191.7802021464326
 30
0.0
 11
33.928348805924422
 21
182.2802021464326
 31
0.0
  0
LINE
  5
1403
  8
0
 10
50.382831477828951
 20
191.7802021464326
 30
0.0
 11
39.413176363226157
 21
191.7802021464326
 31
0.0
  0
LINE
  5
1404
  8
0
 10
55.867659035130252
 20
182.2802021464326
 30
0.0
 11
50.382831477828951
 21
191.7802021464326
 31
0.0
  0
LINE
  5
1405
  8
0
 10
50.382831477828717
 20
172.7802021464326
 30
0.0
 11
55.867659035130252
 21
182.2802021464326
 31
0.0
  0
CIRCLE
  5
1406
  8
3
 10
44.898003920527429
 20
182.2802021464326
 30
0.0
 40
5.052999999999999
  0
CIRCLE
  5
1407
  8
0
 10
44.898003920527429
 20
182.2802021464326
 30
0.0
 40
5.9999999999995444
  0
CIRCLE
  5
1408
  8
0
 10
44.898003920527429
 20
182.2802021464326
 30
0.0
 40
9.0
  0
LINE
  5
1409
  8
0
 10
39.413176363225929
 20
172.7802021464326
 30
0.0
 11
50.382831477828717
 21
172.7802021464326
 31
0.0
  0
LINE
  5
140A
  8
0
 10
40.898003920526989
 20
149.07869354927669
 30
0.0
 11
48.898003920526982
 21
149.07869354927661
 31
0.0
  0
LINE
  5
140B
  8
0
 10
50.898003920526982
 20
51.078693549276572
 30
0.0
 11
50.898003920526982
 21
62.078693549276579
 31
0.0
  0
LINE
  5
140C
  8
3
 10
49.951003920527107
 20
53.078693549276579
 30
0.0
 11
49.951003920527107
 21
62.078693549276579
 31
0.0
  0
LINE
  5
140D
  8
3
 10
39.845003920526992
 20
53.078693549276579
 30
0.0
 11
39.845003920526992
 21
62.0786935492767
 31
0.0
  0
LINE
  5
140E
  8
0
 10
38.898003920526989
 20
51.078693549276572
 30
0.0
 11
38.898003920526989
 21
62.078693549276579
 31
0.0
  0
LINE
  5
140F
  8
0
 10
40.898003920526989
 20
149.07869354927669
 30
0.0
 11
38.898003920526989
 21
147.07869354927669
 31
0.0
  0
LINE
  5
1410
  8
0
 10
48.898003920526982
 20
149.07869354927661
 30
0.0
 11
50.898003920526982
 21
147.07869354927661
 31
0.0
  0
LINE
  5
1411
  8
0
 10
38.898003920526989
 20
147.07869354927669
 30
0.0
 11
50.898003920527103
 21
147.07869354927661
 31
0.0
  0
LINE
  5
1412
  8
0
 10
50.898003920526982
 20
53.078693549276579
 30
0.0
 11
38.898003920526989
 21
53.078693549276579
 31
0.0
  0
LINE
  5
1413
  8
3
 10
39.845003920526992
 20
53.078693549276579
 30
0.0
 11
38.898003920526989
 21
51.438441434508889
 31
0.0
  0
LINE
  5
1414
  8
3
 10
49.951003920526972
 20
53.078693549276579
 30
0.0
 11
50.898003920526982
 21
51.438441434508889
 31
0.0
  0
LINE
  5
1415
  8
1
 10
98.018254089707483
 20
152.07869354927621
 30
0.0
 11
98.018254089707483
 21
21.078693549276242
 31
0.0
  0
LINE
  5
1416
  8
1
 10
44.898003920526762
 20
21.078693549276242
 30
0.0
 11
44.898003920527323
 21
152.07869354927621
 31
0.0
  0
LINE
  5
1417
  8
0
 10
86.018254089707483
 20
24.078693549276242
 30
0.0
 11
110.0182540897075
 21
24.078693549276242
 31
0.0
  0
LINE
  5
1418
  8
0
 10
86.018254089707483
 20
24.078693549276348
 30
0.0
 11
86.018254089707483
 21
27.078693549276242
 31
0.0
  0
LINE
  5
1419
  8
0
 10
110.0182540897075
 20
24.078693549276121
 30
0.0
 11
110.0182540897074
 21
27.078693549276242
 31
0.0
  0
LINE
  5
141A
  8
0
 10
56.898003920526762
 20
24.078693549276121
 30
0.0
 11
56.898003920526641
 21
27.078693549276242
 31
0.0
  0
LINE
  5
141B
  8
0
 10
32.898003920526762
 20
24.078693549276348
 30
0.0
 11
32.898003920526762
 21
27.078693549276242
 31
0.0
  0
LINE
  5
141C
  8
0
 10
32.898003920526762
 20
24.078693549276242
 30
0.0
 11
56.898003920526762
 21
24.078693549276242
 31
0.0
  0
LINE
  5
141D
  8
0
 10
32.898003920526762
 20
27.078693549276242
 30
0.0
 11
56.898003920526762
 21
27.078693549276242
 31
0.0
  0
LINE
  5
141E
  8
0
 10
32.398003920526762
 20
27.578693549276242
 30
0.0
 11
32.398003920526762
 21
31.078693549276242
 31
0.0
  0
LINE
  5
141F
  8
0
 10
57.398003920526762
 20
27.578693549276242
 30
0.0
 11
57.398003920526762
 21
31.078693549276242
 31
0.0
  0
LINE
  5
1420
  8
0
 10
32.898003920526762
 20
27.078693549276242
 30
0.0
 11
32.398003920526762
 21
27.578693549276242
 31
0.0
  0
LINE
  5
1421
  8
0
 10
57.398003920526762
 20
27.578693549276242
 30
0.0
 11
56.898003920526762
 21
27.078693549276242
 31
0.0
  0
LINE
  5
1422
  8
0
 10
36.398003920526762
 20
39.078693549276252
 30
0.0
 11
53.398003920526762
 21
39.078693549276252
 31
0.0
  0
LINE
  5
1423
  8
0
 10
32.398003920526762
 20
31.078693549276242
 30
0.0
 11
57.398003920526762
 21
31.078693549276242
 31
0.0
  0
LINE
  5
1424
  8
0
 10
57.398003920526762
 20
31.078693549276242
 30
0.0
 11
54.898003920526762
 21
33.578693549276238
 31
0.0
  0
LINE
  5
1425
  8
0
 10
53.398003920526762
 20
39.078693549276252
 30
0.0
 11
54.898003920526762
 21
33.578693549276238
 31
0.0
  0
LINE
  5
1426
  8
0
 10
32.398003920526762
 20
31.078693549276242
 30
0.0
 11
34.898003920526762
 21
33.578693549276238
 31
0.0
  0
LINE
  5
1427
  8
0
 10
36.398003920526762
 20
39.078693549276252
 30
0.0
 11
34.898003920526762
 21
33.578693549276238
 31
0.0
  0
LINE
  5
1428
  8
0
 10
54.898003920526762
 20
33.578693549276238
 30
0.0
 11
34.898003920526762
 21
33.578693549276238
 31
0.0
  0
ARC
  5
1429
  8
0
 10
48.398003920526648
 20
56.343374767403638
 30
0.0
 40
10.10924076103746
 50
249.74384199958371
 51
290.25615800041641
  0
LINE
  5
142A
  8
0
 10
51.898003920526762
 20
46.234134006366197
 30
0.0
 11
51.62877315129478
 21
46.078693549276011
 31
0.0
  0
LINE
  5
142B
  8
0
 10
37.898003920526762
 20
46.234134006366197
 30
0.0
 11
38.167234689758722
 21
46.078693549276011
 31
0.0
  0
ARC
  5
142C
  8
0
 10
41.398003920526868
 20
56.343374767403638
 30
0.0
 40
10.10924076103746
 50
249.74384199958371
 51
290.25615800041641
  0
LINE
  5
142D
  8
0
 10
51.62877315129478
 20
46.078693549276011
 30
0.0
 11
38.167234689758722
 21
46.078693549276011
 31
0.0
  0
ARC
  5
142E
  8
0
 10
48.398003920526648
 20
40.814012331148383
 30
0.0
 40
10.10924076103746
 50
69.74384199958368
 51
110.25615800041631
  0
LINE
  5
142F
  8
0
 10
51.898003920526762
 20
50.923253092185803
 30
0.0
 11
51.62877315129478
 21
51.078693549276011
 31
0.0
  0
LINE
  5
1430
  8
0
 10
37.898003920526762
 20
50.923253092185803
 30
0.0
 11
38.167234689758722
 21
51.078693549276011
 31
0.0
  0
ARC
  5
1431
  8
0
 10
41.398003920526868
 20
40.814012331148383
 30
0.0
 40
10.10924076103746
 50
69.74384199958368
 51
110.25615800041631
  0
LINE
  5
1432
  8
0
 10
51.62877315129478
 20
51.078693549276011
 30
0.0
 11
38.167234689758722
 21
51.078693549276011
 31
0.0
  0
LINE
  5
1433
  8
0
 10
51.898003920526762
 20
50.923253092185803
 30
0.0
 11
51.898003920526762
 21
46.234134006366197
 31
0.0
  0
LINE
  5
1434
  8
0
 10
37.898003920526762
 20
50.923253092185803
 30
0.0
 11
37.898003920526762
 21
46.234134006366197
 31
0.0
  0
LINE
  5
1435
  8
0
 10
44.898003920526762
 20
50.298038309846611
 30
0.0
 11
44.898003920526762
 21
46.85934878870551
 31
0.0
  0
LINE
  5
1436
  8
0
 10
50.398003920526861
 20
42.078693549276217
 30
0.0
 11
39.398003920526882
 21
42.078693549276217
 31
0.0
  0
LINE
  5
1437
  8
0
 10
39.398003920526882
 20
42.078693549276217
 30
0.0
 11
39.398003920526882
 21
46.078693549276011
 31
0.0
  0
LINE
  5
1438
  8
0
 10
50.398003920526861
 20
42.078693549276217
 30
0.0
 11
50.398003920526861
 21
46.078693549276011
 31
0.0
  0
ARC
  5
1439
  8
0
 10
44.898003920526861
 20
37.748566530354033
 30
0.0
 40
7.0
 50
141.78678929826171
 51
169.04615684538459
  0
ARC
  5
143A
  8
0
 10
44.898003920526861
 20
37.748566530354033
 30
0.0
 40
7.0
 50
10.95384315461536
 51
38.213210701738468
  0
ARC
  5
143B
  8
0
 10
98.018254089707625
 20
37.748566530354033
 30
0.0
 40
7.0
 50
10.95384315461536
 51
38.213210701738468
  0
ARC
  5
143C
  8
0
 10
98.018254089707625
 20
37.748566530354033
 30
0.0
 40
7.0
 50
141.78678929826171
 51
169.04615684538459
  0
LINE
  5
143D
  8
0
 10
103.5182540897076
 20
42.078693549276217
 30
0.0
 11
103.5182540897076
 21
46.078693549276238
 31
0.0
  0
LINE
  5
143E
  8
0
 10
92.518254089707568
 20
42.078693549276217
 30
0.0
 11
92.518254089707568
 21
46.078693549276238
 31
0.0
  0
LINE
  5
143F
  8
0
 10
103.5182540897076
 20
42.078693549276217
 30
0.0
 11
92.518254089707568
 21
42.078693549276217
 31
0.0
  0
LINE
  5
1440
  8
0
 10
108.0182540897075
 20
33.578693549276238
 30
0.0
 11
88.018254089707469
 21
33.578693549276238
 31
0.0
  0
LINE
  5
1441
  8
0
 10
89.518254089707483
 20
39.078693549276252
 30
0.0
 11
88.018254089707469
 21
33.578693549276238
 31
0.0
  0
LINE
  5
1442
  8
0
 10
85.518254089707469
 20
31.078693549276242
 30
0.0
 11
88.018254089707469
 21
33.578693549276238
 31
0.0
  0
LINE
  5
1443
  8
0
 10
106.5182540897075
 20
39.078693549276252
 30
0.0
 11
108.0182540897075
 21
33.578693549276238
 31
0.0
  0
LINE
  5
1444
  8
0
 10
110.5182540897075
 20
31.078693549276242
 30
0.0
 11
108.0182540897075
 21
33.578693549276238
 31
0.0
  0
LINE
  5
1445
  8
0
 10
85.518254089707469
 20
31.078693549276242
 30
0.0
 11
110.5182540897075
 21
31.078693549276242
 31
0.0
  0
LINE
  5
1446
  8
0
 10
89.518254089707483
 20
39.078693549276252
 30
0.0
 11
106.5182540897075
 21
39.078693549276252
 31
0.0
  0
LINE
  5
1447
  8
0
 10
110.5182540897075
 20
27.578693549276242
 30
0.0
 11
110.0182540897075
 21
27.078693549276242
 31
0.0
  0
LINE
  5
1448
  8
0
 10
86.018254089707483
 20
27.078693549276242
 30
0.0
 11
85.518254089707469
 21
27.578693549276242
 31
0.0
  0
LINE
  5
1449
  8
0
 10
110.5182540897075
 20
27.578693549276242
 30
0.0
 11
110.5182540897075
 21
31.078693549276242
 31
0.0
  0
LINE
  5
144A
  8
0
 10
85.518254089707469
 20
27.578693549276242
 30
0.0
 11
85.518254089707469
 21
31.078693549276242
 31
0.0
  0
LINE
  5
144B
  8
0
 10
86.018254089707483
 20
27.078693549276242
 30
0.0
 11
110.0182540897075
 21
27.078693549276242
 31
0.0
  0
ARC
  5
144C
  8
0
 10
91.956076263216573
 20
47.34510124439354
 30
0.0
 40
3.5781518477924039
 50
55.615752531961313
 51
115.6157525321742
  0
ARC
  5
144D
  8
0
 10
98.01825408970852
 20
37.548467874532143
 30
0.0
 40
13.374785217653811
 50
72.412046225996122
 51
107.5879537740048
  0
LINE
  5
144E
  8
0
 10
89.935350321052724
 20
50.298038309846611
 30
0.0
 11
91.287484858939564
 21
51.078693549276238
 31
0.0
  0
LINE
  5
144F
  8
0
 10
89.935350321052724
 20
46.859348788705752
 30
0.0
 11
91.287484858939564
 21
46.078693549276238
 31
0.0
  0
ARC
  5
1450
  8
0
 10
91.956076263216573
 20
49.812285854158887
 30
0.0
 40
3.5781518477924039
 50
244.3842474678257
 51
304.38424746803872
  0
ARC
  5
1451
  8
0
 10
98.01825408970852
 20
59.608919224020333
 30
0.0
 40
13.374785217653811
 50
252.4120462259952
 51
287.58795377400378
  0
LINE
  5
1452
  8
0
 10
89.935350321052724
 20
50.298038309846611
 30
0.0
 11
89.935350321052724
 21
46.859348788705752
 31
0.0
  0
LINE
  5
1692
  8
0
 10
98.018254089705792
 20
70.941512638651361
 30
0.0
 11
98.018254089709203
 21
63.215874459901933
 31
0.0
  0
TEXT
  5
17E6
  8
0
 62
     3
 10
0.0
 20
0.0
 30
0.0
 40
10.0
  1
LSAR25S12C
  7
STANDARD1
  0
ENDSEC
  0
EOF
