  0
SECTION
  2
HEADER
  9
$ACADVER
  1
AC1009
  9
$INSBASE
 10
0.0
 20
0.0
 30
0.0
  9
$EXTMIN
 10
0.0
 20
-2.960436562073669
 30
0.0
  9
$EXTMAX
 10
168.43073188316279
 20
183.26386527126269
 30
0.0
  9
$LIMMIN
 10
0.0
 20
0.0
  9
$LIMMAX
 10
375.0
 20
270.0
  9
$ORTHOMODE
 70
     1
  9
$REGENMODE
 70
     1
  9
$FILLMODE
 70
     1
  9
$QTEXTMODE
 70
     0
  9
$MIRRTEXT
 70
     0
  9
$DRAGMODE
 70
     2
  9
$LTSCALE
 40
6.0
  9
$OSMODE
 70
    37
  9
$ATTMODE
 70
     1
  9
$TEXTSIZE
 40
0.2
  9
$TRACEWID
 40
0.05
  9
$TEXTSTYLE
  7
STANDARD
  9
$CLAYER
  8
0
  9
$CELTYPE
  6
BYLAYER
  9
$CECOLOR
 62
   256
  9
$DIMSCALE
 40
1.0
  9
$DIMASZ
 40
3.0
  9
$DIMEXO
 40
1.0
  9
$DIMDLI
 40
6.0
  9
$DIMRND
 40
0.0
  9
$DIMDLE
 40
0.0
  9
$DIMEXE
 40
1.0
  9
$DIMTP
 40
495.0
  9
$DIMTM
 40
0.0
  9
$DIMTXT
 40
3.0
  9
$DIMCEN
 40
0.0
  9
$DIMTSZ
 40
0.0
  9
$DIMTOL
 70
     0
  9
$DIMLIM
 70
     0
  9
$DIMTIH
 70
     0
  9
$DIMTOH
 70
     0
  9
$DIMSE1
 70
     0
  9
$DIMSE2
 70
     0
  9
$DIMTAD
 70
     1
  9
$DIMZIN
 70
     8
  9
$DIMBLK
  1

  9
$DIMASO
 70
     0
  9
$DIMSHO
 70
     0
  9
$DIMPOST
  1

  9
$DIMAPOST
  1

  9
$DIMALT
 70
     0
  9
$DIMALTD
 70
     2
  9
$DIMALTF
 40
25.399999999999999
  9
$DIMLFAC
 40
1.0
  9
$DIMTOFL
 70
     1
  9
$DIMTVP
 40
0.0
  9
$DIMTIX
 70
     1
  9
$DIMSOXD
 70
     0
  9
$DIMSAH
 70
     0
  9
$DIMBLK1
  1

  9
$DIMBLK2
  1

  9
$DIMSTYLE
  2
STANDARD
  9
$DIMCLRD
 70
     0
  9
$DIMCLRE
 70
     0
  9
$DIMCLRT
 70
     4
  9
$DIMTFAC
 40
1.0
  9
$DIMGAP
 40
1.0
  9
$LUNITS
 70
     2
  9
$LUPREC
 70
     4
  9
$SKETCHINC
 40
0.1
  9
$FILLETRAD
 40
2.0
  9
$AUNITS
 70
     0
  9
$AUPREC
 70
     0
  9
$MENU
  1
C:\R13\WIN\SUPPORT\ACAD-I
  9
$ELEVATION
 40
0.0
  9
$PELEVATION
 40
0.0
  9
$THICKNESS
 40
0.0
  9
$LIMCHECK
 70
     0
  9
$BLIPMODE
 70
     0
  9
$CHAMFERA
 40
0.0
  9
$CHAMFERB
 40
0.0
  9
$SKPOLY
 70
     0
  9
$TDCREATE
 40
2451961.711538055
  9
$TDUPDATE
 40
2456598.7179053589
  9
$TDINDWG
 40
0.0973546065
  9
$TDUSRTIMER
 40
2456598.0117434841
  9
$USRTIMER
 70
     1
  9
$ANGBASE
 50
0.0
  9
$ANGDIR
 70
     0
  9
$PDMODE
 70
     0
  9
$PDSIZE
 40
0.0
  9
$PLINEWID
 40
0.0
  9
$COORDS
 70
     1
  9
$SPLFRAME
 70
     0
  9
$SPLINETYPE
 70
     6
  9
$SPLINESEGS
 70
     8
  9
$ATTDIA
 70
     0
  9
$ATTREQ
 70
     1
  9
$HANDLING
 70
     1
  9
$HANDSEED
  5
2D5A
  9
$SURFTAB1
 70
     6
  9
$SURFTAB2
 70
     6
  9
$SURFTYPE
 70
     6
  9
$SURFU
 70
     6
  9
$SURFV
 70
     6
  9
$UCSNAME
  2

  9
$UCSORG
 10
0.0
 20
0.0
 30
0.0
  9
$UCSXDIR
 10
1.0
 20
0.0
 30
0.0
  9
$UCSYDIR
 10
0.0
 20
1.0
 30
0.0
  9
$PUCSNAME
  2

  9
$PUCSORG
 10
0.0
 20
0.0
 30
0.0
  9
$PUCSXDIR
 10
1.0
 20
0.0
 30
0.0
  9
$PUCSYDIR
 10
0.0
 20
1.0
 30
0.0
  9
$USERI1
 70
     4
  9
$USERI2
 70
     1
  9
$USERI3
 70
     0
  9
$USERI4
 70
     0
  9
$USERI5
 70
     0
  9
$USERR1
 40
1.0
  9
$USERR2
 40
3.0
  9
$USERR3
 40
3.0
  9
$USERR4
 40
3.0
  9
$USERR5
 40
10.0
  9
$WORLDVIEW
 70
     1
  9
$SHADEDGE
 70
     3
  9
$SHADEDIF
 70
    70
  9
$TILEMODE
 70
     1
  9
$MAXACTVP
 70
    16
  9
$PLIMCHECK
 70
     0
  9
$PEXTMIN
 10
1.0000000000000000E+020
 20
1.0000000000000000E+020
 30
1.0000000000000000E+020
  9
$PEXTMAX
 10
-1.0000000000000000E+020
 20
-1.0000000000000000E+020
 30
-1.0000000000000000E+020
  9
$PLIMMIN
 10
0.0
 20
0.0
  9
$PLIMMAX
 10
12.0
 20
9.0
  9
$UNITMODE
 70
     0
  9
$VISRETAIN
 70
     0
  9
$PLINEGEN
 70
     0
  9
$PSLTSCALE
 70
     0
  0
ENDSEC
  0
SECTION
  2
TABLES
  0
TABLE
  2
VPORT
 70
     1
  0
VPORT
  2
*ACTIVE
 70
     0
 10
0.0
 20
0.0
 11
1.0
 21
1.0
 12
187.49427839065231
 22
177.52205812711131
 13
0.0
 23
0.0
 14
10.0
 24
10.0
 15
10.0
 25
10.0
 16
0.0
 26
0.0
 36
1.0
 17
0.0
 27
0.0
 37
0.0
 40
364.13085016302909
 41
1.755244755244755
 42
50.0
 43
0.0
 44
0.0
 50
0.0
 51
0.0
 71
    16
 72
   100
 73
     1
 74
     0
 75
     0
 76
     0
 77
     0
 78
     0
  0
ENDTAB
  0
TABLE
  2
LTYPE
 70
     3
  0
LTYPE
  2
CONTINUOUS
 70
     0
  3
Solid Line
 72
    65
 73
     0
 40
0.0
  0
LTYPE
  2
PHANTOM2
 70
     0
  3
___ _ _ ___ _ _ ___ _ _ ___ _ _
 72
    65
 73
     6
 40
1.25
 49
0.625
 49
-0.125
 49
0.125
 49
-0.125
 49
0.125
 49
-0.125
  0
LTYPE
  2
CENTER
 70
     0
  3
____ _ ____ _ ____ _ ____ _ ____ _ ____ _ ____
 72
    65
 73
     4
 40
2.0
 49
1.25
 49
-0.25
 49
0.25
 49
-0.25
  0
ENDTAB
  0
TABLE
  2
LAYER
 70
     3
  0
LAYER
  2
0
 70
     0
 62
     7
  6
CONTINUOUS
  0
LAYER
  2
1
 70
     0
 62
     1
  6
CENTER
  0
LAYER
  2
3
 70
     0
 62
     3
  6
CONTINUOUS
  0
ENDTAB
  0
TABLE
  2
STYLE
 70
     3
  0
STYLE
  2
STANDARD
 70
     0
 40
0.0
 41
1.0
 50
0.0
 71
     0
 42
0.2
  3
SIMPLEX
  4
BIGFONT
  0
STYLE
  2
ANNOTATIVE
 70
     0
 40
0.0
 41
1.0
 50
0.0
 71
     0
 42
0.2
  3
txt
  4

  0
STYLE
  2
STANDARD1
 70
     0
 40
0.0
 41
1.0
 50
0.0
 71
     0
 42
3.0
  3
txt
  4

  0
ENDTAB
  0
TABLE
  2
VIEW
 70
     0
  0
ENDTAB
  0
TABLE
  2
UCS
 70
     0
  0
ENDTAB
  0
TABLE
  2
APPID
 70
    31
  0
APPID
  2
ACAD
 70
     0
  0
APPID
  2
ACADANNOTATIVE
 70
     0
  0
APPID
  2
GENIUS_GENOREF_13
 70
     0
  0
APPID
  2
GENIUS_GENOENT_13
 70
     0
  0
APPID
  2
GENIUS_GENBH_13
 70
     0
  0
APPID
  2
GENIUS_GENOBJ_13
 70
     0
  0
APPID
  2
GENIUS_GENODEF_13
 70
     0
  0
APPID
  2
GENIUS_GENOLIS_13
 70
     0
  0
APPID
  2
GENIUS_GENOBJ-NBEHI-BHF_13
 70
     0
  0
APPID
  2
GENIUS_GENOBJ-NBEHI-BHB_13
 70
     0
  0
APPID
  2
GENIUS_GENOBJ-F-PART_13
 70
     0
  0
APPID
  2
GENIUS_GEFSTDP_13
 70
     0
  0
APPID
  2
GENIUS_GENOBJ-N-RSSYM_13
 70
     0
  0
APPID
  2
GENIUS_GENSYMENT_13
 70
     0
  0
APPID
  2
GENIUS_GENOBJ-N-TIT_13
 70
     0
  0
APPID
  2
GENIUS_GENTITLE_13
 70
     0
  0
APPID
  2
GENIUS_GENZVEED_13
 70
     0
  0
APPID
  2
GENIUS_GENOBJ-N-LEADER_13
 70
     0
  0
APPID
  2
GENIUS_GENOBJ-N-FIL_13
 70
     0
  0
APPID
  2
GENIUS_GENOBJ-N-SEC_13
 70
     0
  0
APPID
  2
GENIUS_GENOBJ-N-CRS_13
 70
     0
  0
APPID
  2
GENIUS_GENOBJ-N-ZOO_13
 70
     0
  0
APPID
  2
GENIUS_GENZOO_13
 70
     0
  0
APPID
  2
GENIUS_GENOBJ-F-TOL_13
 70
     0
  0
APPID
  2
GENIUS_GENFIL_13
 70
     0
  0
APPID
  2
GENIUS_GENOBJ-N-CHA_13
 70
     0
  0
APPID
  2
ACAD_MLEADERVER
 70
     0
  0
APPID
  2
ACAD_DSTYLE_DIMJAG
 70
     0
  0
APPID
  2
ACAD_DSTYLE_DIMTALN
 70
     0
  0
APPID
  2
ACAD_EXEMPT_FROM_CAD_STANDARDS
 70
     0
  0
APPID
  2
ACAD_NAV_VCDISPLAY
 70
     0
  0
ENDTAB
  0
TABLE
  2
DIMSTYLE
 70
     2
  0
DIMSTYLE
  2
STANDARD
 70
     0
  3

  4

  5

  6

  7

 40
1.0
 41
0.18
 42
0.0625
 43
0.38
 44
0.18
 45
0.0
 46
0.0
 47
0.0
 48
0.0
140
0.18
141
0.09
142
0.0
143
25.399999999999999
144
1.0
145
0.0
146
1.0
147
0.09
 71
     0
 72
     0
 73
     1
 74
     1
 75
     0
 76
     0
 77
     0
 78
     0
170
     0
171
     2
172
     0
173
     0
174
     0
175
     0
176
     0
177
     0
178
     0
  0
DIMSTYLE
  2
ANNOTATIVE
 70
     0
  3

  4

  5

  6

  7

 40
1.0
 41
0.18
 42
0.0625
 43
0.38
 44
0.18
 45
0.0
 46
0.0
 47
0.0
 48
0.0
140
0.18
141
0.09
142
0.0
143
25.399999999999999
144
1.0
145
0.0
146
1.0
147
0.09
 71
     0
 72
     0
 73
     1
 74
     1
 75
     0
 76
     0
 77
     0
 78
     0
170
     0
171
     2
172
     0
173
     0
174
     0
175
     0
176
     0
177
     0
178
     0
  0
ENDTAB
  0
ENDSEC
  0
SECTION
  2
BLOCKS
  0
BLOCK
  8
0
  2
$MODEL_SPACE
 70
     0
 10
0.0
 20
0.0
 30
0.0
  3
$MODEL_SPACE
  1

  0
ENDBLK
  5
2B9B
  8
0
  0
BLOCK
 67
     1
  8
0
  2
$PAPER_SPACE
 70
     0
 10
0.0
 20
0.0
 30
0.0
  3
$PAPER_SPACE
  1

  0
ENDBLK
  5
2B97
 67
     1
  8
0
  0
ENDSEC
  0
SECTION
  2
ENTITIES
  0
LINE
  5
20C1
  8
0
 10
73.14516979734627
 20
93.990486070209471
 30
0.0
 11
71.611169797346278
 21
95.524486070209477
 31
0.0
  0
LINE
  5
20C2
  8
0
 10
66.67916979734629
 20
95.524486070209477
 30
0.0
 11
65.145169797346284
 21
93.990486070209471
 31
0.0
  0
LINE
  5
20C3
  8
0
 10
73.14516979734627
 20
52.52448607020947
 30
0.0
 11
73.145169797346298
 21
66.524486070209463
 31
0.0
  0
LINE
  5
20C4
  8
0
 10
65.145169797346284
 20
93.990486070209471
 30
0.0
 11
65.145169797345886
 21
73.024486070209463
 31
0.0
  0
LINE
  5
20D0
  8
0
 10
71.611169797346278
 20
95.524486070209477
 30
0.0
 11
66.67916979734629
 21
95.524486070209477
 31
0.0
  0
LINE
  5
20D1
  8
0
 10
73.14516979734627
 20
93.990486070209471
 30
0.0
 11
65.145169797346284
 21
93.990486070209471
 31
0.0
  0
LINE
  5
20EB
  8
3
 10
72.468669797346351
 20
94.666986070209404
 30
0.0
 11
72.468669797345953
 21
73.024486070209463
 31
0.0
  0
LINE
  5
20F0
  8
1
 10
69.145169797346284
 20
99.524486070209477
 30
0.0
 11
69.145169797346284
 21
21.524486070209491
 31
0.0
  0
LINE
  5
20F4
  8
0
 10
81.08500261487201
 20
37.590615195015047
 30
0.0
 11
80.145169797346284
 21
43.524486070209477
 31
0.0
  0
LINE
  5
20F5
  8
0
 10
58.14516979734627
 20
43.524486070209477
 30
0.0
 11
57.205336979820537
 21
37.590615195015047
 31
0.0
  0
LINE
  5
20F8
  8
0
 10
94.145169797346284
 20
32.024486070209477
 30
0.0
 11
81.08500261487201
 21
37.590615195015047
 31
0.0
  0
LINE
  5
20F9
  8
0
 10
57.205336979820537
 20
37.590615195015047
 30
0.0
 11
44.14516979734627
 21
32.02448607020947
 31
0.0
  0
LINE
  5
20FC
  8
0
 10
93.645169797346284
 20
25.52448607020948
 30
0.0
 11
94.145169797346284
 21
26.02448607020948
 31
0.0
  0
LINE
  5
20FD
  8
0
 10
44.14516979734627
 20
26.02448607020948
 30
0.0
 11
44.645169797346277
 21
25.52448607020948
 31
0.0
  0
LINE
  5
2101
  8
0
 10
80.145169797346284
 20
43.524486070209477
 30
0.0
 11
58.14516979734627
 21
43.524486070209477
 31
0.0
  0
LINE
  5
2105
  8
0
 10
94.145169797346284
 20
32.024486070209477
 30
0.0
 11
44.14516979734627
 21
32.02448607020947
 31
0.0
  0
LINE
  5
2107
  8
0
 10
93.645169797346284
 20
25.52448607020948
 30
0.0
 11
44.645169797346277
 21
25.52448607020948
 31
0.0
  0
POINT
  5
210C
  8
0
 10
69.145169797346284
 20
25.52448607020948
 30
0.0
210
0.0
220
1.0
230
0.0
  0
CIRCLE
  5
2137
  8
0
 10
69.145169797346284
 20
154.34443555355799
 30
0.0
 40
4.0
  0
ARC
  5
2139
  8
0
 10
69.145169797346284
 20
154.34443555355799
 30
0.0
 40
6.9900000000000002
 50
68.419209897134806
 51
111.58079010286519
  0
POLYLINE
  5
213B
  8
0
 66
     1
 10
0.0
 20
0.0
 30
0.0
  0
VERTEX
  5
2C93
  8
0
 10
69.145169797346284
 20
146.2615317849033
 30
0.0
  0
VERTEX
  5
2C94
  8
0
 10
69.367005725032811
 20
146.389608817469
 30
0.0
  0
VERTEX
  5
2C95
  8
0
 10
69.795846333629456
 20
146.63720005828171
 30
0.0
  0
VERTEX
  5
2C96
  8
0
 10
70.207592112067502
 20
146.8749215943007
 30
0.0
  0
VERTEX
  5
2C97
  8
0
 10
70.407974070513191
 20
146.99061217195
 30
0.0
  0
VERTEX
  5
2C98
  8
0
 10
70.605147111224866
 20
147.10445008008179
 30
0.0
  0
VERTEX
  5
2C99
  8
0
 10
70.991125382879247
 20
147.32729473912281
 30
0.0
  0
VERTEX
  5
2C9A
  8
0
 10
71.367913421530574
 20
147.54483341466559
 30
0.0
  0
VERTEX
  5
2C9B
  8
0
 10
71.737722848185982
 20
147.758342986694
 30
0.0
  0
VERTEX
  5
2C9C
  8
0
 10
71.886839548148956
 20
147.84443555355821
 30
0.0
  0
SEQEND
  5
2C9D
  8
0
  0
POLYLINE
  5
213D
  8
0
 66
     1
 10
0.0
 20
0.0
 30
0.0
  0
VERTEX
  5
2C9E
  8
0
 10
76.14516979734627
 20
150.30298366923071
 30
0.0
  0
VERTEX
  5
2C9F
  8
0
 10
76.14516979734627
 20
150.5591377343622
 30
0.0
  0
VERTEX
  5
2CA0
  8
0
 10
76.14516979734627
 20
151.05432021598759
 30
0.0
  0
VERTEX
  5
2CA1
  8
0
 10
76.14516979734627
 20
151.52976328802541
 30
0.0
  0
VERTEX
  5
2CA2
  8
0
 10
76.14516979734627
 20
151.7611444433241
 30
0.0
  0
VERTEX
  5
2CA3
  8
0
 10
76.14516979734627
 20
151.98882025958781
 30
0.0
  0
VERTEX
  5
2CA4
  8
0
 10
76.14516979734627
 20
152.43450957766979
 30
0.0
  0
VERTEX
  5
2CA5
  8
0
 10
76.14516979734627
 20
152.8695869287553
 30
0.0
  0
VERTEX
  5
2CA6
  8
0
 10
76.14516979734627
 20
153.29660607281201
 30
0.0
  0
VERTEX
  5
2CA7
  8
0
 10
76.14516979734627
 20
153.46879120654069
 30
0.0
  0
SEQEND
  5
2CA8
  8
0
  0
POLYLINE
  5
213F
  8
0
 66
     1
 10
0.0
 20
0.0
 30
0.0
  0
VERTEX
  5
2CA9
  8
0
 10
76.14516979734627
 20
158.3858874378854
 30
0.0
  0
VERTEX
  5
2CAA
  8
0
 10
75.923333869659743
 20
158.51396447045121
 30
0.0
  0
VERTEX
  5
2CAB
  8
0
 10
75.494493261063084
 20
158.7615557112639
 30
0.0
  0
VERTEX
  5
2CAC
  8
0
 10
75.082747482625066
 20
158.99927724728281
 30
0.0
  0
VERTEX
  5
2CAD
  8
0
 10
74.882365524179363
 20
159.11496782493211
 30
0.0
  0
VERTEX
  5
2CAE
  8
0
 10
74.685192483467702
 20
159.22880573306401
 30
0.0
  0
VERTEX
  5
2CAF
  8
0
 10
74.299214211813322
 20
159.45165039210499
 30
0.0
  0
VERTEX
  5
2CB0
  8
0
 10
73.922426173161981
 20
159.66918906764781
 30
0.0
  0
VERTEX
  5
2CB1
  8
0
 10
73.552616746506573
 20
159.88269863967611
 30
0.0
  0
VERTEX
  5
2CB2
  8
0
 10
73.403500046543499
 20
159.9687912065404
 30
0.0
  0
SEQEND
  5
2CB3
  8
0
  0
POLYLINE
  5
2141
  8
0
 66
     1
 10
0.0
 20
0.0
 30
0.0
  0
VERTEX
  5
2CB4
  8
0
 10
69.145169797346284
 20
162.42733932221279
 30
0.0
  0
VERTEX
  5
2CB5
  8
0
 10
68.923333869659714
 20
162.299262289647
 30
0.0
  0
VERTEX
  5
2CB6
  8
0
 10
68.494493261063084
 20
162.05167104883429
 30
0.0
  0
VERTEX
  5
2CB7
  8
0
 10
68.082747482625066
 20
161.8139495128155
 30
0.0
  0
VERTEX
  5
2CB8
  8
0
 10
67.882365524179377
 20
161.69825893516611
 30
0.0
  0
VERTEX
  5
2CB9
  8
0
 10
67.685192483467702
 20
161.58442102703421
 30
0.0
  0
VERTEX
  5
2CBA
  8
0
 10
67.299214211813322
 20
161.36157636799331
 30
0.0
  0
VERTEX
  5
2CBB
  8
0
 10
66.922426173161981
 20
161.1440376924505
 30
0.0
  0
VERTEX
  5
2CBC
  8
0
 10
66.552616746506573
 20
160.93052812042211
 30
0.0
  0
VERTEX
  5
2CBD
  8
0
 10
66.40350004654357
 20
160.84443555355779
 30
0.0
  0
SEQEND
  5
2CBE
  8
0
  0
POLYLINE
  5
2143
  8
0
 66
     1
 10
0.0
 20
0.0
 30
0.0
  0
VERTEX
  5
2CBF
  8
0
 10
62.145169797346291
 20
158.3858874378854
 30
0.0
  0
VERTEX
  5
2CC0
  8
0
 10
62.145169797346291
 20
158.1297333727538
 30
0.0
  0
VERTEX
  5
2CC1
  8
0
 10
62.145169797346291
 20
157.6345508911285
 30
0.0
  0
VERTEX
  5
2CC2
  8
0
 10
62.145169797346291
 20
157.15910781909071
 30
0.0
  0
VERTEX
  5
2CC3
  8
0
 10
62.145169797346291
 20
156.92772666379199
 30
0.0
  0
VERTEX
  5
2CC4
  8
0
 10
62.145169797346291
 20
156.7000508475283
 30
0.0
  0
VERTEX
  5
2CC5
  8
0
 10
62.145169797346291
 20
156.2543615294463
 30
0.0
  0
VERTEX
  5
2CC6
  8
0
 10
62.145169797346291
 20
155.8192841783607
 30
0.0
  0
VERTEX
  5
2CC7
  8
0
 10
62.145169797346291
 20
155.39226503430399
 30
0.0
  0
VERTEX
  5
2CC8
  8
0
 10
62.145169797346291
 20
155.22007990057531
 30
0.0
  0
SEQEND
  5
2CC9
  8
0
  0
POLYLINE
  5
2145
  8
0
 66
     1
 10
0.0
 20
0.0
 30
0.0
  0
VERTEX
  5
2CCA
  8
0
 10
62.145169797346291
 20
150.30298366923071
 30
0.0
  0
VERTEX
  5
2CCB
  8
0
 10
62.36700572503284
 20
150.1749066366649
 30
0.0
  0
VERTEX
  5
2CCC
  8
0
 10
62.795846333629463
 20
149.92731539585219
 30
0.0
  0
VERTEX
  5
2CCD
  8
0
 10
63.207592112067502
 20
149.68959385983331
 30
0.0
  0
VERTEX
  5
2CCE
  8
0
 10
63.407974070513191
 20
149.57390328218381
 30
0.0
  0
VERTEX
  5
2CCF
  8
0
 10
63.605147111224873
 20
149.46006537405211
 30
0.0
  0
VERTEX
  5
2CD0
  8
0
 10
63.991125382879247
 20
149.23722071501109
 30
0.0
  0
VERTEX
  5
2CD1
  8
0
 10
64.367913421530574
 20
149.01968203946831
 30
0.0
  0
VERTEX
  5
2CD2
  8
0
 10
64.737722848185982
 20
148.80617246744001
 30
0.0
  0
VERTEX
  5
2CD3
  8
0
 10
64.886839548149055
 20
148.7200799005756
 30
0.0
  0
SEQEND
  5
2CD4
  8
0
  0
CIRCLE
  5
214B
  8
0
 10
69.145169797346284
 20
154.34443555355799
 30
0.0
 40
11.0
  0
CIRCLE
  5
214C
  8
0
 10
69.145169797346284
 20
154.34443555355799
 30
0.0
 40
11.939832817525719
  0
CIRCLE
  5
214F
  8
0
 10
69.145169797346284
 20
154.34443555355799
 30
0.0
 40
25.0
  0
LINE
  5
2152
  8
1
 10
40.145169797346277
 20
154.34443555355799
 30
0.0
 11
98.145169797346284
 21
154.34443555355799
 31
0.0
  0
LINE
  5
2153
  8
1
 10
69.145169797346284
 20
125.4250058358534
 30
0.0
 11
69.145169797346284
 21
183.26386527126269
 31
0.0
  0
LINE
  5
21DE
  8
3
 10
72.468669797346379
 20
54.524486070209527
 30
0.0
 11
73.14516979734627
 21
53.352753698889408
 31
0.0
  0
LINE
  5
21DF
  8
3
 10
65.821669797346203
 20
54.524486070209527
 30
0.0
 11
65.145169797346284
 21
53.352753698889408
 31
0.0
  0
LINE
  5
21E0
  8
0
 10
65.145169797346284
 20
54.524486070209527
 30
0.0
 11
73.145169797346341
 21
54.524486070209463
 31
0.0
  0
LINE
  5
21E1
  8
3
 10
65.821669797347397
 20
94.666986070209504
 30
0.0
 11
65.821669797346331
 21
73.024486070209463
 31
0.0
  0
CIRCLE
  5
24D1
  8
3
 10
69.145169797346284
 20
154.34443555355799
 30
0.0
 40
3.323500000000065
  0
LINE
  5
2555
  8
0
 10
94.145169797346284
 20
26.02448607020948
 30
0.0
 11
94.145169797346284
 21
32.02448607020947
 31
0.0
  0
LINE
  5
2556
  8
0
 10
44.14516979734627
 20
26.02448607020948
 30
0.0
 11
44.14516979734627
 21
32.02448607020947
 31
0.0
  0
LINE
  5
2557
  8
0
 10
57.205336979820537
 20
37.590615195015047
 30
0.0
 11
81.08500261487201
 21
37.590615195015047
 31
0.0
  0
ARC
  5
2651
  8
0
 10
63.516004672748402
 20
69.557578929961409
 30
0.0
 40
3.3225695729499729
 50
55.615752531959828
 51
115.6157525321757
  0
ARC
  5
2652
  8
0
 10
69.145169797347876
 20
60.460705086519027
 30
0.0
 40
12.41944341639239
 50
72.412046225997088
 51
107.5879537740046
  0
LINE
  5
2653
  8
0
 10
61.639616297882071
 20
72.299591919310643
 30
0.0
 11
62.895169797348331
 21
73.024486070209463
 31
0.0
  0
LINE
  5
2654
  8
0
 10
61.639616297882462
 20
67.249380221108282
 30
0.0
 11
62.895169797348728
 21
66.524486070209463
 31
0.0
  0
ARC
  5
2655
  8
0
 10
63.516004672748807
 20
69.991393210457517
 30
0.0
 40
3.3225695729499729
 50
244.38424746782431
 51
304.38424746803997
  0
ARC
  5
2656
  8
0
 10
69.145169797348274
 20
79.088267053899898
 30
0.0
 40
12.41944341639239
 50
252.4120462259954
 51
287.58795377400293
  0
LINE
  5
2657
  8
0
 10
61.639616297882071
 20
72.299591919310643
 30
0.0
 11
61.639616297882462
 21
67.249380221108282
 31
0.0
  0
LINE
  5
2658
  8
0
 10
65.392393047616324
 20
72.299591919310643
 30
0.0
 11
65.392393047614917
 21
67.249380221109817
 31
0.0
  0
LINE
  5
2659
  8
0
 10
72.897946547077581
 20
72.299591919310643
 30
0.0
 11
72.897946547079812
 21
67.249380221109817
 31
0.0
  0
LINE
  5
265A
  8
0
 10
76.650723296811861
 20
72.299591919310643
 30
0.0
 11
76.650723296812274
 21
67.249380221108282
 31
0.0
  0
ARC
  5
265B
  8
0
 10
74.774334921945922
 20
69.991393210457517
 30
0.0
 40
3.3225695729499729
 50
235.6157525319596
 51
295.61575253217569
  0
LINE
  5
265C
  8
0
 10
76.650723296812274
 20
67.249380221108282
 30
0.0
 11
75.395169797345986
 21
66.524486070209463
 31
0.0
  0
LINE
  5
265D
  8
0
 10
76.650723296811861
 20
72.299591919310643
 30
0.0
 11
75.395169797345588
 21
73.024486070209463
 31
0.0
  0
ARC
  5
265E
  8
0
 10
74.77433492194551
 20
69.557578929961409
 30
0.0
 40
3.3225695729499729
 50
64.384247467824224
 51
124.38424746804
  0
LINE
  5
265F
  8
0
 10
62.895169797347187
 20
73.024486070209463
 30
0.0
 11
75.395169797345375
 21
73.024486070209463
 31
0.0
  0
LINE
  5
2660
  8
0
 10
75.395169797345986
 20
66.524486070209463
 30
0.0
 11
62.895169797348949
 21
66.524486070209463
 31
0.0
  0
LINE
  5
2661
  8
0
 10
65.145169797346284
 20
66.524486070209463
 30
0.0
 11
65.145169797346284
 21
52.52448607020947
 31
0.0
  0
LINE
  5
2662
  8
0
 10
73.145169797345886
 20
73.024486070209463
 30
0.0
 11
73.14516979734627
 21
93.990486070209471
 31
0.0
  0
LINE
  5
2663
  8
3
 10
72.468669797346379
 20
66.524486070209463
 30
0.0
 11
72.468669797346379
 21
54.52448607020952
 31
0.0
  0
LINE
  5
2664
  8
3
 10
65.821669797346573
 20
66.524486070209463
 30
0.0
 11
65.821669797346232
 21
54.524486070209612
 31
0.0
  0
LINE
  5
2665
  8
0
 10
61.639616297881503
 20
154.34443555355799
 30
0.0
 11
65.392393047613893
 21
147.84443555355821
 31
0.0
  0
LINE
  5
2666
  8
0
 10
65.392393047613893
 20
160.84443555355779
 30
0.0
 11
61.639616297881503
 21
154.34443555355799
 31
0.0
  0
LINE
  5
2667
  8
0
 10
72.897946547078675
 20
160.84443555355779
 30
0.0
 11
65.392393047613893
 21
160.84443555355779
 31
0.0
  0
LINE
  5
2668
  8
0
 10
76.650723296811066
 20
154.34443555355799
 30
0.0
 11
72.897946547078675
 21
160.84443555355779
 31
0.0
  0
LINE
  5
2669
  8
0
 10
72.897946547078675
 20
147.84443555355821
 30
0.0
 11
76.650723296811066
 21
154.34443555355799
 31
0.0
  0
LINE
  5
266A
  8
0
 10
65.392393047613893
 20
147.84443555355821
 30
0.0
 11
72.897946547078675
 21
147.84443555355821
 31
0.0
  0
POLYLINE
  5
266C
  8
0
 66
     1
 10
0.0
 20
0.0
 30
0.0
  0
VERTEX
  5
2CD5
  8
0
 10
71.886839548149027
 20
160.84443555355779
 30
0.0
  0
VERTEX
  5
2CD6
  8
0
 10
71.737722848185982
 20
160.93052812042211
 30
0.0
  0
VERTEX
  5
2CD7
  8
0
 10
71.367913421530574
 20
161.1440376924505
 30
0.0
  0
VERTEX
  5
2CD8
  8
0
 10
70.991125382879247
 20
161.36157636799331
 30
0.0
  0
VERTEX
  5
2CD9
  8
0
 10
70.605147111224866
 20
161.58442102703421
 30
0.0
  0
VERTEX
  5
2CDA
  8
0
 10
70.407974070513191
 20
161.69825893516611
 30
0.0
  0
VERTEX
  5
2CDB
  8
0
 10
70.207592112067502
 20
161.8139495128155
 30
0.0
  0
VERTEX
  5
2CDC
  8
0
 10
69.795846333629498
 20
162.05167104883429
 30
0.0
  0
VERTEX
  5
2CDD
  8
0
 10
69.367005725032811
 20
162.299262289647
 30
0.0
  0
VERTEX
  5
2CDE
  8
0
 10
69.145169797346284
 20
162.42733932221279
 30
0.0
  0
SEQEND
  5
2CDF
  8
0
  0
ARC
  5
266D
  8
0
 10
69.145169797346284
 20
154.34443555355799
 30
0.0
 40
6.9900000000000002
 50
128.41920989713381
 51
171.5807901028669
  0
POLYLINE
  5
266E
  8
0
 66
     1
 10
0.0
 20
0.0
 30
0.0
  0
VERTEX
  5
2CE0
  8
0
 10
64.886839548149055
 20
159.9687912065404
 30
0.0
  0
VERTEX
  5
2CE1
  8
0
 10
64.737722848185982
 20
159.88269863967611
 30
0.0
  0
VERTEX
  5
2CE2
  8
0
 10
64.367913421530574
 20
159.66918906764781
 30
0.0
  0
VERTEX
  5
2CE3
  8
0
 10
63.991125382879247
 20
159.45165039210499
 30
0.0
  0
VERTEX
  5
2CE4
  8
0
 10
63.605147111224873
 20
159.22880573306401
 30
0.0
  0
VERTEX
  5
2CE5
  8
0
 10
63.407974070513191
 20
159.11496782493211
 30
0.0
  0
VERTEX
  5
2CE6
  8
0
 10
63.207592112067502
 20
158.99927724728281
 30
0.0
  0
VERTEX
  5
2CE7
  8
0
 10
62.795846333629463
 20
158.7615557112639
 30
0.0
  0
VERTEX
  5
2CE8
  8
0
 10
62.367005725032818
 20
158.51396447045121
 30
0.0
  0
VERTEX
  5
2CE9
  8
0
 10
62.145169797346291
 20
158.3858874378854
 30
0.0
  0
SEQEND
  5
2CEA
  8
0
  0
ARC
  5
266F
  8
0
 10
69.145169797346284
 20
154.34443555355799
 30
0.0
 40
6.9900000000000002
 50
188.4192098971335
 51
231.5807901028659
  0
POLYLINE
  5
2670
  8
0
 66
     1
 10
0.0
 20
0.0
 30
0.0
  0
VERTEX
  5
2CEB
  8
0
 10
62.145169797346291
 20
153.46879120654069
 30
0.0
  0
VERTEX
  5
2CEC
  8
0
 10
62.145169797346291
 20
153.29660607281201
 30
0.0
  0
VERTEX
  5
2CED
  8
0
 10
62.145169797346291
 20
152.8695869287553
 30
0.0
  0
VERTEX
  5
2CEE
  8
0
 10
62.145169797346291
 20
152.43450957766979
 30
0.0
  0
VERTEX
  5
2CEF
  8
0
 10
62.145169797346291
 20
151.98882025958781
 30
0.0
  0
VERTEX
  5
2CF0
  8
0
 10
62.145169797346291
 20
151.7611444433241
 30
0.0
  0
VERTEX
  5
2CF1
  8
0
 10
62.145169797346291
 20
151.52976328802541
 30
0.0
  0
VERTEX
  5
2CF2
  8
0
 10
62.145169797346291
 20
151.05432021598759
 30
0.0
  0
VERTEX
  5
2CF3
  8
0
 10
62.145169797346291
 20
150.5591377343622
 30
0.0
  0
VERTEX
  5
2CF4
  8
0
 10
62.145169797346291
 20
150.30298366923071
 30
0.0
  0
SEQEND
  5
2CF5
  8
0
  0
POLYLINE
  5
2671
  8
0
 66
     1
 10
0.0
 20
0.0
 30
0.0
  0
VERTEX
  5
2CF6
  8
0
 10
66.403500046543613
 20
147.84443555355821
 30
0.0
  0
VERTEX
  5
2CF7
  8
0
 10
66.552616746506573
 20
147.758342986694
 30
0.0
  0
VERTEX
  5
2CF8
  8
0
 10
66.922426173161981
 20
147.54483341466559
 30
0.0
  0
VERTEX
  5
2CF9
  8
0
 10
67.299214211813322
 20
147.32729473912281
 30
0.0
  0
VERTEX
  5
2CFA
  8
0
 10
67.685192483467702
 20
147.10445008008179
 30
0.0
  0
VERTEX
  5
2CFB
  8
0
 10
67.882365524179377
 20
146.99061217195
 30
0.0
  0
VERTEX
  5
2CFC
  8
0
 10
68.082747482625066
 20
146.8749215943007
 30
0.0
  0
VERTEX
  5
2CFD
  8
0
 10
68.494493261063084
 20
146.63720005828171
 30
0.0
  0
VERTEX
  5
2CFE
  8
0
 10
68.923333869659714
 20
146.389608817469
 30
0.0
  0
VERTEX
  5
2CFF
  8
0
 10
69.145169797346284
 20
146.2615317849033
 30
0.0
  0
SEQEND
  5
2D00
  8
0
  0
ARC
  5
2672
  8
0
 10
69.145169797346284
 20
154.34443555355799
 30
0.0
 40
6.9900000000000002
 50
248.4192098971354
 51
291.58079010286451
  0
POLYLINE
  5
2673
  8
0
 66
     1
 10
0.0
 20
0.0
 30
0.0
  0
VERTEX
  5
2D01
  8
0
 10
73.403500046543499
 20
148.7200799005756
 30
0.0
  0
VERTEX
  5
2D02
  8
0
 10
73.552616746506573
 20
148.80617246744001
 30
0.0
  0
VERTEX
  5
2D03
  8
0
 10
73.922426173161981
 20
149.01968203946831
 30
0.0
  0
VERTEX
  5
2D04
  8
0
 10
74.299214211813322
 20
149.23722071501109
 30
0.0
  0
VERTEX
  5
2D05
  8
0
 10
74.685192483467702
 20
149.46006537405211
 30
0.0
  0
VERTEX
  5
2D06
  8
0
 10
74.882365524179392
 20
149.57390328218381
 30
0.0
  0
VERTEX
  5
2D07
  8
0
 10
75.082747482625066
 20
149.68959385983331
 30
0.0
  0
VERTEX
  5
2D08
  8
0
 10
75.494493261063084
 20
149.92731539585219
 30
0.0
  0
VERTEX
  5
2D09
  8
0
 10
75.923333869659743
 20
150.1749066366649
 30
0.0
  0
VERTEX
  5
2D0A
  8
0
 10
76.14516979734627
 20
150.30298366923071
 30
0.0
  0
SEQEND
  5
2D0B
  8
0
  0
ARC
  5
2674
  8
0
 10
69.145169797346284
 20
154.34443555355799
 30
0.0
 40
6.9900000000000002
 50
308.41920989713418
 51
351.5807901028665
  0
POLYLINE
  5
2675
  8
0
 66
     1
 10
0.0
 20
0.0
 30
0.0
  0
VERTEX
  5
2D0C
  8
0
 10
76.14516979734627
 20
155.22007990057531
 30
0.0
  0
VERTEX
  5
2D0D
  8
0
 10
76.14516979734627
 20
155.39226503430399
 30
0.0
  0
VERTEX
  5
2D0E
  8
0
 10
76.14516979734627
 20
155.8192841783607
 30
0.0
  0
VERTEX
  5
2D0F
  8
0
 10
76.14516979734627
 20
156.2543615294463
 30
0.0
  0
VERTEX
  5
2D10
  8
0
 10
76.14516979734627
 20
156.7000508475283
 30
0.0
  0
VERTEX
  5
2D11
  8
0
 10
76.14516979734627
 20
156.92772666379199
 30
0.0
  0
VERTEX
  5
2D12
  8
0
 10
76.14516979734627
 20
157.15910781909071
 30
0.0
  0
VERTEX
  5
2D13
  8
0
 10
76.14516979734627
 20
157.6345508911285
 30
0.0
  0
VERTEX
  5
2D14
  8
0
 10
76.14516979734627
 20
158.1297333727538
 30
0.0
  0
VERTEX
  5
2D15
  8
0
 10
76.14516979734627
 20
158.3858874378854
 30
0.0
  0
SEQEND
  5
2D16
  8
0
  0
ARC
  5
2676
  8
0
 10
69.145169797346284
 20
154.34443555355799
 30
0.0
 40
6.9900000000000002
 50
8.4192098971328502
 51
51.58079010286653
  0
CIRCLE
  5
2689
  8
0
 10
69.145169797346284
 20
154.34443555355799
 30
0.0
 40
6.25
  0
LINE
  5
268D
  8
0
 10
147.43073188316279
 20
93.990486070209471
 30
0.0
 11
145.89673188316269
 21
95.524486070209477
 31
0.0
  0
LINE
  5
268E
  8
0
 10
140.96473188316281
 20
95.524486070209477
 30
0.0
 11
139.43073188316279
 21
93.990486070209471
 31
0.0
  0
LINE
  5
268F
  8
0
 10
147.43073188316279
 20
52.52448607020947
 30
0.0
 11
147.43073188316279
 21
66.524486070209463
 31
0.0
  0
LINE
  5
2690
  8
0
 10
147.43073188316239
 20
73.024486070209463
 30
0.0
 11
147.43073188316279
 21
93.990486070209471
 31
0.0
  0
LINE
  5
2691
  8
0
 10
139.43073188316279
 20
93.990486070209471
 30
0.0
 11
139.43073188316239
 21
73.024486070209463
 31
0.0
  0
LINE
  5
2692
  8
0
 10
139.43073188316279
 20
66.524486070209463
 30
0.0
 11
139.43073188316279
 21
52.52448607020947
 31
0.0
  0
LINE
  5
2697
  8
0
 10
145.89673188316269
 20
95.524486070209477
 30
0.0
 11
140.96473188316281
 21
95.524486070209477
 31
0.0
  0
LINE
  5
2698
  8
0
 10
147.43073188316279
 20
93.990486070209471
 30
0.0
 11
139.43073188316279
 21
93.990486070209471
 31
0.0
  0
LINE
  5
26A1
  8
3
 10
146.75423188316279
 20
94.666986070209404
 30
0.0
 11
146.75423188316239
 21
73.024486070209463
 31
0.0
  0
LINE
  5
26A2
  8
3
 10
146.7542318831629
 20
66.524486070209463
 30
0.0
 11
146.7542318831629
 21
54.52448607020952
 31
0.0
  0
LINE
  5
26A3
  8
1
 10
143.43073188316279
 20
99.443915787914094
 30
0.0
 11
143.43073188316279
 21
21.524486070209459
 31
0.0
  0
LINE
  5
26A8
  8
0
 10
168.43073188316279
 20
32.024486070209477
 30
0.0
 11
155.3705647006885
 21
37.590615195015047
 31
0.0
  0
LINE
  5
26A9
  8
0
 10
131.490899065637
 20
37.590615195015047
 30
0.0
 11
118.43073188316281
 21
32.02448607020947
 31
0.0
  0
LINE
  5
26AA
  8
0
 10
167.93073188316279
 20
25.52448607020948
 30
0.0
 11
168.43073188316279
 21
26.02448607020948
 31
0.0
  0
LINE
  5
26AB
  8
0
 10
118.43073188316281
 20
26.02448607020948
 30
0.0
 11
118.93073188316281
 21
25.52448607020948
 31
0.0
  0
LINE
  5
26AD
  8
0
 10
168.43073188316279
 20
32.024486070209477
 30
0.0
 11
118.43073188316281
 21
32.02448607020947
 31
0.0
  0
LINE
  5
26AE
  8
0
 10
167.93073188316279
 20
25.52448607020948
 30
0.0
 11
118.93073188316281
 21
25.52448607020948
 31
0.0
  0
POINT
  5
26B0
  8
0
 10
143.43073188316279
 20
25.52448607020948
 30
0.0
210
0.0
220
1.0
230
0.0
  0
LINE
  5
26B1
  8
3
 10
146.7542318831629
 20
54.524486070209527
 30
0.0
 11
147.43073188316279
 21
53.352753698889408
 31
0.0
  0
LINE
  5
26B2
  8
3
 10
140.10723188316271
 20
54.524486070209527
 30
0.0
 11
139.43073188316279
 21
53.352753698889408
 31
0.0
  0
LINE
  5
26B3
  8
0
 10
139.43073188316279
 20
54.524486070209527
 30
0.0
 11
147.43073188316279
 21
54.524486070209463
 31
0.0
  0
LINE
  5
26B4
  8
3
 10
140.10723188316391
 20
94.666986070209504
 30
0.0
 11
140.1072318831628
 21
73.024486070209463
 31
0.0
  0
LINE
  5
26B5
  8
3
 10
140.107231883163
 20
66.524486070209463
 30
0.0
 11
140.10723188316271
 21
54.524486070209612
 31
0.0
  0
LINE
  5
26BB
  8
0
 10
168.43073188316279
 20
26.02448607020948
 30
0.0
 11
168.43073188316279
 21
32.02448607020947
 31
0.0
  0
LINE
  5
26BC
  8
0
 10
118.43073188316281
 20
26.02448607020948
 30
0.0
 11
118.43073188316281
 21
32.02448607020947
 31
0.0
  0
LINE
  5
26BD
  8
0
 10
131.490899065637
 20
37.590615195015047
 30
0.0
 11
155.3705647006885
 21
37.590615195015047
 31
0.0
  0
LINE
  5
26CF
  8
0
 10
155.3705647006885
 20
37.590615195015047
 30
0.0
 11
154.43073188316279
 21
43.524486070209477
 31
0.0
  0
LINE
  5
26D0
  8
0
 10
132.43073188316279
 20
43.524486070209477
 30
0.0
 11
131.490899065637
 21
37.590615195015047
 31
0.0
  0
LINE
  5
26D1
  8
0
 10
154.43073188316279
 20
43.524486070209477
 30
0.0
 11
132.43073188316279
 21
43.524486070209477
 31
0.0
  0
LINE
  5
271F
  8
0
 10
149.93073188316251
 20
72.880148502911283
 30
0.0
 11
149.68073188316129
 21
73.024486070209335
 31
0.0
  0
ARC
  5
2720
  8
0
 10
146.68073188316251
 20
63.492996367662577
 30
0.0
 40
9.3871521352487513
 50
69.743841999583196
 51
110.2561580004168
  0
ARC
  5
2721
  8
0
 10
146.68073188316291
 20
76.055975772756113
 30
0.0
 40
9.3871521352487513
 50
249.7438419995832
 51
290.2561580004168
  0
LINE
  5
2722
  8
0
 10
149.93073188316291
 20
66.668823637507415
 30
0.0
 11
149.68073188316171
 21
66.524486070209349
 31
0.0
  0
LINE
  5
2723
  8
0
 10
149.93073188316251
 20
72.880148502911283
 30
0.0
 11
149.93073188316291
 21
66.668823637507415
 31
0.0
  0
LINE
  5
2724
  8
0
 10
143.43073188316271
 20
72.299591919310132
 30
0.0
 11
143.43073188316311
 21
67.249380221108169
 31
0.0
  0
LINE
  5
2725
  8
0
 10
136.93073188316291
 20
72.880148502911283
 30
0.0
 11
136.9307318831633
 21
66.668823637507415
 31
0.0
  0
LINE
  5
2726
  8
0
 10
136.9307318831633
 20
66.668823637507415
 30
0.0
 11
137.1807318831645
 21
66.524486070209349
 31
0.0
  0
ARC
  5
2727
  8
0
 10
140.1807318831633
 20
76.055975772756113
 30
0.0
 40
9.3871521352487513
 50
249.7438419995832
 51
290.2561580004168
  0
ARC
  5
2728
  8
0
 10
140.18073188316291
 20
63.492996367662577
 30
0.0
 40
9.3871521352487513
 50
69.743841999583196
 51
110.2561580004168
  0
LINE
  5
2729
  8
0
 10
136.93073188316291
 20
72.880148502911283
 30
0.0
 11
137.1807318831641
 21
73.024486070209335
 31
0.0
  0
LINE
  5
272A
  8
0
 10
137.1807318831641
 20
73.024486070209335
 30
0.0
 11
149.68073188316129
 21
73.024486070209335
 31
0.0
  0
LINE
  5
272B
  8
0
 10
149.68073188316171
 20
66.524486070209349
 30
0.0
 11
137.1807318831645
 21
66.524486070209349
 31
0.0
  0
LINE
  5
27F4
  8
0
 10
148.93073188316279
 20
43.854613089131703
 30
0.0
 11
148.93073188316279
 21
47.524486070209491
 31
0.0
  0
LINE
  5
27F5
  8
0
 10
137.93073188316279
 20
47.524486070209491
 30
0.0
 11
137.93073188316279
 21
43.854613089131703
 31
0.0
  0
ARC
  5
27F6
  8
0
 10
143.43073188315799
 20
39.524486070212937
 30
0.0
 40
6.9999999999941682
 50
141.7867892982604
 51
145.15009542095461
  0
ARC
  5
27F7
  8
0
 10
143.43073188316481
 20
39.524486070210997
 30
0.0
 40
6.999999999997466
 50
34.849904579045777
 51
38.21321070173866
  0
LINE
  5
27F8
  8
0
 10
148.93073188316279
 20
43.854613089131703
 30
0.0
 11
137.93073188316279
 21
43.854613089131703
 31
0.0
  0
LINE
  5
27F9
  8
0
 10
74.64516979734627
 20
43.854613089131703
 30
0.0
 11
74.64516979734627
 21
47.524486070209491
 31
0.0
  0
LINE
  5
27FA
  8
0
 10
63.645169797346249
 20
47.524486070209491
 30
0.0
 11
63.645169797346249
 21
43.854613089131703
 31
0.0
  0
ARC
  5
27FB
  8
0
 10
69.145169797341538
 20
39.524486070212937
 30
0.0
 40
6.9999999999941682
 50
141.78678929826009
 51
145.1500954209545
  0
ARC
  5
27FC
  8
0
 10
69.145169797348302
 20
39.524486070210997
 30
0.0
 40
6.999999999997466
 50
34.849904579045663
 51
38.213210701738781
  0
LINE
  5
27FD
  8
0
 10
74.64516979734627
 20
43.854613089131703
 30
0.0
 11
63.645169797346249
 21
43.854613089131703
 31
0.0
  0
LINE
  5
2860
  8
0
 10
69.145169797346313
 20
51.743830830780041
 30
0.0
 11
69.145169797346284
 21
48.30514130963892
 31
0.0
  0
LINE
  5
2861
  8
0
 10
62.145169797346298
 20
52.369045613119233
 30
0.0
 11
62.145169797346298
 21
47.679926527299699
 31
0.0
  0
LINE
  5
2862
  8
0
 10
76.145169797346298
 20
52.369045613119233
 30
0.0
 11
76.145169797346298
 21
47.679926527299699
 31
0.0
  0
LINE
  5
2863
  8
0
 10
75.87593902811426
 20
52.524486070209491
 30
0.0
 11
62.414400566578287
 21
52.524486070209491
 31
0.0
  0
ARC
  5
2864
  8
0
 10
65.645169797346426
 20
42.259804852081828
 30
0.0
 40
10.10924076103746
 50
69.743841999583253
 51
110.2561580004167
  0
LINE
  5
2865
  8
0
 10
62.145169797346298
 20
52.369045613119233
 30
0.0
 11
62.414400566578287
 21
52.524486070209491
 31
0.0
  0
LINE
  5
2866
  8
0
 10
76.145169797346298
 20
52.369045613119233
 30
0.0
 11
75.87593902811426
 21
52.524486070209491
 31
0.0
  0
ARC
  5
2867
  8
0
 10
72.645169797346185
 20
42.259804852081828
 30
0.0
 40
10.10924076103746
 50
69.743841999583253
 51
110.2561580004167
  0
LINE
  5
2868
  8
0
 10
75.87593902811426
 20
47.524486070209491
 30
0.0
 11
62.414400566578287
 21
47.524486070209491
 31
0.0
  0
ARC
  5
2869
  8
0
 10
65.645169797346426
 20
57.789167288337133
 30
0.0
 40
10.10924076103746
 50
249.74384199958311
 51
290.25615800041669
  0
LINE
  5
286A
  8
0
 10
62.145169797346298
 20
47.679926527299699
 30
0.0
 11
62.414400566578287
 21
47.524486070209491
 31
0.0
  0
LINE
  5
286B
  8
0
 10
76.145169797346298
 20
47.679926527299699
 30
0.0
 11
75.87593902811426
 21
47.524486070209491
 31
0.0
  0
ARC
  5
286C
  8
0
 10
72.645169797346185
 20
57.789167288337133
 30
0.0
 40
10.10924076103746
 50
249.74384199958311
 51
290.25615800041669
  0
LINE
  5
286D
  8
0
 10
150.16150111393071
 20
47.524486070209598
 30
0.0
 11
136.6999626523949
 21
47.524486070209598
 31
0.0
  0
LINE
  5
286E
  8
0
 10
136.69996265239351
 20
52.524486070209491
 30
0.0
 11
150.1615011139304
 21
52.524486070209491
 31
0.0
  0
ARC
  5
286F
  8
0
 10
149.49290970965359
 20
48.790893765326807
 30
0.0
 40
3.5781518477924039
 50
64.384247467826285
 51
124.3842474680382
  0
LINE
  5
2870
  8
0
 10
151.51363565181751
 20
51.743830830779963
 30
0.0
 11
150.16150111393071
 21
52.524486070209491
 31
0.0
  0
LINE
  5
2871
  8
0
 10
151.51363565181751
 20
48.30514130963919
 30
0.0
 11
150.16150111393071
 21
47.524486070209598
 31
0.0
  0
ARC
  5
2872
  8
0
 10
149.49290970965359
 20
51.258078375092289
 30
0.0
 40
3.5781518477924039
 50
235.61575253196179
 51
295.6157525321737
  0
LINE
  5
2873
  8
0
 10
151.5136356518174
 20
51.743830830779991
 30
0.0
 11
151.51363565181751
 21
48.30514130963919
 31
0.0
  0
LINE
  5
2874
  8
0
 10
147.4721837674883
 20
51.743830830780489
 30
0.0
 11
147.47218376749009
 21
48.305141309640831
 31
0.0
  0
LINE
  5
2875
  8
0
 10
139.389279998837
 20
51.743830830778798
 30
0.0
 11
139.38927999883521
 21
48.305141309640831
 31
0.0
  0
LINE
  5
2876
  8
0
 10
135.34782811450779
 20
51.743830830779963
 30
0.0
 11
135.34782811450779
 21
48.30514130963919
 31
0.0
  0
ARC
  5
2877
  8
0
 10
143.4307318831637
 20
61.054711744953643
 30
0.0
 40
13.374785217653811
 50
252.4120462259954
 51
287.58795377400293
  0
ARC
  5
2878
  8
0
 10
137.36855405667171
 20
51.258078375092289
 30
0.0
 40
3.5781518477924039
 50
244.3842474678259
 51
304.38424746803821
  0
LINE
  5
2879
  8
0
 10
135.34782811450779
 20
48.30514130963919
 30
0.0
 11
136.6999626523947
 21
47.524486070209598
 31
0.0
  0
LINE
  5
287A
  8
0
 10
135.34782811450779
 20
51.743830830779963
 30
0.0
 11
136.6999626523947
 21
52.524486070209491
 31
0.0
  0
ARC
  5
287B
  8
0
 10
143.4307318831637
 20
38.994260395465467
 30
0.0
 40
13.374785217653811
 50
72.412046225997074
 51
107.5879537740046
  0
ARC
  5
287C
  8
0
 10
137.36855405667171
 20
48.790893765326807
 30
0.0
 40
3.5781518477924039
 50
55.615752531961753
 51
115.6157525321737
  0
TEXT
  5
2C1D
  8
0
 62
     3
 10
0.0
 20
0.0
 30
0.0
 40
10.0
  1
LSA50S8A-SUS
  7
STANDARD1
  0
ENDSEC
  0
EOF
