  0
SECTION
  2
HEADER
  9
$ACADVER
  1
AC1009
  9
$INSBASE
 10
0.0
 20
0.0
 30
0.0
  9
$EXTMIN
 10
0.0
 20
-2.960436562073669
 30
0.0
  9
$EXTMAX
 10
168.43073188316279
 20
203.9763474911453
 30
0.0
  9
$LIMMIN
 10
0.0
 20
0.0
  9
$LIMMAX
 10
375.0
 20
270.0
  9
$ORTHOMODE
 70
     1
  9
$REGENMODE
 70
     1
  9
$FILLMODE
 70
     1
  9
$QTEXTMODE
 70
     0
  9
$MIRRTEXT
 70
     0
  9
$DRAGMODE
 70
     2
  9
$LTSCALE
 40
6.0
  9
$OSMODE
 70
    37
  9
$ATTMODE
 70
     1
  9
$TEXTSIZE
 40
0.2
  9
$TRACEWID
 40
0.05
  9
$TEXTSTYLE
  7
STANDARD
  9
$CLAYER
  8
0
  9
$CELTYPE
  6
BYLAYER
  9
$CECOLOR
 62
   256
  9
$DIMSCALE
 40
1.0
  9
$DIMASZ
 40
3.0
  9
$DIMEXO
 40
1.0
  9
$DIMDLI
 40
6.0
  9
$DIMRND
 40
0.0
  9
$DIMDLE
 40
0.0
  9
$DIMEXE
 40
1.0
  9
$DIMTP
 40
495.0
  9
$DIMTM
 40
0.0
  9
$DIMTXT
 40
3.0
  9
$DIMCEN
 40
0.0
  9
$DIMTSZ
 40
0.0
  9
$DIMTOL
 70
     0
  9
$DIMLIM
 70
     0
  9
$DIMTIH
 70
     0
  9
$DIMTOH
 70
     0
  9
$DIMSE1
 70
     0
  9
$DIMSE2
 70
     0
  9
$DIMTAD
 70
     1
  9
$DIMZIN
 70
     8
  9
$DIMBLK
  1

  9
$DIMASO
 70
     0
  9
$DIMSHO
 70
     0
  9
$DIMPOST
  1

  9
$DIMAPOST
  1

  9
$DIMALT
 70
     0
  9
$DIMALTD
 70
     2
  9
$DIMALTF
 40
25.399999999999999
  9
$DIMLFAC
 40
1.0
  9
$DIMTOFL
 70
     1
  9
$DIMTVP
 40
0.0
  9
$DIMTIX
 70
     1
  9
$DIMSOXD
 70
     0
  9
$DIMSAH
 70
     0
  9
$DIMBLK1
  1

  9
$DIMBLK2
  1

  9
$DIMSTYLE
  2
STANDARD
  9
$DIMCLRD
 70
     0
  9
$DIMCLRE
 70
     0
  9
$DIMCLRT
 70
     4
  9
$DIMTFAC
 40
1.0
  9
$DIMGAP
 40
1.0
  9
$LUNITS
 70
     2
  9
$LUPREC
 70
     4
  9
$SKETCHINC
 40
0.1
  9
$FILLETRAD
 40
2.0
  9
$AUNITS
 70
     0
  9
$AUPREC
 70
     0
  9
$MENU
  1
C:\R13\WIN\SUPPORT\ACAD-I
  9
$ELEVATION
 40
0.0
  9
$PELEVATION
 40
0.0
  9
$THICKNESS
 40
0.0
  9
$LIMCHECK
 70
     0
  9
$BLIPMODE
 70
     0
  9
$CHAMFERA
 40
0.0
  9
$CHAMFERB
 40
0.0
  9
$SKPOLY
 70
     0
  9
$TDCREATE
 40
2451961.711538055
  9
$TDUPDATE
 40
2456598.7176498729
  9
$TDINDWG
 40
0.1302252662
  9
$TDUSRTIMER
 40
2456598.010788959
  9
$USRTIMER
 70
     1
  9
$ANGBASE
 50
0.0
  9
$ANGDIR
 70
     0
  9
$PDMODE
 70
     0
  9
$PDSIZE
 40
0.0
  9
$PLINEWID
 40
0.0
  9
$COORDS
 70
     1
  9
$SPLFRAME
 70
     0
  9
$SPLINETYPE
 70
     6
  9
$SPLINESEGS
 70
     8
  9
$ATTDIA
 70
     0
  9
$ATTREQ
 70
     1
  9
$HANDLING
 70
     1
  9
$HANDSEED
  5
314B
  9
$SURFTAB1
 70
     6
  9
$SURFTAB2
 70
     6
  9
$SURFTYPE
 70
     6
  9
$SURFU
 70
     6
  9
$SURFV
 70
     6
  9
$UCSNAME
  2

  9
$UCSORG
 10
0.0
 20
0.0
 30
0.0
  9
$UCSXDIR
 10
1.0
 20
0.0
 30
0.0
  9
$UCSYDIR
 10
0.0
 20
1.0
 30
0.0
  9
$PUCSNAME
  2

  9
$PUCSORG
 10
0.0
 20
0.0
 30
0.0
  9
$PUCSXDIR
 10
1.0
 20
0.0
 30
0.0
  9
$PUCSYDIR
 10
0.0
 20
1.0
 30
0.0
  9
$USERI1
 70
     4
  9
$USERI2
 70
     1
  9
$USERI3
 70
     0
  9
$USERI4
 70
     0
  9
$USERI5
 70
     0
  9
$USERR1
 40
1.0
  9
$USERR2
 40
3.0
  9
$USERR3
 40
3.0
  9
$USERR4
 40
3.0
  9
$USERR5
 40
10.0
  9
$WORLDVIEW
 70
     1
  9
$SHADEDGE
 70
     3
  9
$SHADEDIF
 70
    70
  9
$TILEMODE
 70
     1
  9
$MAXACTVP
 70
    16
  9
$PLIMCHECK
 70
     0
  9
$PEXTMIN
 10
1.0000000000000000E+020
 20
1.0000000000000000E+020
 30
1.0000000000000000E+020
  9
$PEXTMAX
 10
-1.0000000000000000E+020
 20
-1.0000000000000000E+020
 30
-1.0000000000000000E+020
  9
$PLIMMIN
 10
0.0
 20
0.0
  9
$PLIMMAX
 10
12.0
 20
9.0
  9
$UNITMODE
 70
     0
  9
$VISRETAIN
 70
     0
  9
$PLINEGEN
 70
     0
  9
$PSLTSCALE
 70
     0
  0
ENDSEC
  0
SECTION
  2
TABLES
  0
TABLE
  2
VPORT
 70
     1
  0
VPORT
  2
*ACTIVE
 70
     0
 10
0.0
 20
0.0
 11
1.0
 21
1.0
 12
187.49427839065231
 22
177.52205812711131
 13
0.0
 23
0.0
 14
10.0
 24
10.0
 15
10.0
 25
10.0
 16
0.0
 26
0.0
 36
1.0
 17
0.0
 27
0.0
 37
0.0
 40
364.13085016302909
 41
1.755244755244755
 42
50.0
 43
0.0
 44
0.0
 50
0.0
 51
0.0
 71
    16
 72
   100
 73
     1
 74
     0
 75
     0
 76
     0
 77
     0
 78
     0
  0
ENDTAB
  0
TABLE
  2
LTYPE
 70
     3
  0
LTYPE
  2
CONTINUOUS
 70
     0
  3
Solid Line
 72
    65
 73
     0
 40
0.0
  0
LTYPE
  2
PHANTOM2
 70
     0
  3
___ _ _ ___ _ _ ___ _ _ ___ _ _
 72
    65
 73
     6
 40
1.25
 49
0.625
 49
-0.125
 49
0.125
 49
-0.125
 49
0.125
 49
-0.125
  0
LTYPE
  2
CENTER
 70
     0
  3
____ _ ____ _ ____ _ ____ _ ____ _ ____ _ ____
 72
    65
 73
     4
 40
2.0
 49
1.25
 49
-0.25
 49
0.25
 49
-0.25
  0
ENDTAB
  0
TABLE
  2
LAYER
 70
     3
  0
LAYER
  2
0
 70
     0
 62
     7
  6
CONTINUOUS
  0
LAYER
  2
1
 70
     0
 62
     1
  6
CENTER
  0
LAYER
  2
3
 70
     0
 62
     3
  6
CONTINUOUS
  0
ENDTAB
  0
TABLE
  2
STYLE
 70
     3
  0
STYLE
  2
STANDARD
 70
     0
 40
0.0
 41
1.0
 50
0.0
 71
     0
 42
0.2
  3
SIMPLEX
  4
BIGFONT
  0
STYLE
  2
ANNOTATIVE
 70
     0
 40
0.0
 41
1.0
 50
0.0
 71
     0
 42
0.2
  3
txt
  4

  0
STYLE
  2
STANDARD1
 70
     0
 40
0.0
 41
1.0
 50
0.0
 71
     0
 42
3.0
  3
txt
  4

  0
ENDTAB
  0
TABLE
  2
VIEW
 70
     0
  0
ENDTAB
  0
TABLE
  2
UCS
 70
     0
  0
ENDTAB
  0
TABLE
  2
APPID
 70
    31
  0
APPID
  2
ACAD
 70
     0
  0
APPID
  2
ACADANNOTATIVE
 70
     0
  0
APPID
  2
GENIUS_GENOREF_13
 70
     0
  0
APPID
  2
GENIUS_GENOENT_13
 70
     0
  0
APPID
  2
GENIUS_GENBH_13
 70
     0
  0
APPID
  2
GENIUS_GENOBJ_13
 70
     0
  0
APPID
  2
GENIUS_GENODEF_13
 70
     0
  0
APPID
  2
GENIUS_GENOLIS_13
 70
     0
  0
APPID
  2
GENIUS_GENOBJ-NBEHI-BHF_13
 70
     0
  0
APPID
  2
GENIUS_GENOBJ-NBEHI-BHB_13
 70
     0
  0
APPID
  2
GENIUS_GENOBJ-F-PART_13
 70
     0
  0
APPID
  2
GENIUS_GEFSTDP_13
 70
     0
  0
APPID
  2
GENIUS_GENOBJ-N-RSSYM_13
 70
     0
  0
APPID
  2
GENIUS_GENSYMENT_13
 70
     0
  0
APPID
  2
GENIUS_GENOBJ-N-TIT_13
 70
     0
  0
APPID
  2
GENIUS_GENTITLE_13
 70
     0
  0
APPID
  2
GENIUS_GENZVEED_13
 70
     0
  0
APPID
  2
GENIUS_GENOBJ-N-LEADER_13
 70
     0
  0
APPID
  2
GENIUS_GENOBJ-N-FIL_13
 70
     0
  0
APPID
  2
GENIUS_GENOBJ-N-SEC_13
 70
     0
  0
APPID
  2
GENIUS_GENOBJ-N-CRS_13
 70
     0
  0
APPID
  2
GENIUS_GENOBJ-N-ZOO_13
 70
     0
  0
APPID
  2
GENIUS_GENZOO_13
 70
     0
  0
APPID
  2
GENIUS_GENOBJ-F-TOL_13
 70
     0
  0
APPID
  2
GENIUS_GENFIL_13
 70
     0
  0
APPID
  2
GENIUS_GENOBJ-N-CHA_13
 70
     0
  0
APPID
  2
ACAD_MLEADERVER
 70
     0
  0
APPID
  2
ACAD_DSTYLE_DIMJAG
 70
     0
  0
APPID
  2
ACAD_DSTYLE_DIMTALN
 70
     0
  0
APPID
  2
ACAD_EXEMPT_FROM_CAD_STANDARDS
 70
     0
  0
APPID
  2
ACAD_NAV_VCDISPLAY
 70
     0
  0
ENDTAB
  0
TABLE
  2
DIMSTYLE
 70
     2
  0
DIMSTYLE
  2
STANDARD
 70
     0
  3

  4

  5

  6

  7

 40
1.0
 41
0.18
 42
0.0625
 43
0.38
 44
0.18
 45
0.0
 46
0.0
 47
0.0
 48
0.0
140
0.18
141
0.09
142
0.0
143
25.399999999999999
144
1.0
145
0.0
146
1.0
147
0.09
 71
     0
 72
     0
 73
     1
 74
     1
 75
     0
 76
     0
 77
     0
 78
     0
170
     0
171
     2
172
     0
173
     0
174
     0
175
     0
176
     0
177
     0
178
     0
  0
DIMSTYLE
  2
ANNOTATIVE
 70
     0
  3

  4

  5

  6

  7

 40
1.0
 41
0.18
 42
0.0625
 43
0.38
 44
0.18
 45
0.0
 46
0.0
 47
0.0
 48
0.0
140
0.18
141
0.09
142
0.0
143
25.399999999999999
144
1.0
145
0.0
146
1.0
147
0.09
 71
     0
 72
     0
 73
     1
 74
     1
 75
     0
 76
     0
 77
     0
 78
     0
170
     0
171
     2
172
     0
173
     0
174
     0
175
     0
176
     0
177
     0
178
     0
  0
ENDTAB
  0
ENDSEC
  0
SECTION
  2
BLOCKS
  0
BLOCK
  8
0
  2
$MODEL_SPACE
 70
     0
 10
0.0
 20
0.0
 30
0.0
  3
$MODEL_SPACE
  1

  0
ENDBLK
  5
3010
  8
0
  0
BLOCK
 67
     1
  8
0
  2
$PAPER_SPACE
 70
     0
 10
0.0
 20
0.0
 30
0.0
  3
$PAPER_SPACE
  1

  0
ENDBLK
  5
300C
 67
     1
  8
0
  0
ENDSEC
  0
SECTION
  2
ENTITIES
  0
LINE
  5
20F0
  8
1
 10
69.145169797346284
 20
124.52448607020941
 30
0.0
 11
69.145169797346284
 21
21.524486070209459
 31
0.0
  0
LINE
  5
20F4
  8
0
 10
81.08500261487201
 20
37.590615195015047
 30
0.0
 11
80.145169797346284
 21
43.524486070209477
 31
0.0
  0
LINE
  5
20F5
  8
0
 10
58.14516979734627
 20
43.524486070209477
 30
0.0
 11
57.205336979820537
 21
37.590615195015047
 31
0.0
  0
LINE
  5
20F8
  8
0
 10
94.145169797346284
 20
32.024486070209477
 30
0.0
 11
81.08500261487201
 21
37.590615195015047
 31
0.0
  0
LINE
  5
20F9
  8
0
 10
57.205336979820537
 20
37.590615195015047
 30
0.0
 11
44.14516979734627
 21
32.02448607020947
 31
0.0
  0
LINE
  5
20FC
  8
0
 10
93.645169797346284
 20
25.52448607020948
 30
0.0
 11
94.145169797346284
 21
26.02448607020948
 31
0.0
  0
LINE
  5
20FD
  8
0
 10
44.14516979734627
 20
26.02448607020948
 30
0.0
 11
44.645169797346277
 21
25.52448607020948
 31
0.0
  0
LINE
  5
2101
  8
0
 10
80.145169797346284
 20
43.524486070209477
 30
0.0
 11
58.14516979734627
 21
43.524486070209477
 31
0.0
  0
LINE
  5
2105
  8
0
 10
94.145169797346284
 20
32.024486070209477
 30
0.0
 11
44.14516979734627
 21
32.02448607020947
 31
0.0
  0
LINE
  5
2107
  8
0
 10
93.645169797346284
 20
25.52448607020948
 30
0.0
 11
44.645169797346277
 21
25.52448607020948
 31
0.0
  0
POINT
  5
210C
  8
0
 10
69.145169797346284
 20
25.52448607020948
 30
0.0
210
0.0
220
1.0
230
0.0
  0
CIRCLE
  5
214B
  8
0
 10
69.145169797346284
 20
174.9763474911453
 30
0.0
 40
11.06680382756582
  0
CIRCLE
  5
214C
  8
0
 10
69.145169797346284
 20
174.9763474911453
 30
0.0
 40
11.939832817525719
  0
CIRCLE
  5
214F
  8
0
 10
69.145169797346284
 20
174.9763474911453
 30
0.0
 40
25.0
  0
LINE
  5
2152
  8
1
 10
40.145169797346277
 20
174.9763474911453
 30
0.0
 11
98.145169797346284
 21
174.9763474911453
 31
0.0
  0
LINE
  5
2153
  8
1
 10
69.145169797346284
 20
145.9763474911453
 30
0.0
 11
69.145169797346284
 21
203.9763474911453
 31
0.0
  0
LINE
  5
2555
  8
0
 10
94.145169797346284
 20
26.02448607020948
 30
0.0
 11
94.145169797346284
 21
32.02448607020947
 31
0.0
  0
LINE
  5
2556
  8
0
 10
44.14516979734627
 20
26.02448607020948
 30
0.0
 11
44.14516979734627
 21
32.02448607020947
 31
0.0
  0
LINE
  5
2557
  8
0
 10
57.205336979820537
 20
37.590615195015047
 30
0.0
 11
81.08500261487201
 21
37.590615195015047
 31
0.0
  0
LINE
  5
26A3
  8
1
 10
143.43073188316279
 20
124.52448607020941
 30
0.0
 11
143.43073188316279
 21
21.524486070209459
 31
0.0
  0
LINE
  5
26A8
  8
0
 10
168.43073188316279
 20
32.024486070209477
 30
0.0
 11
155.3705647006885
 21
37.590615195015047
 31
0.0
  0
LINE
  5
26A9
  8
0
 10
131.490899065637
 20
37.590615195015047
 30
0.0
 11
118.43073188316281
 21
32.02448607020947
 31
0.0
  0
LINE
  5
26AA
  8
0
 10
167.93073188316279
 20
25.52448607020948
 30
0.0
 11
168.43073188316279
 21
26.02448607020948
 31
0.0
  0
LINE
  5
26AB
  8
0
 10
118.43073188316281
 20
26.02448607020948
 30
0.0
 11
118.93073188316281
 21
25.52448607020948
 31
0.0
  0
LINE
  5
26AD
  8
0
 10
168.43073188316279
 20
32.024486070209477
 30
0.0
 11
118.43073188316281
 21
32.02448607020947
 31
0.0
  0
LINE
  5
26AE
  8
0
 10
167.93073188316279
 20
25.52448607020948
 30
0.0
 11
118.93073188316281
 21
25.52448607020948
 31
0.0
  0
POINT
  5
26B0
  8
0
 10
143.43073188316279
 20
25.52448607020948
 30
0.0
210
0.0
220
1.0
230
0.0
  0
LINE
  5
26BB
  8
0
 10
168.43073188316279
 20
26.02448607020948
 30
0.0
 11
168.43073188316279
 21
32.02448607020947
 31
0.0
  0
LINE
  5
26BC
  8
0
 10
118.43073188316281
 20
26.02448607020948
 30
0.0
 11
118.43073188316281
 21
32.02448607020947
 31
0.0
  0
LINE
  5
26BD
  8
0
 10
131.490899065637
 20
37.590615195015047
 30
0.0
 11
155.3705647006885
 21
37.590615195015047
 31
0.0
  0
LINE
  5
26CF
  8
0
 10
155.3705647006885
 20
37.590615195015047
 30
0.0
 11
154.43073188316279
 21
43.524486070209477
 31
0.0
  0
LINE
  5
26D0
  8
0
 10
132.43073188316279
 20
43.524486070209477
 30
0.0
 11
131.490899065637
 21
37.590615195015047
 31
0.0
  0
LINE
  5
26D1
  8
0
 10
154.43073188316279
 20
43.524486070209477
 30
0.0
 11
132.43073188316279
 21
43.524486070209477
 31
0.0
  0
ARC
  5
2A08
  8
0
 10
147.68073188316279
 20
60.104641864494411
 30
0.0
 40
12.275506638416489
 50
69.743841999604086
 51
110.2561580003959
  0
LINE
  5
2A09
  8
0
 10
151.93073188316291
 20
72.380148502910927
 30
0.0
 11
151.6807318831618
 21
72.524486070208951
 31
0.0
  0
LINE
  5
2A0A
  8
0
 10
151.93073188316291
 20
64.668823637506648
 30
0.0
 11
151.6807318831618
 21
64.524486070208638
 31
0.0
  0
ARC
  5
2A0B
  8
0
 10
147.68073188316279
 20
76.944330275923093
 30
0.0
 40
12.275506638416489
 50
249.74384199960389
 51
290.256158000396
  0
LINE
  5
2A0C
  8
0
 10
151.93073188316291
 20
72.380148502910927
 30
0.0
 11
151.93073188316279
 21
64.668823637506648
 31
0.0
  0
LINE
  5
2A0D
  8
0
 10
143.43073188316279
 20
71.620959124356574
 30
0.0
 11
143.43073188316279
 21
65.428013016060746
 31
0.0
  0
LINE
  5
2A0E
  8
0
 10
134.93073188316279
 20
72.380148502910927
 30
0.0
 11
134.93073188316279
 21
64.668823637506648
 31
0.0
  0
LINE
  5
2A0F
  8
0
 10
134.93073188316279
 20
64.668823637506648
 30
0.0
 11
135.18073188316379
 21
64.524486070208638
 31
0.0
  0
ARC
  5
2A10
  8
0
 10
139.18073188316279
 20
76.944330275923093
 30
0.0
 40
12.275506638416489
 50
249.74384199960389
 51
290.256158000396
  0
LINE
  5
2A11
  8
0
 10
134.93073188316279
 20
72.380148502910927
 30
0.0
 11
135.18073188316379
 21
72.524486070208951
 31
0.0
  0
ARC
  5
2A12
  8
0
 10
139.18073188316279
 20
60.104641864494411
 30
0.0
 40
12.275506638416489
 50
69.743841999604086
 51
110.2561580003959
  0
LINE
  5
2A13
  8
0
 10
151.6807318831618
 20
72.524486070208951
 30
0.0
 11
135.18073188316379
 21
72.524486070208951
 31
0.0
  0
LINE
  5
2A14
  8
0
 10
135.18073188316279
 20
64.524486070209292
 30
0.0
 11
151.68073188316279
 21
64.524486070209292
 31
0.0
  0
LINE
  5
2A23
  8
0
 10
77.395169797346625
 20
64.524486070209292
 30
0.0
 11
60.895169797345929
 21
64.524486070209292
 31
0.0
  0
LINE
  5
2A24
  8
0
 10
60.895169797346291
 20
72.52448607020915
 30
0.0
 11
77.395169797346568
 21
72.524486070208951
 31
0.0
  0
ARC
  5
2A25
  8
0
 10
76.506385729514022
 20
68.035249830587532
 30
0.0
 40
4.3448986723233833
 50
64.384247467891115
 51
124.3842474680045
  0
LINE
  5
2A26
  8
0
 10
78.96012437356984
 20
71.620959124356943
 30
0.0
 11
77.39516979734627
 21
72.52448607020915
 31
0.0
  0
LINE
  5
2A27
  8
0
 10
78.96012437356984
 20
65.428013016061243
 30
0.0
 11
77.39516979734627
 21
64.524486070209036
 31
0.0
  0
ARC
  5
2A28
  8
0
 10
76.506385729514022
 20
69.013722309830655
 30
0.0
 40
4.3448986723233833
 50
235.61575253199521
 51
295.61575253210867
  0
LINE
  5
2A29
  8
0
 10
78.96012437356984
 20
71.620959124356901
 30
0.0
 11
78.96012437356984
 21
65.4280130160613
 31
0.0
  0
LINE
  5
2A2A
  8
0
 10
74.052647085459085
 20
71.620959124356943
 30
0.0
 11
74.052647085458503
 21
65.428013016061072
 31
0.0
  0
LINE
  5
2A2B
  8
0
 10
64.237692509233469
 20
71.620959124356943
 30
0.0
 11
64.23769250923408
 21
65.428013016061072
 31
0.0
  0
LINE
  5
2A2C
  8
0
 10
59.330215221122721
 20
71.620959124356901
 30
0.0
 11
59.330215221122721
 21
65.4280130160613
 31
0.0
  0
ARC
  5
2A2D
  8
0
 10
69.145169797345773
 20
80.909634258973881
 30
0.0
 40
16.24081062146659
 50
252.41204622602621
 51
287.58795377397217
  0
ARC
  5
2A2E
  8
0
 10
61.783953865178553
 20
69.013722309830655
 30
0.0
 40
4.3448986723233833
 50
244.3842474678911
 51
304.38424746800479
  0
LINE
  5
2A2F
  8
0
 10
59.330215221122721
 20
65.428013016061243
 30
0.0
 11
60.895169797346291
 21
64.524486070209036
 31
0.0
  0
LINE
  5
2A30
  8
0
 10
59.330215221122721
 20
71.620959124356943
 30
0.0
 11
60.895169797346291
 21
72.52448607020915
 31
0.0
  0
ARC
  5
2A31
  8
0
 10
69.145169797345773
 20
56.139337881444312
 30
0.0
 40
16.24081062146659
 50
72.412046226026192
 51
107.587953773972
  0
ARC
  5
2A32
  8
0
 10
61.783953865178553
 20
68.035249830587532
 30
0.0
 40
4.3448986723233833
 50
55.615752531995312
 51
115.6157525321088
  0
LINE
  5
2AC2
  8
0
 10
64.145169797346412
 20
72.524486070209122
 30
0.0
 11
64.145169797346412
 21
119.02448607020951
 31
0.0
  0
LINE
  5
2AC3
  8
3
 10
64.95716979734631
 20
72.524486070209122
 30
0.0
 11
64.95716979734631
 21
119.8364860702094
 31
0.0
  0
LINE
  5
2AC4
  8
0
 10
74.145169797346426
 20
72.52448607020898
 30
0.0
 11
74.145169797346426
 21
119.02448607020941
 31
0.0
  0
LINE
  5
2AC5
  8
3
 10
73.333169797346443
 20
72.52448607020898
 30
0.0
 11
73.333169797346443
 21
119.8364860702093
 31
0.0
  0
LINE
  5
2AC6
  8
0
 10
64.145169797346384
 20
119.02448607020951
 30
0.0
 11
74.145169797346369
 21
119.02448607020941
 31
0.0
  0
LINE
  5
2AC7
  8
3
 10
73.333169797346443
 20
54.524486070209562
 30
0.0
 11
74.145169797346341
 21
53.118060814463732
 31
0.0
  0
LINE
  5
2AC8
  8
3
 10
64.957169797346282
 20
54.524486070209562
 30
0.0
 11
64.145169797346369
 21
53.118060814463732
 31
0.0
  0
LINE
  5
2AC9
  8
0
 10
64.145169797346384
 20
54.524486070209562
 30
0.0
 11
74.145169797346369
 21
54.524486070209448
 31
0.0
  0
LINE
  5
2ACA
  8
0
 10
72.645169797346426
 20
120.52448607020941
 30
0.0
 11
74.145169797346426
 21
119.02448607020941
 31
0.0
  0
LINE
  5
2ACB
  8
0
 10
64.145169797346412
 20
119.02448607020951
 30
0.0
 11
65.645169797346412
 21
120.52448607020951
 31
0.0
  0
LINE
  5
2ACC
  8
0
 10
64.145169797346369
 20
52.524486070209207
 30
0.0
 11
64.145169797346412
 21
64.524486070209292
 31
0.0
  0
LINE
  5
2ACD
  8
3
 10
64.95716979734631
 20
54.524486070209562
 30
0.0
 11
64.95716979734631
 21
64.524486070209292
 31
0.0
  0
LINE
  5
2ACE
  8
3
 10
73.333169797346486
 20
54.524486070209448
 30
0.0
 11
73.333169797346514
 21
64.524486070209292
 31
0.0
  0
LINE
  5
2ACF
  8
0
 10
74.145169797346341
 20
52.524486070209157
 30
0.0
 11
74.145169797346341
 21
64.524486070209292
 31
0.0
  0
LINE
  5
2AD0
  8
0
 10
65.645169797346412
 20
120.52448607020951
 30
0.0
 11
72.645169797346426
 21
120.52448607020941
 31
0.0
  0
LINE
  5
2AD3
  8
0
 10
138.43073188316291
 20
72.524486070209122
 30
0.0
 11
138.43073188316291
 21
119.02448607020951
 31
0.0
  0
LINE
  5
2AD4
  8
3
 10
139.2427318831628
 20
72.524486070209122
 30
0.0
 11
139.2427318831628
 21
119.8364860702094
 31
0.0
  0
LINE
  5
2AD5
  8
0
 10
148.43073188316291
 20
72.52448607020898
 30
0.0
 11
148.43073188316291
 21
119.02448607020941
 31
0.0
  0
LINE
  5
2AD6
  8
3
 10
147.61873188316301
 20
72.52448607020898
 30
0.0
 11
147.61873188316301
 21
119.8364860702093
 31
0.0
  0
LINE
  5
2AD7
  8
0
 10
138.43073188316291
 20
119.02448607020951
 30
0.0
 11
148.43073188316279
 21
119.02448607020941
 31
0.0
  0
LINE
  5
2AD8
  8
3
 10
147.61873188316301
 20
54.524486070209562
 30
0.0
 11
148.43073188316279
 21
53.118060814463732
 31
0.0
  0
LINE
  5
2AD9
  8
3
 10
139.2427318831628
 20
54.524486070209562
 30
0.0
 11
138.43073188316291
 21
53.118060814463732
 31
0.0
  0
LINE
  5
2ADA
  8
0
 10
138.43073188316291
 20
54.524486070209562
 30
0.0
 11
148.43073188316279
 21
54.524486070209448
 31
0.0
  0
LINE
  5
2ADB
  8
0
 10
146.93073188316291
 20
120.52448607020941
 30
0.0
 11
148.43073188316291
 21
119.02448607020941
 31
0.0
  0
LINE
  5
2ADC
  8
0
 10
138.43073188316291
 20
119.02448607020951
 30
0.0
 11
139.93073188316291
 21
120.52448607020951
 31
0.0
  0
LINE
  5
2ADD
  8
0
 10
138.43073188316291
 20
52.524486070209207
 30
0.0
 11
138.43073188316291
 21
64.524486070209292
 31
0.0
  0
LINE
  5
2ADE
  8
3
 10
139.2427318831628
 20
54.524486070209562
 30
0.0
 11
139.2427318831628
 21
64.524486070209292
 31
0.0
  0
LINE
  5
2ADF
  8
3
 10
147.61873188316301
 20
54.524486070209448
 30
0.0
 11
147.61873188316301
 21
64.524486070209292
 31
0.0
  0
LINE
  5
2AE0
  8
0
 10
148.43073188316279
 20
52.524486070209157
 30
0.0
 11
148.43073188316279
 21
64.524486070209292
 31
0.0
  0
LINE
  5
2AE1
  8
0
 10
139.93073188316291
 20
120.52448607020951
 30
0.0
 11
146.93073188316291
 21
120.52448607020941
 31
0.0
  0
CIRCLE
  5
2AE4
  8
0
 10
69.145169797346284
 20
174.9763474911453
 30
0.0
 40
8.25
  0
LINE
  5
2AE5
  8
0
 10
59.330215221122693
 20
174.9763474911453
 30
0.0
 11
64.237692509234392
 21
166.47634749114539
 31
0.0
  0
LINE
  5
2AE6
  8
0
 10
64.237692509234506
 20
183.4763474911453
 30
0.0
 11
59.330215221122693
 21
174.9763474911453
 31
0.0
  0
LINE
  5
2AE7
  8
0
 10
74.052647085458119
 20
183.4763474911453
 30
0.0
 11
64.237692509234506
 21
183.4763474911453
 31
0.0
  0
LINE
  5
2AE8
  8
0
 10
78.960124373569911
 20
174.97634749114539
 30
0.0
 11
74.052647085458119
 21
183.4763474911453
 31
0.0
  0
LINE
  5
2AE9
  8
0
 10
74.052647085458119
 20
166.4763474911453
 30
0.0
 11
78.960124373569911
 21
174.97634749114539
 31
0.0
  0
LINE
  5
2AEA
  8
0
 10
64.237692509234392
 20
166.47634749114539
 30
0.0
 11
74.052647085458119
 21
166.4763474911453
 31
0.0
  0
CIRCLE
  5
2AEB
  8
3
 10
69.145169797346284
 20
174.9763474911453
 30
0.0
 40
4.1879999999999979
  0
CIRCLE
  5
2AEC
  8
0
 10
69.145169797346284
 20
174.9763474911453
 30
0.0
 40
5.0
  0
LINE
  5
2CED
  8
0
 10
148.93073188316271
 20
43.854613089131703
 30
0.0
 11
148.93073188316271
 21
47.524486070209491
 31
0.0
  0
LINE
  5
2CEE
  8
0
 10
137.93073188316271
 20
47.524486070209491
 30
0.0
 11
137.93073188316271
 21
43.854613089131703
 31
0.0
  0
ARC
  5
2CEF
  8
0
 10
143.43073188315799
 20
39.524486070212937
 30
0.0
 40
6.9999999999941682
 50
141.78678929826029
 51
145.15009542095461
  0
ARC
  5
2CF0
  8
0
 10
143.43073188316481
 20
39.524486070210997
 30
0.0
 40
6.999999999997466
 50
34.849904579045777
 51
38.21321070173866
  0
LINE
  5
2CF1
  8
0
 10
148.93073188316271
 20
43.854613089131703
 30
0.0
 11
137.93073188316271
 21
43.854613089131703
 31
0.0
  0
LINE
  5
2CFD
  8
0
 10
74.64516979734627
 20
43.854613089131703
 30
0.0
 11
74.64516979734627
 21
47.524486070209491
 31
0.0
  0
LINE
  5
2CFE
  8
0
 10
63.645169797346249
 20
47.524486070209491
 30
0.0
 11
63.645169797346249
 21
43.854613089131703
 31
0.0
  0
ARC
  5
2CFF
  8
0
 10
69.145169797341538
 20
39.524486070212937
 30
0.0
 40
6.9999999999941682
 50
141.78678929825989
 51
145.15009542095461
  0
ARC
  5
2D00
  8
0
 10
69.145169797348302
 20
39.524486070210997
 30
0.0
 40
6.999999999997466
 50
34.849904579045777
 51
38.213210701738731
  0
LINE
  5
2D01
  8
0
 10
74.64516979734627
 20
43.854613089131703
 30
0.0
 11
63.645169797346249
 21
43.854613089131703
 31
0.0
  0
LINE
  5
2D63
  8
0
 10
69.145169797346171
 20
51.743830830780041
 30
0.0
 11
69.145169797346142
 21
48.30514130963892
 31
0.0
  0
LINE
  5
2D64
  8
0
 10
62.145169797346178
 20
52.369045613119233
 30
0.0
 11
62.145169797346178
 21
47.679926527299699
 31
0.0
  0
LINE
  5
2D65
  8
0
 10
76.145169797346185
 20
52.369045613119233
 30
0.0
 11
76.145169797346185
 21
47.679926527299699
 31
0.0
  0
LINE
  5
2D66
  8
0
 10
75.875939028114132
 20
52.524486070209491
 30
0.0
 11
62.414400566578159
 21
52.524486070209491
 31
0.0
  0
ARC
  5
2D67
  8
0
 10
65.645169797346284
 20
42.259804852081828
 30
0.0
 40
10.10924076103746
 50
69.743841999583253
 51
110.2561580004167
  0
LINE
  5
2D68
  8
0
 10
62.145169797346178
 20
52.369045613119233
 30
0.0
 11
62.414400566578159
 21
52.524486070209491
 31
0.0
  0
LINE
  5
2D69
  8
0
 10
76.145169797346185
 20
52.369045613119233
 30
0.0
 11
75.875939028114132
 21
52.524486070209491
 31
0.0
  0
ARC
  5
2D6A
  8
0
 10
72.645169797346043
 20
42.259804852081828
 30
0.0
 40
10.10924076103746
 50
69.743841999583253
 51
110.2561580004167
  0
LINE
  5
2D6B
  8
0
 10
75.875939028114132
 20
47.524486070209491
 30
0.0
 11
62.414400566578159
 21
47.524486070209491
 31
0.0
  0
ARC
  5
2D6C
  8
0
 10
65.645169797346284
 20
57.789167288337133
 30
0.0
 40
10.10924076103746
 50
249.74384199958311
 51
290.25615800041669
  0
LINE
  5
2D6D
  8
0
 10
62.145169797346178
 20
47.679926527299699
 30
0.0
 11
62.414400566578159
 21
47.524486070209491
 31
0.0
  0
LINE
  5
2D6E
  8
0
 10
76.145169797346185
 20
47.679926527299699
 30
0.0
 11
75.875939028114132
 21
47.524486070209491
 31
0.0
  0
ARC
  5
2D6F
  8
0
 10
72.645169797346043
 20
57.789167288337133
 30
0.0
 40
10.10924076103746
 50
249.74384199958311
 51
290.25615800041669
  0
LINE
  5
2D70
  8
0
 10
150.16150111393071
 20
47.524486070209598
 30
0.0
 11
136.6999626523949
 21
47.524486070209598
 31
0.0
  0
LINE
  5
2D71
  8
0
 10
136.69996265239351
 20
52.524486070209491
 30
0.0
 11
150.1615011139304
 21
52.524486070209491
 31
0.0
  0
ARC
  5
2D72
  8
0
 10
149.49290970965359
 20
48.790893765326807
 30
0.0
 40
3.5781518477924039
 50
64.384247467826285
 51
124.3842474680382
  0
LINE
  5
2D73
  8
0
 10
151.51363565181751
 20
51.743830830779963
 30
0.0
 11
150.16150111393071
 21
52.524486070209491
 31
0.0
  0
LINE
  5
2D74
  8
0
 10
151.51363565181751
 20
48.30514130963919
 30
0.0
 11
150.16150111393071
 21
47.524486070209598
 31
0.0
  0
ARC
  5
2D75
  8
0
 10
149.49290970965359
 20
51.258078375092289
 30
0.0
 40
3.5781518477924039
 50
235.61575253196179
 51
295.6157525321737
  0
LINE
  5
2D76
  8
0
 10
151.5136356518174
 20
51.743830830779991
 30
0.0
 11
151.51363565181751
 21
48.30514130963919
 31
0.0
  0
LINE
  5
2D77
  8
0
 10
147.4721837674883
 20
51.743830830780489
 30
0.0
 11
147.47218376749009
 21
48.305141309640831
 31
0.0
  0
LINE
  5
2D78
  8
0
 10
139.389279998837
 20
51.743830830778798
 30
0.0
 11
139.38927999883521
 21
48.305141309640831
 31
0.0
  0
LINE
  5
2D79
  8
0
 10
135.34782811450779
 20
51.743830830779963
 30
0.0
 11
135.34782811450779
 21
48.30514130963919
 31
0.0
  0
ARC
  5
2D7A
  8
0
 10
143.4307318831637
 20
61.054711744953643
 30
0.0
 40
13.374785217653811
 50
252.4120462259954
 51
287.58795377400293
  0
ARC
  5
2D7B
  8
0
 10
137.36855405667171
 20
51.258078375092289
 30
0.0
 40
3.5781518477924039
 50
244.3842474678259
 51
304.38424746803821
  0
LINE
  5
2D7C
  8
0
 10
135.34782811450779
 20
48.30514130963919
 30
0.0
 11
136.6999626523947
 21
47.524486070209598
 31
0.0
  0
LINE
  5
2D7D
  8
0
 10
135.34782811450779
 20
51.743830830779963
 30
0.0
 11
136.6999626523947
 21
52.524486070209491
 31
0.0
  0
ARC
  5
2D7E
  8
0
 10
143.4307318831637
 20
38.994260395465467
 30
0.0
 40
13.374785217653811
 50
72.412046225997074
 51
107.5879537740046
  0
ARC
  5
2D7F
  8
0
 10
137.36855405667171
 20
48.790893765326807
 30
0.0
 40
3.5781518477924039
 50
55.615752531961753
 51
115.6157525321737
  0
TEXT
  5
3092
  8
0
 62
     3
 10
0.0
 20
0.0
 30
0.0
 40
10.0
  1
LSA50S10B-SUS
  7
STANDARD1
  0
ENDSEC
  0
EOF
