  0
SECTION
  2
HEADER
  9
$ACADVER
  1
AC1009
  9
$INSBASE
 10
0.0
 20
0.0
 30
0.0
  9
$EXTMIN
 10
0.0
 20
-2.960436562073669
 30
0.0
  9
$EXTMAX
 10
132.47002030473871
 20
222.43084423256201
 30
0.0
  9
$LIMMIN
 10
0.0
 20
0.0
  9
$LIMMAX
 10
375.0
 20
270.0
  9
$ORTHOMODE
 70
     1
  9
$REGENMODE
 70
     1
  9
$FILLMODE
 70
     1
  9
$QTEXTMODE
 70
     0
  9
$MIRRTEXT
 70
     0
  9
$DRAGMODE
 70
     2
  9
$LTSCALE
 40
6.0
  9
$OSMODE
 70
  3071
  9
$ATTMODE
 70
     1
  9
$TEXTSIZE
 40
0.2
  9
$TRACEWID
 40
0.05
  9
$TEXTSTYLE
  7
STANDARD
  9
$CLAYER
  8
0
  9
$CELTYPE
  6
BYLAYER
  9
$CECOLOR
 62
   256
  9
$DIMSCALE
 40
1.0
  9
$DIMASZ
 40
3.0
  9
$DIMEXO
 40
1.0
  9
$DIMDLI
 40
6.0
  9
$DIMRND
 40
0.0
  9
$DIMDLE
 40
0.0
  9
$DIMEXE
 40
1.0
  9
$DIMTP
 40
495.0
  9
$DIMTM
 40
0.0
  9
$DIMTXT
 40
3.0
  9
$DIMCEN
 40
0.0
  9
$DIMTSZ
 40
0.0
  9
$DIMTOL
 70
     0
  9
$DIMLIM
 70
     0
  9
$DIMTIH
 70
     0
  9
$DIMTOH
 70
     0
  9
$DIMSE1
 70
     0
  9
$DIMSE2
 70
     0
  9
$DIMTAD
 70
     1
  9
$DIMZIN
 70
     0
  9
$DIMBLK
  1

  9
$DIMASO
 70
     0
  9
$DIMSHO
 70
     0
  9
$DIMPOST
  1

  9
$DIMAPOST
  1

  9
$DIMALT
 70
     0
  9
$DIMALTD
 70
     2
  9
$DIMALTF
 40
25.399999999999999
  9
$DIMLFAC
 40
1.0
  9
$DIMTOFL
 70
     1
  9
$DIMTVP
 40
0.0
  9
$DIMTIX
 70
     1
  9
$DIMSOXD
 70
     0
  9
$DIMSAH
 70
     0
  9
$DIMBLK1
  1

  9
$DIMBLK2
  1

  9
$DIMSTYLE
  2
STANDARD
  9
$DIMCLRD
 70
     0
  9
$DIMCLRE
 70
     0
  9
$DIMCLRT
 70
     4
  9
$DIMTFAC
 40
1.0
  9
$DIMGAP
 40
1.0
  9
$LUNITS
 70
     2
  9
$LUPREC
 70
     4
  9
$SKETCHINC
 40
0.1
  9
$FILLETRAD
 40
2.0
  9
$AUNITS
 70
     0
  9
$AUPREC
 70
     0
  9
$MENU
  1
C:\R13\WIN\SUPPORT\ACAD-I
  9
$ELEVATION
 40
0.0
  9
$PELEVATION
 40
0.0
  9
$THICKNESS
 40
0.0
  9
$LIMCHECK
 70
     0
  9
$BLIPMODE
 70
     0
  9
$CHAMFERA
 40
0.0
  9
$CHAMFERB
 40
0.0
  9
$SKPOLY
 70
     0
  9
$TDCREATE
 40
2451961.716068299
  9
$TDUPDATE
 40
2456597.6070148032
  9
$TDINDWG
 40
0.0692072338
  9
$TDUSRTIMER
 40
2456549.2312649651
  9
$USRTIMER
 70
     1
  9
$ANGBASE
 50
0.0
  9
$ANGDIR
 70
     0
  9
$PDMODE
 70
     0
  9
$PDSIZE
 40
0.0
  9
$PLINEWID
 40
0.0
  9
$COORDS
 70
     1
  9
$SPLFRAME
 70
     0
  9
$SPLINETYPE
 70
     6
  9
$SPLINESEGS
 70
     8
  9
$ATTDIA
 70
     0
  9
$ATTREQ
 70
     1
  9
$HANDLING
 70
     1
  9
$HANDSEED
  5
2ABB
  9
$SURFTAB1
 70
     6
  9
$SURFTAB2
 70
     6
  9
$SURFTYPE
 70
     6
  9
$SURFU
 70
     6
  9
$SURFV
 70
     6
  9
$UCSNAME
  2

  9
$UCSORG
 10
0.0
 20
0.0
 30
0.0
  9
$UCSXDIR
 10
1.0
 20
0.0
 30
0.0
  9
$UCSYDIR
 10
0.0
 20
1.0
 30
0.0
  9
$PUCSNAME
  2

  9
$PUCSORG
 10
0.0
 20
0.0
 30
0.0
  9
$PUCSXDIR
 10
1.0
 20
0.0
 30
0.0
  9
$PUCSYDIR
 10
0.0
 20
1.0
 30
0.0
  9
$USERI1
 70
     4
  9
$USERI2
 70
     1
  9
$USERI3
 70
     0
  9
$USERI4
 70
     0
  9
$USERI5
 70
     0
  9
$USERR1
 40
1.0
  9
$USERR2
 40
3.0
  9
$USERR3
 40
3.0
  9
$USERR4
 40
3.0
  9
$USERR5
 40
10.0
  9
$WORLDVIEW
 70
     1
  9
$SHADEDGE
 70
     3
  9
$SHADEDIF
 70
    70
  9
$TILEMODE
 70
     1
  9
$MAXACTVP
 70
    16
  9
$PLIMCHECK
 70
     0
  9
$PEXTMIN
 10
1.0000000000000000E+020
 20
1.0000000000000000E+020
 30
1.0000000000000000E+020
  9
$PEXTMAX
 10
-1.0000000000000000E+020
 20
-1.0000000000000000E+020
 30
-1.0000000000000000E+020
  9
$PLIMMIN
 10
0.0
 20
0.0
  9
$PLIMMAX
 10
12.0
 20
9.0
  9
$UNITMODE
 70
     0
  9
$VISRETAIN
 70
     0
  9
$PLINEGEN
 70
     0
  9
$PSLTSCALE
 70
     0
  0
ENDSEC
  0
SECTION
  2
TABLES
  0
TABLE
  2
VPORT
 70
     1
  0
VPORT
  2
*ACTIVE
 70
     0
 10
0.0
 20
0.0
 11
1.0
 21
1.0
 12
187.49427839065231
 22
134.10366293909439
 13
0.0
 23
0.0
 14
10.0
 24
10.0
 15
10.0
 25
10.0
 16
0.0
 26
0.0
 36
1.0
 17
0.0
 27
0.0
 37
0.0
 40
277.29405978699532
 41
2.304913294797688
 42
50.0
 43
0.0
 44
0.0
 50
0.0
 51
0.0
 71
    16
 72
   100
 73
     1
 74
     0
 75
     0
 76
     0
 77
     0
 78
     0
  0
ENDTAB
  0
TABLE
  2
LTYPE
 70
     3
  0
LTYPE
  2
CONTINUOUS
 70
     0
  3
Solid Line
 72
    65
 73
     0
 40
0.0
  0
LTYPE
  2
PHANTOM2
 70
     0
  3
___ _ _ ___ _ _ ___ _ _ ___ _ _
 72
    65
 73
     6
 40
1.25
 49
0.625
 49
-0.125
 49
0.125
 49
-0.125
 49
0.125
 49
-0.125
  0
LTYPE
  2
CENTER
 70
     0
  3
____ _ ____ _ ____ _ ____ _ ____ _ ____ _ ____
 72
    65
 73
     4
 40
2.0
 49
1.25
 49
-0.25
 49
0.25
 49
-0.25
  0
ENDTAB
  0
TABLE
  2
LAYER
 70
     3
  0
LAYER
  2
0
 70
     0
 62
     7
  6
CONTINUOUS
  0
LAYER
  2
1
 70
     0
 62
     1
  6
CENTER
  0
LAYER
  2
3
 70
     0
 62
     3
  6
CONTINUOUS
  0
ENDTAB
  0
TABLE
  2
STYLE
 70
     3
  0
STYLE
  2
STANDARD
 70
     0
 40
0.0
 41
1.0
 50
0.0
 71
     0
 42
0.2
  3
SIMPLEX
  4
BIGFONT
  0
STYLE
  2
ANNOTATIVE
 70
     0
 40
0.0
 41
1.0
 50
0.0
 71
     0
 42
0.2
  3
txt
  4

  0
STYLE
  2
STANDARD1
 70
     0
 40
0.0
 41
1.0
 50
0.0
 71
     0
 42
3.0
  3
txt
  4

  0
ENDTAB
  0
TABLE
  2
VIEW
 70
     0
  0
ENDTAB
  0
TABLE
  2
UCS
 70
     0
  0
ENDTAB
  0
TABLE
  2
APPID
 70
    29
  0
APPID
  2
ACAD
 70
     0
  0
APPID
  2
ACADANNOTATIVE
 70
     0
  0
APPID
  2
GENIUS_GENOREF_13
 70
     0
  0
APPID
  2
GENIUS_GENOENT_13
 70
     0
  0
APPID
  2
GENIUS_GENBH_13
 70
     0
  0
APPID
  2
GENIUS_GENOBJ_13
 70
     0
  0
APPID
  2
GENIUS_GENODEF_13
 70
     0
  0
APPID
  2
GENIUS_GENOLIS_13
 70
     0
  0
APPID
  2
GENIUS_GENOBJ-NBEHI-BHF_13
 70
     0
  0
APPID
  2
GENIUS_GENOBJ-NBEHI-BHB_13
 70
     0
  0
APPID
  2
GENIUS_GENOBJ-F-PART_13
 70
     0
  0
APPID
  2
GENIUS_GEFSTDP_13
 70
     0
  0
APPID
  2
GENIUS_GENOBJ-N-RSSYM_13
 70
     0
  0
APPID
  2
GENIUS_GENSYMENT_13
 70
     0
  0
APPID
  2
GENIUS_GENOBJ-N-TIT_13
 70
     0
  0
APPID
  2
GENIUS_GENTITLE_13
 70
     0
  0
APPID
  2
GENIUS_GENZVEED_13
 70
     0
  0
APPID
  2
GENIUS_GENOBJ-N-LEADER_13
 70
     0
  0
APPID
  2
GENIUS_GENOBJ-N-FIL_13
 70
     0
  0
APPID
  2
GENIUS_GENOBJ-N-SEC_13
 70
     0
  0
APPID
  2
GENIUS_GENOBJ-N-CRS_13
 70
     0
  0
APPID
  2
GENIUS_GENOBJ-N-ZOO_13
 70
     0
  0
APPID
  2
GENIUS_GENZOO_13
 70
     0
  0
APPID
  2
GENIUS_GENOBJ-F-TOL_13
 70
     0
  0
APPID
  2
GENIUS_GENFIL_13
 70
     0
  0
APPID
  2
GENIUS_GENOBJ-N-CHA_13
 70
     0
  0
APPID
  2
ACAD_MLEADERVER
 70
     0
  0
APPID
  2
ACAD_EXEMPT_FROM_CAD_STANDARDS
 70
     0
  0
APPID
  2
ACAD_NAV_VCDISPLAY
 70
     0
  0
ENDTAB
  0
TABLE
  2
DIMSTYLE
 70
     2
  0
DIMSTYLE
  2
STANDARD
 70
     0
  3

  4

  5

  6

  7

 40
1.0
 41
0.18
 42
0.0625
 43
0.38
 44
0.18
 45
0.0
 46
0.0
 47
0.0
 48
0.0
140
0.18
141
0.09
142
0.0
143
25.399999999999999
144
1.0
145
0.0
146
1.0
147
0.09
 71
     0
 72
     0
 73
     1
 74
     1
 75
     0
 76
     0
 77
     0
 78
     0
170
     0
171
     2
172
     0
173
     0
174
     0
175
     0
176
     0
177
     0
178
     0
  0
DIMSTYLE
  2
ANNOTATIVE
 70
     0
  3

  4

  5

  6

  7

 40
1.0
 41
0.18
 42
0.0625
 43
0.38
 44
0.18
 45
0.0
 46
0.0
 47
0.0
 48
0.0
140
0.18
141
0.09
142
0.0
143
25.399999999999999
144
1.0
145
0.0
146
1.0
147
0.09
 71
     0
 72
     0
 73
     1
 74
     1
 75
     0
 76
     0
 77
     0
 78
     0
170
     0
171
     2
172
     0
173
     0
174
     0
175
     0
176
     0
177
     0
178
     0
  0
ENDTAB
  0
ENDSEC
  0
SECTION
  2
BLOCKS
  0
BLOCK
  8
0
  2
$MODEL_SPACE
 70
     0
 10
0.0
 20
0.0
 30
0.0
  3
$MODEL_SPACE
  1

  0
ENDBLK
  5
29DE
  8
0
  0
BLOCK
 67
     1
  8
0
  2
$PAPER_SPACE
 70
     0
 10
0.0
 20
0.0
 30
0.0
  3
$PAPER_SPACE
  1

  0
ENDBLK
  5
29DA
 67
     1
  8
0
  0
ENDSEC
  0
SECTION
  2
ENTITIES
  0
LINE
  5
24A9
  8
0
 10
37.214803104319223
 20
199.43084423256201
 30
0.0
 11
42.699630661620731
 21
189.93084423256201
 31
0.0
  0
LINE
  5
24AA
  8
0
 10
42.699630661620851
 20
208.93084423256201
 30
0.0
 11
37.214803104319223
 21
199.43084423256201
 31
0.0
  0
LINE
  5
24AB
  8
0
 10
53.66928577622366
 20
208.93084423256201
 30
0.0
 11
42.699630661620851
 21
208.93084423256201
 31
0.0
  0
LINE
  5
24AC
  8
0
 10
59.154113333524933
 20
199.43084423256201
 30
0.0
 11
53.66928577622366
 21
208.93084423256201
 31
0.0
  0
LINE
  5
24AD
  8
0
 10
53.669285776223433
 20
189.93084423256201
 30
0.0
 11
59.154113333524933
 21
199.43084423256201
 31
0.0
  0
CIRCLE
  5
24AE
  8
3
 10
48.184458218922153
 20
199.43084423256201
 30
0.0
 40
5.052999999999999
  0
CIRCLE
  5
24AF
  8
0
 10
48.184458218922153
 20
199.43084423256201
 30
0.0
 40
6.0
  0
CIRCLE
  5
24B0
  8
0
 10
48.184458218922153
 20
199.43084423256201
 30
0.0
 40
9.0
  0
LINE
  5
24B1
  8
0
 10
42.699630661620731
 20
189.93084423256201
 30
0.0
 11
53.669285776223433
 21
189.93084423256201
 31
0.0
  0
LINE
  5
24B2
  8
0
 10
42.184458218922259
 20
76.801266023424546
 30
0.0
 11
42.184458218922259
 21
150.8012660234248
 31
0.0
  0
LINE
  5
24B3
  8
3
 10
43.131458218922148
 20
76.801266023424546
 30
0.0
 11
43.131458218922262
 21
151.74826602342449
 31
0.0
  0
LINE
  5
24B4
  8
3
 10
53.237458218922256
 20
76.80126602342466
 30
0.0
 11
53.23745821892237
 21
151.74826602342441
 31
0.0
  0
LINE
  5
24B5
  8
0
 10
54.184458218922259
 20
76.801266023424546
 30
0.0
 11
54.184458218922259
 21
150.8012660234244
 31
0.0
  0
LINE
  5
24B6
  8
0
 10
53.669285776219567
 20
75.664085112798702
 30
0.0
 11
53.66928577622366
 21
67.938446934050148
 31
0.0
  0
LINE
  5
24B7
  8
0
 10
59.154113333525402
 20
75.664085112798702
 30
0.0
 11
59.154113333525402
 21
67.938446934050376
 31
0.0
  0
LINE
  5
24B8
  8
0
 10
42.699630661625157
 20
75.664085112798702
 30
0.0
 11
42.699630661621079
 21
67.938446934050148
 31
0.0
  0
LINE
  5
24B9
  8
0
 10
37.214803104319337
 20
75.664085112798702
 30
0.0
 11
37.214803104319337
 21
67.938446934050376
 31
0.0
  0
LINE
  5
24BA
  8
0
 10
37.214803104319337
 20
67.938446934050376
 30
0.0
 11
39.184458218921009
 21
66.801266023424546
 31
0.0
  0
ARC
  5
24BB
  8
0
 10
39.957216882969988
 20
71.94600438002783
 30
0.0
 40
4.8560632220084567
 50
244.3842474680873
 51
304.3842474680165
  0
ARC
  5
24BC
  8
0
 10
48.184458218922359
 20
85.241435382004823
 30
0.0
 40
18.15149422398537
 50
252.41204622603641
 51
287.5879537739637
  0
ARC
  5
24BD
  8
0
 10
56.411699554874751
 20
71.94600438002783
 30
0.0
 40
4.8560632220084567
 50
235.61575253198339
 51
295.61575253191268
  0
LINE
  5
24BE
  8
0
 10
59.154113333525402
 20
67.938446934050376
 30
0.0
 11
57.18445821892373
 21
66.801266023424546
 31
0.0
  0
LINE
  5
24BF
  8
0
 10
39.184458218921009
 20
66.801266023424546
 30
0.0
 11
57.18445821892373
 21
66.801266023424546
 31
0.0
  0
LINE
  5
24C0
  8
0
 10
39.184458218921009
 20
76.801266023424546
 30
0.0
 11
57.18445821892373
 21
76.801266023424546
 31
0.0
  0
LINE
  5
24C1
  8
0
 10
59.154113333525402
 20
75.664085112798702
 30
0.0
 11
57.18445821892373
 21
76.801266023424546
 31
0.0
  0
ARC
  5
24C2
  8
0
 10
56.411699554874751
 20
71.656527666821276
 30
0.0
 40
4.8560632220084567
 50
64.384247468087239
 51
124.3842474680165
  0
ARC
  5
24C3
  8
0
 10
48.184458218922359
 20
58.361096664844247
 30
0.0
 40
18.15149422398537
 50
72.412046226036352
 51
107.5879537739636
  0
ARC
  5
24C4
  8
0
 10
39.957216882969988
 20
71.656527666821276
 30
0.0
 40
4.8560632220084567
 50
55.615752531983432
 51
115.6157525319127
  0
LINE
  5
24C5
  8
0
 10
37.214803104319337
 20
75.664085112798702
 30
0.0
 11
39.184458218921009
 21
76.801266023424546
 31
0.0
  0
LINE
  5
24C6
  8
0
 10
44.184458218922259
 20
152.8012660234248
 30
0.0
 11
52.184458218922259
 21
152.8012660234244
 31
0.0
  0
LINE
  5
24C7
  8
0
 10
54.184458218922259
 20
54.801266023424411
 30
0.0
 11
54.184458218922259
 21
66.801266023424546
 31
0.0
  0
LINE
  5
24C8
  8
3
 10
53.237458218922256
 20
56.801266023424397
 30
0.0
 11
53.237458218922256
 21
66.801266023424546
 31
0.0
  0
LINE
  5
24C9
  8
3
 10
43.131458218922148
 20
56.801266023424397
 30
0.0
 11
43.131458218922148
 21
66.80126602342466
 31
0.0
  0
LINE
  5
24CA
  8
0
 10
42.184458218922259
 20
54.801266023424411
 30
0.0
 11
42.184458218922259
 21
66.801266023424546
 31
0.0
  0
LINE
  5
24CB
  8
0
 10
44.184458218922259
 20
152.8012660234248
 30
0.0
 11
42.184458218922259
 21
150.8012660234248
 31
0.0
  0
LINE
  5
24CC
  8
0
 10
52.184458218922259
 20
152.8012660234244
 30
0.0
 11
54.184458218922259
 21
150.8012660234244
 31
0.0
  0
LINE
  5
24CD
  8
0
 10
42.184458218922259
 20
150.8012660234246
 30
0.0
 11
54.184458218922259
 21
150.8012660234244
 31
0.0
  0
LINE
  5
24CE
  8
0
 10
54.184458218922259
 20
56.801266023424397
 30
0.0
 11
42.184458218922259
 21
56.801266023424397
 31
0.0
  0
LINE
  5
24CF
  8
3
 10
43.131458218922148
 20
56.801266023424397
 30
0.0
 11
42.184458218922259
 21
55.161013908656713
 31
0.0
  0
LINE
  5
24D0
  8
3
 10
53.237458218922129
 20
56.801266023424397
 30
0.0
 11
54.184458218922259
 21
55.161013908656713
 31
0.0
  0
ARC
  5
24D1
  8
0
 10
51.684458218921812
 20
60.065947241551576
 30
0.0
 40
10.10924076103746
 50
249.74384199958439
 51
290.25615800041561
  0
LINE
  5
24D2
  8
0
 10
55.184458218922032
 20
49.956706480514143
 30
0.0
 11
54.915227449689951
 21
49.801266023423942
 31
0.0
  0
LINE
  5
24D3
  8
0
 10
41.184458218922032
 20
49.956706480514143
 30
0.0
 11
41.453688988153878
 21
49.801266023423942
 31
0.0
  0
ARC
  5
24D4
  8
0
 10
44.684458218922032
 20
60.065947241551576
 30
0.0
 40
10.10924076103746
 50
249.74384199958439
 51
290.25615800041561
  0
LINE
  5
24D5
  8
0
 10
54.915227449689951
 20
49.801266023423942
 30
0.0
 11
41.453688988153878
 21
49.801266023423942
 31
0.0
  0
ARC
  5
24D6
  8
0
 10
51.684458218921812
 20
44.536584805296307
 30
0.0
 40
10.10924076103746
 50
69.743841999584404
 51
110.2561580004156
  0
LINE
  5
24D7
  8
0
 10
55.184458218922032
 20
54.645825566333741
 30
0.0
 11
54.915227449689951
 21
54.801266023423942
 31
0.0
  0
LINE
  5
24D8
  8
0
 10
41.184458218922032
 20
54.645825566333741
 30
0.0
 11
41.453688988153878
 21
54.801266023423942
 31
0.0
  0
ARC
  5
24D9
  8
0
 10
44.684458218922032
 20
44.536584805296307
 30
0.0
 40
10.10924076103746
 50
69.743841999584404
 51
110.2561580004156
  0
LINE
  5
24DA
  8
0
 10
54.915227449689951
 20
54.801266023423942
 30
0.0
 11
41.453688988153878
 21
54.801266023423942
 31
0.0
  0
LINE
  5
24DB
  8
0
 10
55.184458218922032
 20
54.645825566333741
 30
0.0
 11
55.184458218922032
 21
49.956706480514143
 31
0.0
  0
LINE
  5
24DC
  8
0
 10
41.184458218922032
 20
54.645825566333741
 30
0.0
 11
41.184458218922032
 21
49.956706480514143
 31
0.0
  0
LINE
  5
24DE
  8
0
 10
42.684458218922032
 20
46.80126602342451
 30
0.0
 11
42.684458218922032
 21
49.801266023423942
 31
0.0
  0
LINE
  5
24DF
  8
0
 10
53.684458218922032
 20
46.80126602342451
 30
0.0
 11
53.684458218922032
 21
49.801266023423942
 31
0.0
  0
LINE
  5
24E0
  8
0
 10
118.4700203047388
 20
76.801266023424546
 30
0.0
 11
118.4700203047388
 21
150.80126602342429
 31
0.0
  0
LINE
  5
24E1
  8
3
 10
117.52302030473891
 20
76.801266023424546
 30
0.0
 11
117.52302030473891
 21
151.74826602342429
 31
0.0
  0
LINE
  5
24E2
  8
0
 10
106.4700203047387
 20
76.801266023424546
 30
0.0
 11
106.4700203047387
 21
150.8012660234244
 31
0.0
  0
LINE
  5
24E3
  8
3
 10
107.4170203047388
 20
76.801266023424432
 30
0.0
 11
107.4170203047388
 21
151.74826602342441
 31
0.0
  0
LINE
  5
24E4
  8
3
 10
107.4170203047387
 20
56.801266023424184
 30
0.0
 11
106.4700203047387
 21
55.161013908656493
 31
0.0
  0
LINE
  5
24E5
  8
0
 10
108.4700203047388
 20
152.8012660234244
 30
0.0
 11
106.4700203047387
 21
150.8012660234244
 31
0.0
  0
LINE
  5
24E6
  8
3
 10
107.4170203047387
 20
56.801266023424184
 30
0.0
 11
107.4170203047388
 21
66.801266023424546
 31
0.0
  0
LINE
  5
24E7
  8
0
 10
106.4700203047387
 20
54.801266023424169
 30
0.0
 11
106.4700203047387
 21
66.801266023424432
 31
0.0
  0
LINE
  5
24E8
  8
3
 10
117.52302030473869
 20
56.801266023424184
 30
0.0
 11
118.4700203047388
 21
55.161013908656493
 31
0.0
  0
LINE
  5
24E9
  8
0
 10
118.4700203047388
 20
56.801266023424184
 30
0.0
 11
106.4700203047387
 21
56.801266023424184
 31
0.0
  0
LINE
  5
24EA
  8
0
 10
106.4700203047387
 20
150.8012660234244
 30
0.0
 11
118.4700203047388
 21
150.80126602342429
 31
0.0
  0
LINE
  5
24EB
  8
0
 10
116.4700203047388
 20
152.80126602342429
 30
0.0
 11
118.4700203047388
 21
150.80126602342429
 31
0.0
  0
LINE
  5
24EC
  8
3
 10
117.52302030473879
 20
56.801266023424184
 30
0.0
 11
117.52302030473879
 21
66.801266023424546
 31
0.0
  0
LINE
  5
24ED
  8
0
 10
118.4700203047388
 20
54.801266023424169
 30
0.0
 11
118.4700203047388
 21
66.801266023424546
 31
0.0
  0
LINE
  5
24EE
  8
0
 10
108.4700203047388
 20
152.8012660234244
 30
0.0
 11
116.4700203047388
 21
152.80126602342429
 31
0.0
  0
LINE
  5
24F0
  8
0
 10
121.4700203047388
 20
66.801266023424546
 30
0.0
 11
103.4700203047387
 21
66.801266023424546
 31
0.0
  0
LINE
  5
24F1
  8
0
 10
103.4700203047387
 20
76.801266023424546
 30
0.0
 11
121.4700203047388
 21
76.801266023424546
 31
0.0
  0
LINE
  5
24F2
  8
0
 10
102.9700203047388
 20
76.51259088882955
 30
0.0
 11
103.4700203047387
 21
76.801266023424546
 31
0.0
  0
ARC
  5
24F3
  8
0
 10
107.7200203047388
 20
62.792906998836422
 30
0.0
 40
13.719683889993171
 50
69.743841999613011
 51
110.256158000387
  0
LINE
  5
24F4
  8
0
 10
103.4700203047387
 20
66.801266023424546
 30
0.0
 11
102.9700203047388
 21
67.161737927744639
 31
0.0
  0
LINE
  5
24F5
  8
0
 10
102.9700203047388
 20
67.161737927744639
 30
0.0
 11
102.9700203047388
 21
76.51259088882955
 31
0.0
  0
ARC
  5
24F6
  8
0
 10
107.7200203047388
 20
80.809625048012435
 30
0.0
 40
13.719683889993171
 50
249.7438419996115
 51
290.25615800038707
  0
ARC
  5
24F7
  8
0
 10
117.2200203047388
 20
80.809625048012435
 30
0.0
 40
13.719683889993171
 50
249.7438419996115
 51
290.25615800038707
  0
LINE
  5
24F8
  8
0
 10
121.9700203047388
 20
67.161737927744639
 30
0.0
 11
121.9700203047388
 21
76.51259088882955
 31
0.0
  0
LINE
  5
24F9
  8
0
 10
121.4700203047388
 20
66.801266023424546
 30
0.0
 11
121.9700203047388
 21
67.161737927744639
 31
0.0
  0
ARC
  5
24FA
  8
0
 10
117.2200203047388
 20
62.792906998836422
 30
0.0
 40
13.719683889993171
 50
69.743841999613011
 51
110.256158000387
  0
LINE
  5
24FB
  8
0
 10
121.9700203047388
 20
76.51259088882955
 30
0.0
 11
121.4700203047388
 21
76.801266023424546
 31
0.0
  0
LINE
  5
24FC
  8
0
 10
117.9700203047387
 20
46.801266023424638
 30
0.0
 11
117.9700203047389
 21
49.801266023423942
 31
0.0
  0
LINE
  5
24FD
  8
0
 10
106.9700203047389
 20
46.801266023424638
 30
0.0
 11
106.9700203047388
 21
49.801266023423942
 31
0.0
  0
ARC
  5
24FE
  8
0
 10
106.4078424782477
 20
51.067673718541151
 30
0.0
 40
3.5781518477924039
 50
55.615752531961313
 51
115.6157525321742
  0
ARC
  5
24FF
  8
0
 10
112.47002030473971
 20
41.271040348679747
 30
0.0
 40
13.374785217653811
 50
72.412046225995155
 51
107.5879537740048
  0
LINE
  5
2500
  8
0
 10
104.38711653608379
 20
54.020610783994201
 30
0.0
 11
105.73925107397091
 21
54.801266023423842
 31
0.0
  0
LINE
  5
2501
  8
0
 10
104.38711653608379
 20
50.581921262853442
 30
0.0
 11
105.73925107397091
 21
49.801266023423942
 31
0.0
  0
ARC
  5
2502
  8
0
 10
106.4078424782477
 20
53.53485832830664
 30
0.0
 40
3.5781518477924039
 50
244.3842474678257
 51
304.38424746803872
  0
ARC
  5
2503
  8
0
 10
112.47002030473971
 20
63.331491698167923
 30
0.0
 40
13.374785217653811
 50
252.4120462259952
 51
287.5879537740048
  0
LINE
  5
2504
  8
0
 10
104.38711653608379
 20
54.020610783994201
 30
0.0
 11
104.38711653608379
 21
50.581921262853442
 31
0.0
  0
LINE
  5
2505
  8
0
 10
108.4285684204131
 20
54.020610783993092
 30
0.0
 11
108.4285684204113
 21
50.581921262855161
 31
0.0
  0
LINE
  5
2506
  8
0
 10
116.51147218906441
 20
54.020610783994769
 30
0.0
 11
116.5114721890662
 21
50.581921262855161
 31
0.0
  0
LINE
  5
2507
  8
0
 10
120.5529240733934
 20
54.020610783994329
 30
0.0
 11
120.5529240733934
 21
50.581921262853442
 31
0.0
  0
ARC
  5
2508
  8
0
 10
118.53219813122961
 20
53.53485832830664
 30
0.0
 40
3.5781518477924039
 50
235.61575253196131
 51
295.61575253217421
  0
LINE
  5
2509
  8
0
 10
120.5529240733934
 20
50.581921262853442
 30
0.0
 11
119.2007895355067
 21
49.801266023423942
 31
0.0
  0
LINE
  5
250A
  8
0
 10
120.5529240733934
 20
54.020610783994201
 30
0.0
 11
119.2007895355067
 21
54.801266023423842
 31
0.0
  0
ARC
  5
250B
  8
0
 10
118.53219813122961
 20
51.067673718541151
 30
0.0
 40
3.5781518477924039
 50
64.384247467825773
 51
124.38424746803869
  0
LINE
  5
250C
  8
0
 10
105.7392510739695
 20
54.801266023423842
 30
0.0
 11
119.2007895355065
 21
54.801266023423842
 31
0.0
  0
LINE
  5
250D
  8
0
 10
119.2007895355067
 20
49.801266023423942
 30
0.0
 11
105.7392510739711
 21
49.801266023423942
 31
0.0
  0
LINE
  5
250E
  8
1
 10
71.184458218922146
 20
199.43084423256201
 30
0.0
 11
25.184458218922138
 21
199.43084423256201
 31
0.0
  0
LINE
  5
250F
  8
1
 10
48.184458218922153
 20
222.43084423256201
 30
0.0
 11
48.184458218922153
 21
176.43084423256201
 31
0.0
  0
CIRCLE
  5
2510
  8
0
 10
48.184458218922153
 20
199.43084423256201
 30
0.0
 40
10.99533453162949
  0
CIRCLE
  5
2511
  8
0
 10
48.184458218922153
 20
199.43084423256201
 30
0.0
 40
12.006063426498701
  0
CIRCLE
  5
2512
  8
0
 10
48.184458218922153
 20
199.43084423256201
 30
0.0
 40
20.0
  0
LINE
  5
2518
  8
1
 10
112.4700203047387
 20
26.801266023424532
 30
0.0
 11
112.4700203047388
 21
155.7507285034431
 31
0.0
  0
LINE
  5
252D
  8
1
 10
48.184458218922153
 20
26.801266023424532
 30
0.0
 11
48.184458218922252
 21
155.80126602342449
 31
0.0
  0
LINE
  5
2759
  8
0
 10
60.190521645420851
 20
40.836354450356509
 30
0.0
 11
59.179792750551641
 21
46.80126602342451
 31
0.0
  0
LINE
  5
275A
  8
0
 10
68.18445821892216
 20
35.301266023424517
 30
0.0
 11
60.190521645420851
 21
40.836354450356509
 31
0.0
  0
LINE
  5
275B
  8
0
 10
67.68445821892216
 20
29.801266023424532
 30
0.0
 11
68.18445821892216
 21
30.301266023424521
 31
0.0
  0
LINE
  5
275C
  8
0
 10
59.179792750551641
 20
46.80126602342451
 30
0.0
 11
37.189123687292707
 21
46.80126602342451
 31
0.0
  0
LINE
  5
275D
  8
0
 10
68.18445821892216
 20
35.301266023424517
 30
0.0
 11
28.18445821892217
 21
35.301266023424517
 31
0.0
  0
LINE
  5
275E
  8
0
 10
67.68445821892216
 20
29.801266023424532
 30
0.0
 11
28.684458218922181
 21
29.801266023424532
 31
0.0
  0
LINE
  5
275F
  8
0
 10
68.18445821892216
 20
30.301266023424521
 30
0.0
 11
68.18445821892216
 21
35.301266023424517
 31
0.0
  0
LINE
  5
2760
  8
0
 10
28.18445821892217
 20
35.301266023424517
 30
0.0
 11
36.178394792423482
 21
40.836354450356509
 31
0.0
  0
LINE
  5
2761
  8
0
 10
28.684458218922181
 20
29.801266023424532
 30
0.0
 11
28.18445821892217
 21
30.301266023424521
 31
0.0
  0
LINE
  5
2762
  8
0
 10
28.18445821892217
 20
30.301266023424521
 30
0.0
 11
28.18445821892217
 21
35.301266023424517
 31
0.0
  0
LINE
  5
2763
  8
0
 10
36.178394792423482
 20
40.836354450356509
 30
0.0
 11
37.189123687292707
 21
46.80126602342451
 31
0.0
  0
LINE
  5
2764
  8
0
 10
36.178394792423482
 20
40.836354450356509
 30
0.0
 11
60.190521645420851
 21
40.836354450356509
 31
0.0
  0
LINE
  5
2768
  8
0
 10
124.4760837312373
 20
40.836354450356509
 30
0.0
 11
123.46535483636821
 21
46.80126602342451
 31
0.0
  0
LINE
  5
2769
  8
0
 10
132.47002030473871
 20
35.301266023424517
 30
0.0
 11
124.4760837312373
 21
40.836354450356509
 31
0.0
  0
LINE
  5
276A
  8
0
 10
131.9700203047386
 20
29.801266023424532
 30
0.0
 11
132.47002030473871
 21
30.301266023424521
 31
0.0
  0
LINE
  5
276B
  8
0
 10
123.46535483636821
 20
46.80126602342451
 30
0.0
 11
101.4746857731092
 21
46.80126602342451
 31
0.0
  0
LINE
  5
276C
  8
0
 10
132.47002030473871
 20
35.301266023424517
 30
0.0
 11
92.470020304738696
 21
35.301266023424517
 31
0.0
  0
LINE
  5
276D
  8
0
 10
131.9700203047386
 20
29.801266023424532
 30
0.0
 11
92.970020304738711
 21
29.801266023424532
 31
0.0
  0
LINE
  5
276E
  8
0
 10
132.47002030473871
 20
30.301266023424521
 30
0.0
 11
132.47002030473871
 21
35.301266023424517
 31
0.0
  0
LINE
  5
276F
  8
0
 10
92.470020304738696
 20
35.301266023424517
 30
0.0
 11
100.46395687824
 21
40.836354450356509
 31
0.0
  0
LINE
  5
2770
  8
0
 10
92.970020304738696
 20
29.801266023424532
 30
0.0
 11
92.470020304738696
 21
30.301266023424521
 31
0.0
  0
LINE
  5
2771
  8
0
 10
92.470020304738696
 20
30.301266023424521
 30
0.0
 11
92.470020304738696
 21
35.301266023424517
 31
0.0
  0
LINE
  5
2772
  8
0
 10
100.46395687824
 20
40.836354450356509
 30
0.0
 11
101.4746857731092
 21
46.80126602342451
 31
0.0
  0
LINE
  5
2773
  8
0
 10
100.46395687824
 20
40.836354450356509
 30
0.0
 11
124.4760837312373
 21
40.836354450356509
 31
0.0
  0
LINE
  5
2906
  8
0
 10
48.184458218922167
 20
54.020610783994407
 30
0.0
 11
48.184458218921918
 21
50.581921262853378
 31
0.0
  0
LINE
  5
2907
  8
0
 10
112.4700203047387
 20
75.664085112798546
 30
0.0
 11
112.4700203047387
 21
67.938446934050319
 31
0.0
  0
TEXT
  5
2A5E
  8
0
 62
     3
 10
0.0
 20
0.0
 30
0.0
 40
10.0
  1
LSA40S12C
  7
STANDARD1
  0
ENDSEC
  0
EOF
