  0
SECTION
  2
HEADER
  9
$ACADVER
  1
AC1009
  9
$INSBASE
 10
0.0
 20
0.0
 30
0.0
  9
$EXTMIN
 10
0.0
 20
-2.960436562073669
 30
0.0
  9
$EXTMAX
 10
115.7630550596797
 20
180.59311951074801
 30
0.0
  9
$LIMMIN
 10
0.0
 20
0.0
  9
$LIMMAX
 10
375.0
 20
270.0
  9
$ORTHOMODE
 70
     1
  9
$REGENMODE
 70
     1
  9
$FILLMODE
 70
     1
  9
$QTEXTMODE
 70
     0
  9
$MIRRTEXT
 70
     0
  9
$DRAGMODE
 70
     2
  9
$LTSCALE
 40
6.0
  9
$OSMODE
 70
  3071
  9
$ATTMODE
 70
     1
  9
$TEXTSIZE
 40
0.2
  9
$TRACEWID
 40
0.05
  9
$TEXTSTYLE
  7
STANDARD
  9
$CLAYER
  8
0
  9
$CELTYPE
  6
BYLAYER
  9
$CECOLOR
 62
   256
  9
$DIMSCALE
 40
1.0
  9
$DIMASZ
 40
3.0
  9
$DIMEXO
 40
1.0
  9
$DIMDLI
 40
6.0
  9
$DIMRND
 40
0.0
  9
$DIMDLE
 40
0.0
  9
$DIMEXE
 40
1.0
  9
$DIMTP
 40
495.0
  9
$DIMTM
 40
0.0
  9
$DIMTXT
 40
3.0
  9
$DIMCEN
 40
0.0
  9
$DIMTSZ
 40
0.0
  9
$DIMTOL
 70
     0
  9
$DIMLIM
 70
     0
  9
$DIMTIH
 70
     0
  9
$DIMTOH
 70
     0
  9
$DIMSE1
 70
     0
  9
$DIMSE2
 70
     0
  9
$DIMTAD
 70
     1
  9
$DIMZIN
 70
     0
  9
$DIMBLK
  1

  9
$DIMASO
 70
     0
  9
$DIMSHO
 70
     0
  9
$DIMPOST
  1

  9
$DIMAPOST
  1

  9
$DIMALT
 70
     0
  9
$DIMALTD
 70
     2
  9
$DIMALTF
 40
25.399999999999999
  9
$DIMLFAC
 40
1.0
  9
$DIMTOFL
 70
     1
  9
$DIMTVP
 40
0.0
  9
$DIMTIX
 70
     1
  9
$DIMSOXD
 70
     0
  9
$DIMSAH
 70
     0
  9
$DIMBLK1
  1

  9
$DIMBLK2
  1

  9
$DIMSTYLE
  2
STANDARD
  9
$DIMCLRD
 70
     0
  9
$DIMCLRE
 70
     0
  9
$DIMCLRT
 70
     4
  9
$DIMTFAC
 40
1.0
  9
$DIMGAP
 40
1.0
  9
$LUNITS
 70
     2
  9
$LUPREC
 70
     4
  9
$SKETCHINC
 40
0.1
  9
$FILLETRAD
 40
2.0
  9
$AUNITS
 70
     0
  9
$AUPREC
 70
     0
  9
$MENU
  1
C:\R13\WIN\SUPPORT\ACAD-I
  9
$ELEVATION
 40
0.0
  9
$PELEVATION
 40
0.0
  9
$THICKNESS
 40
0.0
  9
$LIMCHECK
 70
     0
  9
$BLIPMODE
 70
     0
  9
$CHAMFERA
 40
0.0
  9
$CHAMFERB
 40
0.0
  9
$SKPOLY
 70
     0
  9
$TDCREATE
 40
2451961.7150165509
  9
$TDUPDATE
 40
2456597.6069953009
  9
$TDINDWG
 40
0.0795783565
  9
$TDUSRTIMER
 40
2456549.232671794
  9
$USRTIMER
 70
     1
  9
$ANGBASE
 50
0.0
  9
$ANGDIR
 70
     0
  9
$PDMODE
 70
     0
  9
$PDSIZE
 40
0.0
  9
$PLINEWID
 40
0.0
  9
$COORDS
 70
     1
  9
$SPLFRAME
 70
     0
  9
$SPLINETYPE
 70
     6
  9
$SPLINESEGS
 70
     8
  9
$ATTDIA
 70
     0
  9
$ATTREQ
 70
     1
  9
$HANDLING
 70
     1
  9
$HANDSEED
  5
2976
  9
$SURFTAB1
 70
     6
  9
$SURFTAB2
 70
     6
  9
$SURFTYPE
 70
     6
  9
$SURFU
 70
     6
  9
$SURFV
 70
     6
  9
$UCSNAME
  2

  9
$UCSORG
 10
0.0
 20
0.0
 30
0.0
  9
$UCSXDIR
 10
1.0
 20
0.0
 30
0.0
  9
$UCSYDIR
 10
0.0
 20
1.0
 30
0.0
  9
$PUCSNAME
  2

  9
$PUCSORG
 10
0.0
 20
0.0
 30
0.0
  9
$PUCSXDIR
 10
1.0
 20
0.0
 30
0.0
  9
$PUCSYDIR
 10
0.0
 20
1.0
 30
0.0
  9
$USERI1
 70
     4
  9
$USERI2
 70
     1
  9
$USERI3
 70
     0
  9
$USERI4
 70
     0
  9
$USERI5
 70
     0
  9
$USERR1
 40
1.0
  9
$USERR2
 40
3.0
  9
$USERR3
 40
3.0
  9
$USERR4
 40
3.0
  9
$USERR5
 40
10.0
  9
$WORLDVIEW
 70
     1
  9
$SHADEDGE
 70
     3
  9
$SHADEDIF
 70
    70
  9
$TILEMODE
 70
     1
  9
$MAXACTVP
 70
    16
  9
$PLIMCHECK
 70
     0
  9
$PEXTMIN
 10
1.0000000000000000E+020
 20
1.0000000000000000E+020
 30
1.0000000000000000E+020
  9
$PEXTMAX
 10
-1.0000000000000000E+020
 20
-1.0000000000000000E+020
 30
-1.0000000000000000E+020
  9
$PLIMMIN
 10
0.0
 20
0.0
  9
$PLIMMAX
 10
12.0
 20
9.0
  9
$UNITMODE
 70
     0
  9
$VISRETAIN
 70
     0
  9
$PLINEGEN
 70
     0
  9
$PSLTSCALE
 70
     0
  0
ENDSEC
  0
SECTION
  2
TABLES
  0
TABLE
  2
VPORT
 70
     1
  0
VPORT
  2
*ACTIVE
 70
     0
 10
0.0
 20
0.0
 11
1.0
 21
1.0
 12
187.49427839065231
 22
134.10366293909439
 13
0.0
 23
0.0
 14
10.0
 24
10.0
 15
10.0
 25
10.0
 16
0.0
 26
0.0
 36
1.0
 17
0.0
 27
0.0
 37
0.0
 40
277.29405978699532
 41
2.304913294797688
 42
50.0
 43
0.0
 44
0.0
 50
0.0
 51
0.0
 71
    16
 72
   100
 73
     1
 74
     0
 75
     0
 76
     0
 77
     0
 78
     0
  0
ENDTAB
  0
TABLE
  2
LTYPE
 70
     3
  0
LTYPE
  2
CONTINUOUS
 70
     0
  3
Solid Line
 72
    65
 73
     0
 40
0.0
  0
LTYPE
  2
PHANTOM2
 70
     0
  3
___ _ _ ___ _ _ ___ _ _ ___ _ _
 72
    65
 73
     6
 40
1.25
 49
0.625
 49
-0.125
 49
0.125
 49
-0.125
 49
0.125
 49
-0.125
  0
LTYPE
  2
CENTER
 70
     0
  3
____ _ ____ _ ____ _ ____ _ ____ _ ____ _ ____
 72
    65
 73
     4
 40
2.0
 49
1.25
 49
-0.25
 49
0.25
 49
-0.25
  0
ENDTAB
  0
TABLE
  2
LAYER
 70
     3
  0
LAYER
  2
0
 70
     0
 62
     7
  6
CONTINUOUS
  0
LAYER
  2
1
 70
     0
 62
     1
  6
CENTER
  0
LAYER
  2
3
 70
     0
 62
     3
  6
CONTINUOUS
  0
ENDTAB
  0
TABLE
  2
STYLE
 70
     3
  0
STYLE
  2
STANDARD
 70
     0
 40
0.0
 41
1.0
 50
0.0
 71
     0
 42
0.2
  3
SIMPLEX
  4
BIGFONT
  0
STYLE
  2
ANNOTATIVE
 70
     0
 40
0.0
 41
1.0
 50
0.0
 71
     0
 42
0.2
  3
txt
  4

  0
STYLE
  2
STANDARD1
 70
     0
 40
0.0
 41
1.0
 50
0.0
 71
     0
 42
3.0
  3
txt
  4

  0
ENDTAB
  0
TABLE
  2
VIEW
 70
     0
  0
ENDTAB
  0
TABLE
  2
UCS
 70
     0
  0
ENDTAB
  0
TABLE
  2
APPID
 70
    29
  0
APPID
  2
ACAD
 70
     0
  0
APPID
  2
ACADANNOTATIVE
 70
     0
  0
APPID
  2
GENIUS_GENOREF_13
 70
     0
  0
APPID
  2
GENIUS_GENOENT_13
 70
     0
  0
APPID
  2
GENIUS_GENBH_13
 70
     0
  0
APPID
  2
GENIUS_GENOBJ_13
 70
     0
  0
APPID
  2
GENIUS_GENODEF_13
 70
     0
  0
APPID
  2
GENIUS_GENOLIS_13
 70
     0
  0
APPID
  2
GENIUS_GENOBJ-NBEHI-BHF_13
 70
     0
  0
APPID
  2
GENIUS_GENOBJ-NBEHI-BHB_13
 70
     0
  0
APPID
  2
GENIUS_GENOBJ-F-PART_13
 70
     0
  0
APPID
  2
GENIUS_GEFSTDP_13
 70
     0
  0
APPID
  2
GENIUS_GENOBJ-N-RSSYM_13
 70
     0
  0
APPID
  2
GENIUS_GENSYMENT_13
 70
     0
  0
APPID
  2
GENIUS_GENOBJ-N-TIT_13
 70
     0
  0
APPID
  2
GENIUS_GENTITLE_13
 70
     0
  0
APPID
  2
GENIUS_GENZVEED_13
 70
     0
  0
APPID
  2
GENIUS_GENOBJ-N-LEADER_13
 70
     0
  0
APPID
  2
GENIUS_GENOBJ-N-FIL_13
 70
     0
  0
APPID
  2
GENIUS_GENOBJ-N-SEC_13
 70
     0
  0
APPID
  2
GENIUS_GENOBJ-N-CRS_13
 70
     0
  0
APPID
  2
GENIUS_GENOBJ-N-ZOO_13
 70
     0
  0
APPID
  2
GENIUS_GENZOO_13
 70
     0
  0
APPID
  2
GENIUS_GENOBJ-F-TOL_13
 70
     0
  0
APPID
  2
GENIUS_GENFIL_13
 70
     0
  0
APPID
  2
GENIUS_GENOBJ-N-CHA_13
 70
     0
  0
APPID
  2
ACAD_MLEADERVER
 70
     0
  0
APPID
  2
ACAD_EXEMPT_FROM_CAD_STANDARDS
 70
     0
  0
APPID
  2
ACAD_NAV_VCDISPLAY
 70
     0
  0
ENDTAB
  0
TABLE
  2
DIMSTYLE
 70
     2
  0
DIMSTYLE
  2
STANDARD
 70
     0
  3

  4

  5

  6

  7

 40
1.0
 41
0.18
 42
0.0625
 43
0.38
 44
0.18
 45
0.0
 46
0.0
 47
0.0
 48
0.0
140
0.18
141
0.09
142
0.0
143
25.399999999999999
144
1.0
145
0.0
146
1.0
147
0.09
 71
     0
 72
     0
 73
     1
 74
     1
 75
     0
 76
     0
 77
     0
 78
     0
170
     0
171
     2
172
     0
173
     0
174
     0
175
     0
176
     0
177
     0
178
     0
  0
DIMSTYLE
  2
ANNOTATIVE
 70
     0
  3

  4

  5

  6

  7

 40
1.0
 41
0.18
 42
0.0625
 43
0.38
 44
0.18
 45
0.0
 46
0.0
 47
0.0
 48
0.0
140
0.18
141
0.09
142
0.0
143
25.399999999999999
144
1.0
145
0.0
146
1.0
147
0.09
 71
     0
 72
     0
 73
     1
 74
     1
 75
     0
 76
     0
 77
     0
 78
     0
170
     0
171
     2
172
     0
173
     0
174
     0
175
     0
176
     0
177
     0
178
     0
  0
ENDTAB
  0
ENDSEC
  0
SECTION
  2
BLOCKS
  0
BLOCK
  8
0
  2
$MODEL_SPACE
 70
     0
 10
0.0
 20
0.0
 30
0.0
  3
$MODEL_SPACE
  1

  0
ENDBLK
  5
2899
  8
0
  0
BLOCK
 67
     1
  8
0
  2
$PAPER_SPACE
 70
     0
 10
0.0
 20
0.0
 30
0.0
  3
$PAPER_SPACE
  1

  0
ENDBLK
  5
2895
 67
     1
  8
0
  0
ENDSEC
  0
SECTION
  2
ENTITIES
  0
LINE
  5
2380
  8
1
 10
31.47749297386315
 20
14.96354130161067
 30
0.0
 11
31.477492973863161
 21
113.9635413016107
 31
0.0
  0
LINE
  5
2395
  8
1
 10
95.763055059679687
 20
14.96354130161067
 30
0.0
 11
95.763055059679715
 21
113.9130037816293
 31
0.0
  0
CIRCLE
  5
239B
  8
0
 10
31.47749297386315
 20
157.59311951074801
 30
0.0
 40
20.0
  0
CIRCLE
  5
239C
  8
0
 10
31.47749297386315
 20
157.59311951074801
 30
0.0
 40
12.006063426498701
  0
CIRCLE
  5
239D
  8
0
 10
31.47749297386315
 20
157.59311951074801
 30
0.0
 40
10.99533453162949
  0
LINE
  5
239E
  8
1
 10
31.47749297386315
 20
180.59311951074801
 30
0.0
 11
31.47749297386315
 21
134.59311951074801
 31
0.0
  0
LINE
  5
239F
  8
1
 10
54.477492973863143
 20
157.59311951074801
 30
0.0
 11
8.4774929738631482
 21
157.59311951074801
 31
0.0
  0
LINE
  5
23A0
  8
0
 10
102.49382429044771
 20
37.9635413016101
 30
0.0
 11
89.032285828912109
 21
37.9635413016101
 31
0.0
  0
LINE
  5
23A1
  8
0
 10
89.032285828910517
 20
42.963541301609972
 30
0.0
 11
102.49382429044751
 21
42.963541301609972
 31
0.0
  0
ARC
  5
23A2
  8
0
 10
101.8252328861706
 20
39.229948996727302
 30
0.0
 40
3.5781518477924039
 50
64.384247467825773
 51
124.38424746803869
  0
LINE
  5
23A3
  8
0
 10
103.8459588283344
 20
42.182886062180359
 30
0.0
 11
102.49382429044771
 21
42.963541301609972
 31
0.0
  0
LINE
  5
23A4
  8
0
 10
103.8459588283344
 20
38.744196541039607
 30
0.0
 11
102.49382429044771
 21
37.9635413016101
 31
0.0
  0
ARC
  5
23A5
  8
0
 10
101.8252328861706
 20
41.69713360649277
 30
0.0
 40
3.5781518477924039
 50
235.61575253196131
 51
295.61575253217421
  0
LINE
  5
23A6
  8
0
 10
103.8459588283344
 20
42.182886062180479
 30
0.0
 11
103.8459588283344
 21
38.744196541039607
 31
0.0
  0
LINE
  5
23A7
  8
0
 10
99.804506944005411
 20
42.18288606218092
 30
0.0
 11
99.804506944007215
 21
38.744196541041312
 31
0.0
  0
LINE
  5
23A8
  8
0
 10
91.721603175354161
 20
42.182886062179229
 30
0.0
 11
91.721603175352357
 21
38.744196541041312
 31
0.0
  0
LINE
  5
23A9
  8
0
 10
87.680151291024913
 20
42.182886062180359
 30
0.0
 11
87.680151291024913
 21
38.744196541039607
 31
0.0
  0
ARC
  5
23AA
  8
0
 10
95.763055059680696
 20
51.493766976354067
 30
0.0
 40
13.374785217653811
 50
252.4120462259952
 51
287.5879537740048
  0
ARC
  5
23AB
  8
0
 10
89.700877233188734
 20
41.69713360649277
 30
0.0
 40
3.5781518477924039
 50
244.3842474678257
 51
304.38424746803872
  0
LINE
  5
23AC
  8
0
 10
87.680151291024913
 20
38.744196541039607
 30
0.0
 11
89.032285828911881
 21
37.9635413016101
 31
0.0
  0
LINE
  5
23AD
  8
0
 10
87.680151291024913
 20
42.182886062180359
 30
0.0
 11
89.032285828911881
 21
42.963541301609972
 31
0.0
  0
ARC
  5
23AE
  8
0
 10
95.763055059680696
 20
29.433315626865909
 30
0.0
 40
13.374785217653811
 50
72.412046225995155
 51
107.5879537740048
  0
ARC
  5
23AF
  8
0
 10
89.700877233188734
 20
39.229948996727302
 30
0.0
 40
3.5781518477924039
 50
55.615752531961313
 51
115.6157525321742
  0
LINE
  5
23B0
  8
0
 10
90.263055059679928
 20
34.963541301610782
 30
0.0
 11
90.263055059679814
 21
37.9635413016101
 31
0.0
  0
LINE
  5
23B1
  8
0
 10
101.2630550596798
 20
34.963541301610782
 30
0.0
 11
101.2630550596798
 21
37.9635413016101
 31
0.0
  0
LINE
  5
23B2
  8
0
 10
105.2630550596798
 20
64.67486616701558
 30
0.0
 11
104.7630550596798
 21
64.963541301610576
 31
0.0
  0
ARC
  5
23B3
  8
0
 10
100.5130550596798
 20
50.955182277022459
 30
0.0
 40
13.719683889993171
 50
69.743841999613011
 51
110.256158000387
  0
LINE
  5
23B4
  8
0
 10
104.7630550596798
 20
54.963541301610583
 30
0.0
 11
105.2630550596798
 21
55.324013205930648
 31
0.0
  0
LINE
  5
23B5
  8
0
 10
105.2630550596798
 20
55.324013205930648
 30
0.0
 11
105.2630550596798
 21
64.67486616701558
 31
0.0
  0
ARC
  5
23B6
  8
0
 10
100.5130550596798
 20
68.97190032619848
 30
0.0
 40
13.719683889993171
 50
249.7438419996115
 51
290.25615800038707
  0
ARC
  5
23B7
  8
0
 10
91.0130550596798
 20
68.97190032619848
 30
0.0
 40
13.719683889993171
 50
249.7438419996115
 51
290.25615800038707
  0
LINE
  5
23B8
  8
0
 10
86.2630550596798
 20
55.324013205930648
 30
0.0
 11
86.2630550596798
 21
64.67486616701558
 31
0.0
  0
LINE
  5
23B9
  8
0
 10
86.763055059679772
 20
54.963541301610583
 30
0.0
 11
86.2630550596798
 21
55.324013205930648
 31
0.0
  0
ARC
  5
23BA
  8
0
 10
91.0130550596798
 20
50.955182277022459
 30
0.0
 40
13.719683889993171
 50
69.743841999613011
 51
110.256158000387
  0
LINE
  5
23BB
  8
0
 10
86.2630550596798
 20
64.67486616701558
 30
0.0
 11
86.763055059679772
 21
64.963541301610576
 31
0.0
  0
LINE
  5
23BC
  8
0
 10
86.763055059679772
 20
64.963541301610576
 30
0.0
 11
104.7630550596798
 21
64.963541301610576
 31
0.0
  0
LINE
  5
23BD
  8
0
 10
104.7630550596798
 20
54.963541301610583
 30
0.0
 11
86.763055059679772
 21
54.963541301610583
 31
0.0
  0
LINE
  5
23BE
  8
0
 10
95.763055059676574
 20
63.826360390984753
 30
0.0
 11
95.7630550596798
 21
56.100722212236398
 31
0.0
  0
LINE
  5
23BF
  8
0
 10
91.763055059679701
 20
110.9635413016105
 30
0.0
 11
99.763055059679715
 21
110.96354130161031
 31
0.0
  0
LINE
  5
23C0
  8
0
 10
101.7630550596798
 20
42.963541301610327
 30
0.0
 11
101.7630550596798
 21
54.963541301610583
 31
0.0
  0
LINE
  5
23C1
  8
3
 10
100.8160550596798
 20
44.963541301610327
 30
0.0
 11
100.8160550596798
 21
54.963541301610583
 31
0.0
  0
LINE
  5
23C2
  8
0
 10
99.763055059679715
 20
110.96354130161031
 30
0.0
 11
101.7630550596797
 21
108.96354130161031
 31
0.0
  0
LINE
  5
23C3
  8
0
 10
89.763055059679687
 20
108.96354130161041
 30
0.0
 11
101.7630550596797
 21
108.96354130161031
 31
0.0
  0
LINE
  5
23C4
  8
0
 10
101.7630550596798
 20
44.963541301610327
 30
0.0
 11
89.7630550596798
 21
44.963541301610327
 31
0.0
  0
LINE
  5
23C5
  8
3
 10
100.8160550596796
 20
44.963541301610327
 30
0.0
 11
101.7630550596798
 21
43.323289186842644
 31
0.0
  0
LINE
  5
23C6
  8
0
 10
89.7630550596798
 20
42.963541301610327
 30
0.0
 11
89.7630550596798
 21
54.963541301610462
 31
0.0
  0
LINE
  5
23C7
  8
3
 10
90.710055059679704
 20
44.963541301610327
 30
0.0
 11
90.710055059679789
 21
54.963541301610583
 31
0.0
  0
LINE
  5
23C8
  8
0
 10
91.763055059679701
 20
110.9635413016105
 30
0.0
 11
89.763055059679687
 21
108.9635413016106
 31
0.0
  0
LINE
  5
23C9
  8
3
 10
90.710055059679704
 20
44.963541301610327
 30
0.0
 11
89.7630550596798
 21
43.323289186842644
 31
0.0
  0
LINE
  5
23CA
  8
3
 10
90.710055059679789
 20
64.963541301610462
 30
0.0
 11
90.710055059679704
 21
109.91054130161039
 31
0.0
  0
LINE
  5
23CB
  8
0
 10
89.7630550596798
 20
64.963541301610576
 30
0.0
 11
89.763055059679687
 21
108.9635413016106
 31
0.0
  0
LINE
  5
23CC
  8
3
 10
100.8160550596799
 20
64.963541301610576
 30
0.0
 11
100.8160550596798
 21
109.91054130161029
 31
0.0
  0
LINE
  5
23CD
  8
0
 10
101.7630550596798
 20
64.963541301610576
 30
0.0
 11
101.7630550596797
 21
108.96354130161031
 31
0.0
  0
LINE
  5
23CE
  8
0
 10
36.977492973863043
 20
34.963541301610668
 30
0.0
 11
36.977492973863043
 21
37.9635413016101
 31
0.0
  0
LINE
  5
23CF
  8
0
 10
25.9774929738631
 20
34.963541301610668
 30
0.0
 11
25.9774929738631
 21
37.9635413016101
 31
0.0
  0
LINE
  5
23D0
  8
0
 10
31.47749297386304
 20
42.182886062180593
 30
0.0
 11
31.47749297386304
 21
38.744196541039607
 31
0.0
  0
LINE
  5
23D1
  8
0
 10
24.477492973862979
 20
42.808100844519892
 30
0.0
 11
24.477492973862979
 21
38.118981758700322
 31
0.0
  0
LINE
  5
23D2
  8
0
 10
38.477492973863043
 20
42.808100844519892
 30
0.0
 11
38.477492973863043
 21
38.118981758700322
 31
0.0
  0
LINE
  5
23D3
  8
0
 10
38.208262204630962
 20
42.963541301610093
 30
0.0
 11
24.74672374309495
 21
42.963541301610093
 31
0.0
  0
ARC
  5
23D4
  8
0
 10
27.97749297386309
 20
32.698860083482472
 30
0.0
 40
10.10924076103746
 50
69.743841999584404
 51
110.2561580004156
  0
LINE
  5
23D5
  8
0
 10
24.477492973862979
 20
42.808100844519892
 30
0.0
 11
24.74672374309495
 21
42.963541301610093
 31
0.0
  0
LINE
  5
23D6
  8
0
 10
38.477492973863043
 20
42.808100844519892
 30
0.0
 11
38.208262204630962
 21
42.963541301610093
 31
0.0
  0
ARC
  5
23D7
  8
0
 10
34.977492973862809
 20
32.698860083482472
 30
0.0
 40
10.10924076103746
 50
69.743841999584404
 51
110.2561580004156
  0
LINE
  5
23D8
  8
0
 10
38.208262204630962
 20
37.9635413016101
 30
0.0
 11
24.74672374309495
 21
37.9635413016101
 31
0.0
  0
ARC
  5
23D9
  8
0
 10
27.97749297386309
 20
48.22822251973772
 30
0.0
 40
10.10924076103746
 50
249.74384199958439
 51
290.25615800041561
  0
LINE
  5
23DA
  8
0
 10
24.477492973862979
 20
38.118981758700322
 30
0.0
 11
24.74672374309495
 21
37.9635413016101
 31
0.0
  0
LINE
  5
23DB
  8
0
 10
38.477492973863043
 20
38.118981758700322
 30
0.0
 11
38.208262204630962
 21
37.9635413016101
 31
0.0
  0
ARC
  5
23DC
  8
0
 10
34.977492973862809
 20
48.22822251973772
 30
0.0
 40
10.10924076103746
 50
249.74384199958439
 51
290.25615800041561
  0
LINE
  5
23DD
  8
3
 10
36.530492973863147
 20
44.96354130161054
 30
0.0
 11
37.477492973863257
 21
43.32328918684285
 31
0.0
  0
LINE
  5
23DE
  8
3
 10
26.424492973863209
 20
44.96354130161054
 30
0.0
 11
25.47749297386321
 21
43.32328918684285
 31
0.0
  0
LINE
  5
23DF
  8
0
 10
37.477492973863257
 20
44.96354130161054
 30
0.0
 11
25.47749297386321
 21
44.96354130161054
 31
0.0
  0
LINE
  5
23E0
  8
0
 10
25.477492973863161
 20
108.9635413016107
 30
0.0
 11
37.477492973863171
 21
108.9635413016106
 31
0.0
  0
LINE
  5
23E1
  8
0
 10
35.477492973863157
 20
110.9635413016105
 30
0.0
 11
37.477492973863171
 21
108.9635413016106
 31
0.0
  0
LINE
  5
23E2
  8
0
 10
27.477492973863161
 20
110.9635413016108
 30
0.0
 11
25.477492973863161
 21
108.9635413016108
 31
0.0
  0
LINE
  5
23E3
  8
0
 10
25.47749297386321
 20
42.963541301610547
 30
0.0
 11
25.477492973863271
 21
54.963541301610583
 31
0.0
  0
LINE
  5
23E4
  8
3
 10
26.424492973863209
 20
44.96354130161054
 30
0.0
 11
26.424492973863209
 21
54.96354130161069
 31
0.0
  0
LINE
  5
23E5
  8
3
 10
36.530492973863268
 20
44.96354130161054
 30
0.0
 11
36.530492973863268
 21
54.963541301610583
 31
0.0
  0
LINE
  5
23E6
  8
0
 10
37.477492973863257
 20
42.963541301610547
 30
0.0
 11
37.477492973863257
 21
54.963541301610583
 31
0.0
  0
LINE
  5
23E7
  8
0
 10
27.477492973863161
 20
110.9635413016108
 30
0.0
 11
35.477492973863157
 21
110.9635413016105
 31
0.0
  0
LINE
  5
23E8
  8
0
 10
20.507837859260349
 20
63.826360390984753
 30
0.0
 11
22.47749297386201
 21
64.963541301610576
 31
0.0
  0
ARC
  5
23E9
  8
0
 10
23.250251637910988
 20
59.818802945007292
 30
0.0
 40
4.8560632220084567
 50
55.615752531983432
 51
115.6157525319127
  0
ARC
  5
23EA
  8
0
 10
31.477492973863381
 20
46.52337194303027
 30
0.0
 40
18.15149422398537
 50
72.412046226036352
 51
107.5879537739636
  0
ARC
  5
23EB
  8
0
 10
39.704734309815763
 20
59.818802945007292
 30
0.0
 40
4.8560632220084567
 50
64.384247468087239
 51
124.3842474680165
  0
LINE
  5
23EC
  8
0
 10
42.447148088466399
 20
63.826360390984753
 30
0.0
 11
40.477492973864727
 21
64.963541301610576
 31
0.0
  0
LINE
  5
23ED
  8
0
 10
22.47749297386201
 20
64.963541301610576
 30
0.0
 11
40.477492973864727
 21
64.963541301610576
 31
0.0
  0
LINE
  5
23EE
  8
0
 10
22.47749297386201
 20
54.963541301610583
 30
0.0
 11
40.477492973864727
 21
54.963541301610583
 31
0.0
  0
LINE
  5
23EF
  8
0
 10
42.447148088466399
 20
56.100722212236398
 30
0.0
 11
40.477492973864727
 21
54.963541301610583
 31
0.0
  0
ARC
  5
23F0
  8
0
 10
39.704734309815763
 20
60.10827965821386
 30
0.0
 40
4.8560632220084567
 50
235.61575253198339
 51
295.61575253191268
  0
ARC
  5
23F1
  8
0
 10
31.477492973863381
 20
73.403710660190882
 30
0.0
 40
18.15149422398537
 50
252.41204622603641
 51
287.5879537739637
  0
ARC
  5
23F2
  8
0
 10
23.250251637910988
 20
60.10827965821386
 30
0.0
 40
4.8560632220084567
 50
244.3842474680873
 51
304.3842474680165
  0
LINE
  5
23F3
  8
0
 10
20.507837859260349
 20
56.100722212236398
 30
0.0
 11
22.47749297386201
 21
54.963541301610583
 31
0.0
  0
LINE
  5
23F4
  8
0
 10
20.507837859260349
 20
63.826360390984753
 30
0.0
 11
20.507837859260349
 21
56.100722212236398
 31
0.0
  0
LINE
  5
23F5
  8
0
 10
25.992665416566179
 20
63.826360390984753
 30
0.0
 11
25.99266541656209
 21
56.100722212236171
 31
0.0
  0
LINE
  5
23F6
  8
0
 10
42.447148088466399
 20
63.826360390984753
 30
0.0
 11
42.447148088466399
 21
56.100722212236398
 31
0.0
  0
LINE
  5
23F7
  8
0
 10
36.962320531160572
 20
63.826360390984753
 30
0.0
 11
36.962320531164657
 21
56.100722212236171
 31
0.0
  0
LINE
  5
23F8
  8
0
 10
37.477492973863257
 20
64.963541301610576
 30
0.0
 11
37.477492973863171
 21
108.9635413016106
 31
0.0
  0
LINE
  5
23F9
  8
3
 10
36.530492973863268
 20
64.96354130161069
 30
0.0
 11
36.530492973863282
 21
109.91054130161049
 31
0.0
  0
LINE
  5
23FA
  8
3
 10
26.424492973863209
 20
64.963541301610576
 30
0.0
 11
26.42449297386316
 21
109.91054130161071
 31
0.0
  0
LINE
  5
23FB
  8
0
 10
25.477492973863271
 20
64.963541301610576
 30
0.0
 11
25.477492973863161
 21
108.9635413016108
 31
0.0
  0
LINE
  5
23FC
  8
0
 10
25.992665416561749
 20
148.09311951074801
 30
0.0
 11
36.962320531164437
 21
148.09311951074801
 31
0.0
  0
CIRCLE
  5
23FD
  8
0
 10
31.47749297386315
 20
157.59311951074801
 30
0.0
 40
9.0
  0
CIRCLE
  5
23FE
  8
0
 10
31.47749297386315
 20
157.59311951074801
 30
0.0
 40
6.0
  0
CIRCLE
  5
23FF
  8
3
 10
31.47749297386315
 20
157.59311951074801
 30
0.0
 40
5.052999999999999
  0
LINE
  5
2400
  8
0
 10
36.962320531164437
 20
148.09311951074801
 30
0.0
 11
42.447148088465951
 21
157.59311951074801
 31
0.0
  0
LINE
  5
2401
  8
0
 10
42.447148088465951
 20
157.59311951074801
 30
0.0
 11
36.962320531164657
 21
167.09311951074801
 31
0.0
  0
LINE
  5
2402
  8
0
 10
36.962320531164657
 20
167.09311951074801
 30
0.0
 11
25.99266541656187
 21
167.09311951074801
 31
0.0
  0
LINE
  5
2403
  8
0
 10
25.99266541656187
 20
167.09311951074801
 30
0.0
 11
20.507837859260231
 21
157.59311951074801
 31
0.0
  0
LINE
  5
2404
  8
0
 10
20.507837859260231
 20
157.59311951074801
 30
0.0
 11
25.992665416561749
 21
148.09311951074801
 31
0.0
  0
LINE
  5
261E
  8
0
 10
43.483556400361842
 20
28.99862972854266
 30
0.0
 11
42.472827505492631
 21
34.963541301610682
 31
0.0
  0
LINE
  5
261F
  8
0
 10
51.47749297386315
 20
23.463541301610672
 30
0.0
 11
43.483556400361842
 21
28.99862972854266
 31
0.0
  0
LINE
  5
2620
  8
0
 10
50.977492973863143
 20
17.963541301610672
 30
0.0
 11
51.47749297386315
 21
18.463541301610672
 31
0.0
  0
LINE
  5
2621
  8
0
 10
42.472827505492631
 20
34.963541301610668
 30
0.0
 11
20.482158442233722
 21
34.963541301610682
 31
0.0
  0
LINE
  5
2622
  8
0
 10
51.47749297386315
 20
23.463541301610672
 30
0.0
 11
11.47749297386318
 21
23.463541301610672
 31
0.0
  0
LINE
  5
2623
  8
0
 10
50.977492973863143
 20
17.963541301610672
 30
0.0
 11
11.97749297386318
 21
17.963541301610672
 31
0.0
  0
LINE
  5
2624
  8
0
 10
51.47749297386315
 20
18.463541301610672
 30
0.0
 11
51.47749297386315
 21
23.463541301610672
 31
0.0
  0
LINE
  5
2625
  8
0
 10
11.47749297386318
 20
23.463541301610672
 30
0.0
 11
19.471429547364451
 21
28.99862972854266
 31
0.0
  0
LINE
  5
2626
  8
0
 10
11.97749297386318
 20
17.963541301610672
 30
0.0
 11
11.47749297386318
 21
18.463541301610672
 31
0.0
  0
LINE
  5
2627
  8
0
 10
11.47749297386318
 20
18.463541301610672
 30
0.0
 11
11.47749297386318
 21
23.463541301610672
 31
0.0
  0
LINE
  5
2628
  8
0
 10
19.471429547364451
 20
28.99862972854266
 30
0.0
 11
20.482158442233722
 21
34.963541301610682
 31
0.0
  0
LINE
  5
2629
  8
0
 10
19.471429547364451
 20
28.99862972854266
 30
0.0
 11
43.483556400361842
 21
28.99862972854266
 31
0.0
  0
LINE
  5
262D
  8
0
 10
107.7691184861784
 20
28.99862972854266
 30
0.0
 11
106.7583895913092
 21
34.963541301610682
 31
0.0
  0
LINE
  5
262E
  8
0
 10
115.7630550596797
 20
23.463541301610672
 30
0.0
 11
107.7691184861784
 21
28.99862972854266
 31
0.0
  0
LINE
  5
262F
  8
0
 10
115.2630550596797
 20
17.963541301610672
 30
0.0
 11
115.7630550596797
 21
18.463541301610672
 31
0.0
  0
LINE
  5
2630
  8
0
 10
106.7583895913092
 20
34.963541301610668
 30
0.0
 11
84.767720528050219
 21
34.963541301610682
 31
0.0
  0
LINE
  5
2631
  8
0
 10
115.7630550596797
 20
23.463541301610672
 30
0.0
 11
75.763055059679701
 21
23.463541301610672
 31
0.0
  0
LINE
  5
2632
  8
0
 10
115.2630550596797
 20
17.963541301610672
 30
0.0
 11
76.263055059679743
 21
17.963541301610672
 31
0.0
  0
LINE
  5
2633
  8
0
 10
115.7630550596797
 20
18.463541301610672
 30
0.0
 11
115.7630550596797
 21
23.463541301610672
 31
0.0
  0
LINE
  5
2634
  8
0
 10
75.763055059679701
 20
23.463541301610672
 30
0.0
 11
83.756991633181016
 21
28.99862972854266
 31
0.0
  0
LINE
  5
2635
  8
0
 10
76.263055059679701
 20
17.963541301610672
 30
0.0
 11
75.763055059679701
 21
18.463541301610672
 31
0.0
  0
LINE
  5
2636
  8
0
 10
75.763055059679701
 20
18.463541301610672
 30
0.0
 11
75.763055059679701
 21
23.463541301610672
 31
0.0
  0
LINE
  5
2637
  8
0
 10
83.756991633181016
 20
28.99862972854266
 30
0.0
 11
84.767720528050219
 21
34.963541301610682
 31
0.0
  0
LINE
  5
2638
  8
0
 10
83.756991633181016
 20
28.99862972854266
 30
0.0
 11
107.7691184861784
 21
28.99862972854266
 31
0.0
  0
TEXT
  5
2919
  8
0
 62
     3
 10
0.0
 20
0.0
 30
0.0
 40
10.0
  1
LSA40S12B
  7
STANDARD1
  0
ENDSEC
  0
EOF
