  0
SECTION
  2
HEADER
  9
$ACADVER
  1
AC1009
  9
$INSBASE
 10
0.0
 20
0.0
 30
0.0
  9
$EXTMIN
 10
0.0
 20
-2.960436562073669
 30
0.0
  9
$EXTMAX
 10
122.7705197561728
 20
164.08667857932829
 30
0.0
  9
$LIMMIN
 10
0.0
 20
0.0
  9
$LIMMAX
 10
375.0
 20
270.0
  9
$ORTHOMODE
 70
     1
  9
$REGENMODE
 70
     1
  9
$FILLMODE
 70
     1
  9
$QTEXTMODE
 70
     0
  9
$MIRRTEXT
 70
     0
  9
$DRAGMODE
 70
     2
  9
$LTSCALE
 40
6.0
  9
$OSMODE
 70
    37
  9
$ATTMODE
 70
     1
  9
$TEXTSIZE
 40
0.2
  9
$TRACEWID
 40
0.05
  9
$TEXTSTYLE
  7
STANDARD
  9
$CLAYER
  8
0
  9
$CELTYPE
  6
BYLAYER
  9
$CECOLOR
 62
   256
  9
$DIMSCALE
 40
1.0
  9
$DIMASZ
 40
3.0
  9
$DIMEXO
 40
1.0
  9
$DIMDLI
 40
6.0
  9
$DIMRND
 40
0.0
  9
$DIMDLE
 40
0.0
  9
$DIMEXE
 40
1.0
  9
$DIMTP
 40
495.0
  9
$DIMTM
 40
0.0
  9
$DIMTXT
 40
3.0
  9
$DIMCEN
 40
0.0
  9
$DIMTSZ
 40
0.0
  9
$DIMTOL
 70
     0
  9
$DIMLIM
 70
     0
  9
$DIMTIH
 70
     0
  9
$DIMTOH
 70
     0
  9
$DIMSE1
 70
     0
  9
$DIMSE2
 70
     0
  9
$DIMTAD
 70
     1
  9
$DIMZIN
 70
     0
  9
$DIMBLK
  1

  9
$DIMASO
 70
     0
  9
$DIMSHO
 70
     0
  9
$DIMPOST
  1

  9
$DIMAPOST
  1

  9
$DIMALT
 70
     0
  9
$DIMALTD
 70
     2
  9
$DIMALTF
 40
25.399999999999999
  9
$DIMLFAC
 40
1.0
  9
$DIMTOFL
 70
     1
  9
$DIMTVP
 40
0.0
  9
$DIMTIX
 70
     1
  9
$DIMSOXD
 70
     0
  9
$DIMSAH
 70
     0
  9
$DIMBLK1
  1

  9
$DIMBLK2
  1

  9
$DIMSTYLE
  2
STANDARD
  9
$DIMCLRD
 70
     0
  9
$DIMCLRE
 70
     0
  9
$DIMCLRT
 70
     4
  9
$DIMTFAC
 40
1.0
  9
$DIMGAP
 40
1.0
  9
$LUNITS
 70
     2
  9
$LUPREC
 70
     4
  9
$SKETCHINC
 40
0.1
  9
$FILLETRAD
 40
2.0
  9
$AUNITS
 70
     0
  9
$AUPREC
 70
     0
  9
$MENU
  1
C:\R13\WIN\SUPPORT\ACAD-I
  9
$ELEVATION
 40
0.0
  9
$PELEVATION
 40
0.0
  9
$THICKNESS
 40
0.0
  9
$LIMCHECK
 70
     0
  9
$BLIPMODE
 70
     0
  9
$CHAMFERA
 40
0.0
  9
$CHAMFERB
 40
0.0
  9
$SKPOLY
 70
     0
  9
$TDCREATE
 40
2451961.7132742358
  9
$TDUPDATE
 40
2456598.7173929401
  9
$TDINDWG
 40
0.050070162
  9
$TDUSRTIMER
 40
2456598.0084485528
  9
$USRTIMER
 70
     1
  9
$ANGBASE
 50
0.0
  9
$ANGDIR
 70
     0
  9
$PDMODE
 70
     0
  9
$PDSIZE
 40
0.0
  9
$PLINEWID
 40
0.0
  9
$COORDS
 70
     1
  9
$SPLFRAME
 70
     0
  9
$SPLINETYPE
 70
     6
  9
$SPLINESEGS
 70
     8
  9
$ATTDIA
 70
     0
  9
$ATTREQ
 70
     1
  9
$HANDLING
 70
     1
  9
$HANDSEED
  5
260B
  9
$SURFTAB1
 70
     6
  9
$SURFTAB2
 70
     6
  9
$SURFTYPE
 70
     6
  9
$SURFU
 70
     6
  9
$SURFV
 70
     6
  9
$UCSNAME
  2

  9
$UCSORG
 10
0.0
 20
0.0
 30
0.0
  9
$UCSXDIR
 10
1.0
 20
0.0
 30
0.0
  9
$UCSYDIR
 10
0.0
 20
1.0
 30
0.0
  9
$PUCSNAME
  2

  9
$PUCSORG
 10
0.0
 20
0.0
 30
0.0
  9
$PUCSXDIR
 10
1.0
 20
0.0
 30
0.0
  9
$PUCSYDIR
 10
0.0
 20
1.0
 30
0.0
  9
$USERI1
 70
     4
  9
$USERI2
 70
     1
  9
$USERI3
 70
     0
  9
$USERI4
 70
     0
  9
$USERI5
 70
     0
  9
$USERR1
 40
1.0
  9
$USERR2
 40
3.0
  9
$USERR3
 40
3.0
  9
$USERR4
 40
3.0
  9
$USERR5
 40
10.0
  9
$WORLDVIEW
 70
     1
  9
$SHADEDGE
 70
     3
  9
$SHADEDIF
 70
    70
  9
$TILEMODE
 70
     1
  9
$MAXACTVP
 70
    16
  9
$PLIMCHECK
 70
     0
  9
$PEXTMIN
 10
1.0000000000000000E+020
 20
1.0000000000000000E+020
 30
1.0000000000000000E+020
  9
$PEXTMAX
 10
-1.0000000000000000E+020
 20
-1.0000000000000000E+020
 30
-1.0000000000000000E+020
  9
$PLIMMIN
 10
0.0
 20
0.0
  9
$PLIMMAX
 10
12.0
 20
9.0
  9
$UNITMODE
 70
     0
  9
$VISRETAIN
 70
     0
  9
$PLINEGEN
 70
     0
  9
$PSLTSCALE
 70
     0
  0
ENDSEC
  0
SECTION
  2
TABLES
  0
TABLE
  2
VPORT
 70
     1
  0
VPORT
  2
*ACTIVE
 70
     0
 10
0.0
 20
0.0
 11
1.0
 21
1.0
 12
187.49427839065231
 22
177.52205812711131
 13
0.0
 23
0.0
 14
10.0
 24
10.0
 15
10.0
 25
10.0
 16
0.0
 26
0.0
 36
1.0
 17
0.0
 27
0.0
 37
0.0
 40
364.13085016302909
 41
1.755244755244755
 42
50.0
 43
0.0
 44
0.0
 50
0.0
 51
0.0
 71
    16
 72
   100
 73
     1
 74
     0
 75
     0
 76
     0
 77
     0
 78
     0
  0
ENDTAB
  0
TABLE
  2
LTYPE
 70
     3
  0
LTYPE
  2
CONTINUOUS
 70
     0
  3
Solid Line
 72
    65
 73
     0
 40
0.0
  0
LTYPE
  2
PHANTOM2
 70
     0
  3
___ _ _ ___ _ _ ___ _ _ ___ _ _
 72
    65
 73
     6
 40
1.25
 49
0.625
 49
-0.125
 49
0.125
 49
-0.125
 49
0.125
 49
-0.125
  0
LTYPE
  2
CENTER
 70
     0
  3
____ _ ____ _ ____ _ ____ _ ____ _ ____ _ ____
 72
    65
 73
     4
 40
2.0
 49
1.25
 49
-0.25
 49
0.25
 49
-0.25
  0
ENDTAB
  0
TABLE
  2
LAYER
 70
     3
  0
LAYER
  2
0
 70
     0
 62
     7
  6
CONTINUOUS
  0
LAYER
  2
1
 70
     0
 62
     1
  6
CENTER
  0
LAYER
  2
3
 70
     0
 62
     3
  6
CONTINUOUS
  0
ENDTAB
  0
TABLE
  2
STYLE
 70
     3
  0
STYLE
  2
STANDARD
 70
     0
 40
0.0
 41
1.0
 50
0.0
 71
     0
 42
0.2
  3
SIMPLEX
  4
BIGFONT
  0
STYLE
  2
ANNOTATIVE
 70
     0
 40
0.0
 41
1.0
 50
0.0
 71
     0
 42
0.2
  3
txt
  4

  0
STYLE
  2
STANDARD1
 70
     0
 40
0.0
 41
1.0
 50
0.0
 71
     0
 42
3.0
  3
txt
  4

  0
ENDTAB
  0
TABLE
  2
VIEW
 70
     0
  0
ENDTAB
  0
TABLE
  2
UCS
 70
     0
  0
ENDTAB
  0
TABLE
  2
APPID
 70
    29
  0
APPID
  2
ACAD
 70
     0
  0
APPID
  2
ACADANNOTATIVE
 70
     0
  0
APPID
  2
GENIUS_GENOREF_13
 70
     0
  0
APPID
  2
GENIUS_GENOENT_13
 70
     0
  0
APPID
  2
GENIUS_GENBH_13
 70
     0
  0
APPID
  2
GENIUS_GENOBJ_13
 70
     0
  0
APPID
  2
GENIUS_GENODEF_13
 70
     0
  0
APPID
  2
GENIUS_GENOLIS_13
 70
     0
  0
APPID
  2
GENIUS_GENOBJ-NBEHI-BHF_13
 70
     0
  0
APPID
  2
GENIUS_GENOBJ-NBEHI-BHB_13
 70
     0
  0
APPID
  2
GENIUS_GENOBJ-F-PART_13
 70
     0
  0
APPID
  2
GENIUS_GEFSTDP_13
 70
     0
  0
APPID
  2
GENIUS_GENOBJ-N-RSSYM_13
 70
     0
  0
APPID
  2
GENIUS_GENSYMENT_13
 70
     0
  0
APPID
  2
GENIUS_GENOBJ-N-TIT_13
 70
     0
  0
APPID
  2
GENIUS_GENTITLE_13
 70
     0
  0
APPID
  2
GENIUS_GENZVEED_13
 70
     0
  0
APPID
  2
GENIUS_GENOBJ-N-LEADER_13
 70
     0
  0
APPID
  2
GENIUS_GENOBJ-N-FIL_13
 70
     0
  0
APPID
  2
GENIUS_GENOBJ-N-SEC_13
 70
     0
  0
APPID
  2
GENIUS_GENOBJ-N-CRS_13
 70
     0
  0
APPID
  2
GENIUS_GENOBJ-N-ZOO_13
 70
     0
  0
APPID
  2
GENIUS_GENZOO_13
 70
     0
  0
APPID
  2
GENIUS_GENOBJ-F-TOL_13
 70
     0
  0
APPID
  2
GENIUS_GENFIL_13
 70
     0
  0
APPID
  2
GENIUS_GENOBJ-N-CHA_13
 70
     0
  0
APPID
  2
ACAD_MLEADERVER
 70
     0
  0
APPID
  2
ACAD_EXEMPT_FROM_CAD_STANDARDS
 70
     0
  0
APPID
  2
ACAD_NAV_VCDISPLAY
 70
     0
  0
ENDTAB
  0
TABLE
  2
DIMSTYLE
 70
     2
  0
DIMSTYLE
  2
STANDARD
 70
     0
  3

  4

  5

  6

  7

 40
1.0
 41
0.18
 42
0.0625
 43
0.38
 44
0.18
 45
0.0
 46
0.0
 47
0.0
 48
0.0
140
0.18
141
0.09
142
0.0
143
25.399999999999999
144
1.0
145
0.0
146
1.0
147
0.09
 71
     0
 72
     0
 73
     1
 74
     1
 75
     0
 76
     0
 77
     0
 78
     0
170
     0
171
     2
172
     0
173
     0
174
     0
175
     0
176
     0
177
     0
178
     0
  0
DIMSTYLE
  2
ANNOTATIVE
 70
     0
  3

  4

  5

  6

  7

 40
1.0
 41
0.18
 42
0.0625
 43
0.38
 44
0.18
 45
0.0
 46
0.0
 47
0.0
 48
0.0
140
0.18
141
0.09
142
0.0
143
25.399999999999999
144
1.0
145
0.0
146
1.0
147
0.09
 71
     0
 72
     0
 73
     1
 74
     1
 75
     0
 76
     0
 77
     0
 78
     0
170
     0
171
     2
172
     0
173
     0
174
     0
175
     0
176
     0
177
     0
178
     0
  0
ENDTAB
  0
ENDSEC
  0
SECTION
  2
BLOCKS
  0
BLOCK
  8
0
  2
$MODEL_SPACE
 70
     0
 10
0.0
 20
0.0
 30
0.0
  3
$MODEL_SPACE
  1

  0
ENDBLK
  5
24D2
  8
0
  0
BLOCK
 67
     1
  8
0
  2
$PAPER_SPACE
 70
     0
 10
0.0
 20
0.0
 30
0.0
  3
$PAPER_SPACE
  1

  0
ENDBLK
  5
24CE
 67
     1
  8
0
  0
ENDSEC
  0
SECTION
  2
ENTITIES
  0
CIRCLE
  5
1E7A
  8
0
 10
38.48495767035628
 20
141.08667857932829
 30
0.0
 40
8.25
  0
LINE
  5
1E7B
  8
0
 10
28.67000309413266
 20
141.08667857932829
 30
0.0
 11
33.577480382244403
 21
132.58667857932829
 31
0.0
  0
LINE
  5
1E7C
  8
0
 10
33.577480382244516
 20
149.58667857932829
 30
0.0
 11
28.67000309413266
 21
141.08667857932829
 31
0.0
  0
LINE
  5
1E7D
  8
0
 10
43.392434958468129
 20
149.58667857932829
 30
0.0
 11
33.577480382244516
 21
149.58667857932829
 31
0.0
  0
LINE
  5
1E7E
  8
0
 10
48.299912246579872
 20
141.08667857932829
 30
0.0
 11
43.392434958468129
 21
149.58667857932829
 31
0.0
  0
LINE
  5
1E7F
  8
0
 10
43.392434958468129
 20
132.58667857932829
 30
0.0
 11
48.299912246579872
 21
141.08667857932829
 31
0.0
  0
LINE
  5
1E80
  8
0
 10
33.577480382244403
 20
132.58667857932829
 30
0.0
 11
43.392434958468129
 21
132.58667857932829
 31
0.0
  0
CIRCLE
  5
1E81
  8
3
 10
38.48495767035628
 20
141.08667857932829
 30
0.0
 40
4.1879999999999979
  0
CIRCLE
  5
1E82
  8
0
 10
38.48495767035628
 20
141.08667857932829
 30
0.0
 40
5.0
  0
LINE
  5
1E83
  8
0
 10
108.270519756173
 20
43.45710037019073
 30
0.0
 11
108.270519756173
 21
46.45710037019056
 31
0.0
  0
LINE
  5
1E84
  8
0
 10
97.270519756173044
 20
43.45710037019073
 30
0.0
 11
97.270519756173044
 21
46.45710037019056
 31
0.0
  0
ARC
  5
1E85
  8
0
 10
96.708341929682007
 20
47.723508065307769
 30
0.0
 40
3.5781518477924039
 50
55.615752531961242
 51
115.6157525321741
  0
ARC
  5
1E86
  8
0
 10
102.7705197561739
 20
37.926874695446358
 30
0.0
 40
13.374785217653811
 50
72.412046225995169
 51
107.5879537740048
  0
LINE
  5
1E87
  8
0
 10
94.687615987518157
 20
50.676445130760882
 30
0.0
 11
96.039750525405012
 21
51.457100370190439
 31
0.0
  0
LINE
  5
1E88
  8
0
 10
94.687615987518157
 20
47.237755609620073
 30
0.0
 11
96.039750525405012
 21
46.45710037019056
 31
0.0
  0
ARC
  5
1E89
  8
0
 10
96.708341929682007
 20
50.190692675073223
 30
0.0
 40
3.5781518477924039
 50
244.38424746782579
 51
304.38424746803872
  0
ARC
  5
1E8A
  8
0
 10
102.7705197561739
 20
59.987326044934527
 30
0.0
 40
13.374785217653811
 50
252.4120462259952
 51
287.5879537740048
  0
LINE
  5
1E8B
  8
0
 10
94.687615987518157
 20
50.676445130760882
 30
0.0
 11
94.687615987518157
 21
47.237755609620073
 31
0.0
  0
LINE
  5
1E8C
  8
0
 10
98.72906787184732
 20
50.676445130759667
 30
0.0
 11
98.729067871845487
 21
47.237755609621757
 31
0.0
  0
LINE
  5
1E8D
  8
0
 10
106.8119716404986
 20
50.676445130761387
 30
0.0
 11
106.8119716405004
 21
47.237755609621757
 31
0.0
  0
LINE
  5
1E8E
  8
0
 10
110.8534235248277
 20
50.676445130760939
 30
0.0
 11
110.8534235248277
 21
47.237755609620073
 31
0.0
  0
ARC
  5
1E8F
  8
0
 10
108.8326975826638
 20
50.190692675073223
 30
0.0
 40
3.5781518477924039
 50
235.61575253196131
 51
295.61575253217421
  0
LINE
  5
1E90
  8
0
 10
110.8534235248277
 20
47.237755609620073
 30
0.0
 11
109.50128898694091
 21
46.45710037019056
 31
0.0
  0
LINE
  5
1E91
  8
0
 10
110.8534235248277
 20
50.676445130760882
 30
0.0
 11
109.50128898694091
 21
51.457100370190439
 31
0.0
  0
ARC
  5
1E92
  8
0
 10
108.8326975826638
 20
47.723508065307769
 30
0.0
 40
3.5781518477924039
 50
64.38424746782583
 51
124.38424746803869
  0
LINE
  5
1E93
  8
0
 10
96.039750525403775
 20
51.457100370190439
 30
0.0
 11
109.50128898694069
 21
51.457100370190439
 31
0.0
  0
LINE
  5
1E94
  8
0
 10
109.50128898694091
 20
46.45710037019056
 30
0.0
 11
96.039750525405239
 21
46.45710037019056
 31
0.0
  0
ARC
  5
1E95
  8
0
 10
107.0205197561729
 20
60.03725616447656
 30
0.0
 40
12.275506638416489
 50
69.743841999604228
 51
110.2561580003957
  0
LINE
  5
1E96
  8
0
 10
111.270519756173
 20
72.312762802893076
 30
0.0
 11
111.02051975617189
 21
72.457100370191085
 31
0.0
  0
LINE
  5
1E97
  8
0
 10
111.270519756173
 20
64.601437937488583
 30
0.0
 11
111.02051975617189
 21
64.457100370190574
 31
0.0
  0
ARC
  5
1E98
  8
0
 10
107.0205197561729
 20
76.876944575905043
 30
0.0
 40
12.275506638416489
 50
249.74384199960431
 51
290.25615800039583
  0
LINE
  5
1E99
  8
0
 10
111.270519756173
 20
72.312762802893076
 30
0.0
 11
111.2705197561729
 21
64.601437937488583
 31
0.0
  0
LINE
  5
1E9B
  8
0
 10
94.270519756172945
 20
72.312762802893076
 30
0.0
 11
94.270519756172945
 21
64.601437937488583
 31
0.0
  0
LINE
  5
1E9C
  8
0
 10
94.270519756172945
 20
64.601437937488583
 30
0.0
 11
94.520519756173954
 21
64.457100370190574
 31
0.0
  0
ARC
  5
1E9D
  8
0
 10
98.520519756172945
 20
76.876944575905043
 30
0.0
 40
12.275506638416489
 50
249.74384199960431
 51
290.25615800039583
  0
LINE
  5
1E9E
  8
0
 10
94.270519756172945
 20
72.312762802893076
 30
0.0
 11
94.520519756173954
 21
72.457100370191085
 31
0.0
  0
ARC
  5
1E9F
  8
0
 10
98.520519756172945
 20
60.03725616447656
 30
0.0
 40
12.275506638416489
 50
69.743841999604228
 51
110.2561580003957
  0
LINE
  5
1EA0
  8
0
 10
111.02051975617189
 20
72.457100370191085
 30
0.0
 11
94.520519756173954
 21
72.457100370191085
 31
0.0
  0
LINE
  5
1EA1
  8
0
 10
94.520519756172945
 20
64.457100370191199
 30
0.0
 11
111.0205197561729
 21
64.457100370191199
 31
0.0
  0
LINE
  5
1EA2
  8
0
 10
97.770519756172945
 20
92.957100370191327
 30
0.0
 11
107.7705197561729
 21
92.957100370191185
 31
0.0
  0
LINE
  5
1EA3
  8
3
 10
106.9585197561729
 20
53.457100370190609
 30
0.0
 11
107.7705197561728
 21
52.050675114444843
 31
0.0
  0
LINE
  5
1EA4
  8
3
 10
98.582519756172843
 20
53.457100370190609
 30
0.0
 11
97.770519756172845
 21
52.050675114444843
 31
0.0
  0
LINE
  5
1EA5
  8
0
 10
97.770519756172945
 20
53.457100370190609
 30
0.0
 11
107.7705197561729
 21
53.457100370190489
 31
0.0
  0
LINE
  5
1EA6
  8
0
 10
106.2705197561729
 20
94.457100370191199
 30
0.0
 11
107.7705197561729
 21
92.957100370191185
 31
0.0
  0
LINE
  5
1EA7
  8
0
 10
97.770519756172945
 20
92.957100370191327
 30
0.0
 11
99.270519756172945
 21
94.457100370191299
 31
0.0
  0
LINE
  5
1EA8
  8
3
 10
98.582519756172843
 20
53.457100370190609
 30
0.0
 11
98.582519756172957
 21
64.457100370191199
 31
0.0
  0
LINE
  5
1EA9
  8
3
 10
106.9585197561731
 20
53.457100370190531
 30
0.0
 11
106.9585197561731
 21
64.457100370191199
 31
0.0
  0
LINE
  5
1EAA
  8
0
 10
99.270519756172945
 20
94.457100370191299
 30
0.0
 11
106.2705197561729
 21
94.457100370191199
 31
0.0
  0
LINE
  5
1EAB
  8
0
 10
97.770519756172931
 20
51.457100370190439
 30
0.0
 11
97.770519756172945
 21
64.457100370191199
 31
0.0
  0
LINE
  5
1EAC
  8
0
 10
107.7705197561729
 20
51.457100370190439
 30
0.0
 11
107.7705197561729
 21
64.457100370191199
 31
0.0
  0
LINE
  5
1EAD
  8
3
 10
106.9585197561731
 20
72.457100370191085
 30
0.0
 11
106.958519756173
 21
93.769100370191154
 31
0.0
  0
LINE
  5
1EAE
  8
0
 10
107.7705197561729
 20
72.457100370191085
 30
0.0
 11
107.7705197561729
 21
92.957100370191185
 31
0.0
  0
LINE
  5
1EAF
  8
0
 10
97.770519756172945
 20
72.457100370191085
 30
0.0
 11
97.770519756172945
 21
92.957100370191327
 31
0.0
  0
LINE
  5
1EB0
  8
3
 10
98.582519756172843
 20
72.457100370191085
 30
0.0
 11
98.582519756172843
 21
93.769100370191182
 31
0.0
  0
LINE
  5
1EB1
  8
0
 10
33.48495767035638
 20
72.457100370190972
 30
0.0
 11
33.48495767035638
 21
92.957100370191029
 31
0.0
  0
LINE
  5
1EB2
  8
3
 10
34.296957670356278
 20
72.457100370190972
 30
0.0
 11
34.296957670356278
 21
93.769100370190927
 31
0.0
  0
LINE
  5
1EB3
  8
0
 10
43.48495767035638
 20
72.457100370190858
 30
0.0
 11
43.48495767035638
 21
92.957100370190886
 31
0.0
  0
LINE
  5
1EB4
  8
3
 10
42.672957670356482
 20
72.457100370190858
 30
0.0
 11
42.672957670356482
 21
93.769100370190856
 31
0.0
  0
LINE
  5
1EB5
  8
0
 10
33.48495767035638
 20
92.957100370191029
 30
0.0
 11
43.48495767035638
 21
92.957100370190886
 31
0.0
  0
LINE
  5
1EB6
  8
3
 10
42.672957670356482
 20
53.45710037019095
 30
0.0
 11
43.48495767035638
 21
52.050675114445127
 31
0.0
  0
LINE
  5
1EB7
  8
3
 10
34.296957670356278
 20
53.45710037019095
 30
0.0
 11
33.48495767035638
 21
52.050675114445127
 31
0.0
  0
LINE
  5
1EB8
  8
0
 10
33.48495767035638
 20
53.45710037019095
 30
0.0
 11
43.48495767035638
 21
53.457100370190837
 31
0.0
  0
LINE
  5
1EB9
  8
0
 10
41.984957670356373
 20
94.457100370190901
 30
0.0
 11
43.48495767035638
 21
92.957100370190886
 31
0.0
  0
LINE
  5
1EBA
  8
0
 10
33.48495767035638
 20
92.957100370191029
 30
0.0
 11
34.98495767035638
 21
94.457100370191014
 31
0.0
  0
LINE
  5
1EBB
  8
0
 10
33.48495767035638
 20
51.457100370190567
 30
0.0
 11
33.48495767035638
 21
64.457100370190886
 31
0.0
  0
LINE
  5
1EBC
  8
3
 10
34.296957670356278
 20
53.45710037019095
 30
0.0
 11
34.296957670356278
 21
64.457100370190886
 31
0.0
  0
LINE
  5
1EBD
  8
3
 10
42.672957670356482
 20
53.457100370190851
 30
0.0
 11
42.672957670356482
 21
64.457100370190886
 31
0.0
  0
LINE
  5
1EBE
  8
0
 10
43.484957670356359
 20
51.457100370190567
 30
0.0
 11
43.48495767035638
 21
64.457100370190886
 31
0.0
  0
LINE
  5
1EBF
  8
0
 10
34.98495767035638
 20
94.457100370191014
 30
0.0
 11
41.984957670356373
 21
94.457100370190901
 31
0.0
  0
LINE
  5
1EC0
  8
0
 10
46.734957670357282
 20
64.457100370190886
 30
0.0
 11
30.234957670356611
 21
64.457100370190886
 31
0.0
  0
LINE
  5
1EC1
  8
0
 10
30.234957670356948
 20
72.457100370191029
 30
0.0
 11
46.734957670357282
 21
72.457100370190801
 31
0.0
  0
ARC
  5
1EC2
  8
0
 10
45.846173602524679
 20
67.96786413056941
 30
0.0
 40
4.3448986723233833
 50
64.38424746789137
 51
124.3842474680048
  0
LINE
  5
1EC3
  8
0
 10
48.299912246580561
 20
71.553573424338822
 30
0.0
 11
46.734957670356948
 21
72.457100370191029
 31
0.0
  0
LINE
  5
1EC4
  8
0
 10
48.299912246580561
 20
65.360627316042894
 30
0.0
 11
46.734957670356948
 21
64.457100370190673
 31
0.0
  0
ARC
  5
1EC5
  8
0
 10
45.846173602524679
 20
68.94633660981232
 30
0.0
 40
4.3448986723233833
 50
235.61575253199521
 51
295.61575253210867
  0
LINE
  5
1EC6
  8
0
 10
48.299912246580561
 20
71.553573424338765
 30
0.0
 11
48.299912246580561
 21
65.360627316042951
 31
0.0
  0
LINE
  5
1EC7
  8
0
 10
43.392434958469707
 20
71.553573424338822
 30
0.0
 11
43.392434958469153
 21
65.360627316042724
 31
0.0
  0
LINE
  5
1EC8
  8
0
 10
33.577480382244069
 20
71.553573424338822
 30
0.0
 11
33.577480382244751
 21
65.360627316042724
 31
0.0
  0
LINE
  5
1EC9
  8
0
 10
28.670003094133339
 20
71.553573424338765
 30
0.0
 11
28.670003094133339
 21
65.360627316042951
 31
0.0
  0
ARC
  5
1ECA
  8
0
 10
38.48495767035638
 20
80.842248558955546
 30
0.0
 40
16.24081062146659
 50
252.4120462260268
 51
287.5879537739724
  0
ARC
  5
1ECB
  8
0
 10
31.12374173818921
 20
68.94633660981232
 30
0.0
 40
4.3448986723233833
 50
244.3842474678913
 51
304.38424746800479
  0
LINE
  5
1ECC
  8
0
 10
28.670003094133339
 20
65.360627316042894
 30
0.0
 11
30.234957670356948
 21
64.457100370190673
 31
0.0
  0
LINE
  5
1ECD
  8
0
 10
28.670003094133339
 20
71.553573424338822
 30
0.0
 11
30.234957670356948
 21
72.457100370191029
 31
0.0
  0
ARC
  5
1ECE
  8
0
 10
38.48495767035638
 20
56.071952181426177
 30
0.0
 40
16.24081062146659
 50
72.412046226026803
 51
107.5879537739724
  0
ARC
  5
1ECF
  8
0
 10
31.12374173818921
 20
67.96786413056941
 30
0.0
 40
4.3448986723233833
 50
55.615752531995092
 51
115.6157525321087
  0
LINE
  5
1ED0
  8
0
 10
43.984957670356252
 20
43.45710037019073
 30
0.0
 11
43.984957670356252
 21
46.45710037019056
 31
0.0
  0
LINE
  5
1ED1
  8
0
 10
32.984957670356273
 20
43.45710037019073
 30
0.0
 11
32.984957670356273
 21
46.45710037019056
 31
0.0
  0
LINE
  5
1ED3
  8
0
 10
31.484957670356149
 20
51.301659913100288
 30
0.0
 11
31.484957670356149
 21
46.612540827280768
 31
0.0
  0
LINE
  5
1ED4
  8
0
 10
45.484957670356152
 20
51.301659913100288
 30
0.0
 11
45.484957670356152
 21
46.612540827280768
 31
0.0
  0
LINE
  5
1ED5
  8
0
 10
45.215726901124178
 20
51.457100370190567
 30
0.0
 11
31.75418843958813
 21
51.457100370190567
 31
0.0
  0
ARC
  5
1ED6
  8
0
 10
34.98495767035628
 20
41.192419152062868
 30
0.0
 40
10.10924076103746
 50
69.743841999583069
 51
110.2561580004169
  0
LINE
  5
1ED7
  8
0
 10
31.484957670356149
 20
51.301659913100288
 30
0.0
 11
31.75418843958813
 21
51.457100370190567
 31
0.0
  0
LINE
  5
1ED8
  8
0
 10
45.484957670356152
 20
51.301659913100288
 30
0.0
 11
45.215726901124178
 21
51.457100370190567
 31
0.0
  0
ARC
  5
1ED9
  8
0
 10
41.984957670356039
 20
41.192419152062868
 30
0.0
 40
10.10924076103746
 50
69.743841999583069
 51
110.2561580004169
  0
LINE
  5
1EDA
  8
0
 10
45.215726901124178
 20
46.45710037019056
 30
0.0
 11
31.75418843958813
 21
46.45710037019056
 31
0.0
  0
ARC
  5
1EDB
  8
0
 10
34.98495767035628
 20
56.721781588318173
 30
0.0
 40
10.10924076103746
 50
249.74384199958311
 51
290.25615800041692
  0
LINE
  5
1EDC
  8
0
 10
31.484957670356149
 20
46.612540827280768
 30
0.0
 11
31.75418843958813
 21
46.45710037019056
 31
0.0
  0
LINE
  5
1EDD
  8
0
 10
45.484957670356152
 20
46.612540827280768
 30
0.0
 11
45.215726901124178
 21
46.45710037019056
 31
0.0
  0
ARC
  5
1EDE
  8
0
 10
41.984957670356039
 20
56.721781588318173
 30
0.0
 40
10.10924076103746
 50
249.74384199958311
 51
290.25615800041692
  0
LINE
  5
1EF2
  8
1
 10
38.48495767035628
 20
23.45710037019073
 30
0.0
 11
38.48495767035638
 21
97.457100370190986
 31
0.0
  0
LINE
  5
1F07
  8
1
 10
102.7705197561728
 20
23.45710037019073
 30
0.0
 11
102.7705197561729
 21
97.406562850210079
 31
0.0
  0
CIRCLE
  5
1F0D
  8
0
 10
38.48495767035628
 20
141.08667857932829
 30
0.0
 40
20.0
  0
CIRCLE
  5
1F0E
  8
0
 10
38.48495767035628
 20
141.08667857932829
 30
0.0
 40
12.006063426498701
  0
CIRCLE
  5
1F0F
  8
0
 10
38.48495767035628
 20
141.08667857932829
 30
0.0
 40
10.99533453162951
  0
LINE
  5
1F10
  8
1
 10
38.48495767035628
 20
164.08667857932829
 30
0.0
 11
38.48495767035628
 21
118.08667857932829
 31
0.0
  0
LINE
  5
1F11
  8
1
 10
61.484957670356252
 20
141.08667857932829
 30
0.0
 11
15.484957670356261
 21
141.08667857932829
 31
0.0
  0
LINE
  5
21A4
  8
0
 10
50.491021096854972
 20
37.492188797122722
 30
0.0
 11
49.480292201985769
 21
43.45710037019073
 31
0.0
  0
LINE
  5
21A5
  8
0
 10
58.484957670356287
 20
31.957100370190741
 30
0.0
 11
50.491021096854972
 21
37.492188797122722
 31
0.0
  0
LINE
  5
21A6
  8
0
 10
57.984957670356287
 20
26.457100370190741
 30
0.0
 11
58.484957670356287
 21
26.957100370190741
 31
0.0
  0
LINE
  5
21A7
  8
0
 10
49.480292201985769
 20
43.45710037019073
 30
0.0
 11
27.489623138726841
 21
43.45710037019073
 31
0.0
  0
LINE
  5
21A8
  8
0
 10
58.484957670356287
 20
31.957100370190741
 30
0.0
 11
18.484957670356319
 21
31.957100370190741
 31
0.0
  0
LINE
  5
21A9
  8
0
 10
57.984957670356287
 20
26.457100370190741
 30
0.0
 11
18.984957670356319
 21
26.457100370190741
 31
0.0
  0
LINE
  5
21AB
  8
0
 10
58.484957670356287
 20
26.957100370190741
 30
0.0
 11
58.484957670356287
 21
31.957100370190741
 31
0.0
  0
LINE
  5
21AC
  8
0
 10
18.484957670356319
 20
31.957100370190741
 30
0.0
 11
26.47889424385761
 21
37.492188797122722
 31
0.0
  0
LINE
  5
21AD
  8
0
 10
18.984957670356319
 20
26.457100370190741
 30
0.0
 11
18.484957670356319
 21
26.957100370190741
 31
0.0
  0
LINE
  5
21AE
  8
0
 10
18.484957670356319
 20
26.957100370190741
 30
0.0
 11
18.484957670356319
 21
31.957100370190741
 31
0.0
  0
LINE
  5
21AF
  8
0
 10
26.47889424385761
 20
37.492188797122722
 30
0.0
 11
27.489623138726841
 21
43.45710037019073
 31
0.0
  0
LINE
  5
21B0
  8
0
 10
26.47889424385761
 20
37.492188797122722
 30
0.0
 11
50.491021096854972
 21
37.492188797122722
 31
0.0
  0
LINE
  5
21B4
  8
0
 10
114.7765831826715
 20
37.492188797122722
 30
0.0
 11
113.7658542878023
 21
43.45710037019073
 31
0.0
  0
LINE
  5
21B5
  8
0
 10
122.7705197561728
 20
31.957100370190741
 30
0.0
 11
114.7765831826715
 21
37.492188797122722
 31
0.0
  0
LINE
  5
21B6
  8
0
 10
122.2705197561728
 20
26.457100370190741
 30
0.0
 11
122.7705197561728
 21
26.957100370190741
 31
0.0
  0
LINE
  5
21B7
  8
0
 10
113.7658542878023
 20
43.45710037019073
 30
0.0
 11
91.775185224543364
 21
43.45710037019073
 31
0.0
  0
LINE
  5
21B8
  8
0
 10
122.7705197561728
 20
31.957100370190741
 30
0.0
 11
82.77051975617286
 21
31.957100370190741
 31
0.0
  0
LINE
  5
21B9
  8
0
 10
122.2705197561728
 20
26.457100370190741
 30
0.0
 11
83.270519756172831
 21
26.457100370190741
 31
0.0
  0
LINE
  5
21BB
  8
0
 10
122.7705197561728
 20
26.957100370190741
 30
0.0
 11
122.7705197561728
 21
31.957100370190741
 31
0.0
  0
LINE
  5
21BC
  8
0
 10
82.770519756172831
 20
31.957100370190741
 30
0.0
 11
90.764456329674147
 21
37.492188797122722
 31
0.0
  0
LINE
  5
21BD
  8
0
 10
83.270519756172831
 20
26.457100370190741
 30
0.0
 11
82.770519756172831
 21
26.957100370190741
 31
0.0
  0
LINE
  5
21BE
  8
0
 10
82.770519756172831
 20
26.957100370190741
 30
0.0
 11
82.770519756172831
 21
31.957100370190741
 31
0.0
  0
LINE
  5
21BF
  8
0
 10
90.764456329674147
 20
37.492188797122722
 30
0.0
 11
91.775185224543364
 21
43.45710037019073
 31
0.0
  0
LINE
  5
21C0
  8
0
 10
90.764456329674147
 20
37.492188797122722
 30
0.0
 11
114.7765831826715
 21
37.492188797122722
 31
0.0
  0
LINE
  5
23FA
  8
0
 10
38.484957670356117
 20
50.676445130761039
 30
0.0
 11
38.484957670356309
 21
47.237755609619938
 31
0.0
  0
LINE
  5
23FB
  8
0
 10
102.7705197561725
 20
71.553573424338893
 30
0.0
 11
102.7705197561734
 21
65.360627316042681
 31
0.0
  0
TEXT
  5
2552
  8
0
 62
     3
 10
0.0
 20
0.0
 30
0.0
 40
10.0
  1
LSA40S10A-SUS
  7
STANDARD1
  0
ENDSEC
  0
EOF
