  0
SECTION
  2
HEADER
  9
$ACADVER
  1
AC1009
  9
$INSBASE
 10
0.0
 20
0.0
 30
0.0
  9
$EXTMIN
 10
0.0
 20
-2.960436562073669
 30
0.0
  9
$EXTMAX
 10
98.744194719409194
 20
172.46257689815531
 30
0.0
  9
$LIMMIN
 10
0.0
 20
0.0
  9
$LIMMAX
 10
375.0
 20
270.0
  9
$ORTHOMODE
 70
     1
  9
$REGENMODE
 70
     1
  9
$FILLMODE
 70
     1
  9
$QTEXTMODE
 70
     0
  9
$MIRRTEXT
 70
     0
  9
$DRAGMODE
 70
     2
  9
$LTSCALE
 40
6.0
  9
$OSMODE
 70
    37
  9
$ATTMODE
 70
     1
  9
$TEXTSIZE
 40
0.2
  9
$TRACEWID
 40
0.05
  9
$TEXTSTYLE
  7
STANDARD
  9
$CLAYER
  8
0
  9
$CELTYPE
  6
BYLAYER
  9
$CECOLOR
 62
   256
  9
$DIMSCALE
 40
1.0
  9
$DIMASZ
 40
3.0
  9
$DIMEXO
 40
1.0
  9
$DIMDLI
 40
6.0
  9
$DIMRND
 40
0.0
  9
$DIMDLE
 40
0.0
  9
$DIMEXE
 40
1.0
  9
$DIMTP
 40
495.0
  9
$DIMTM
 40
0.0
  9
$DIMTXT
 40
3.0
  9
$DIMCEN
 40
0.0
  9
$DIMTSZ
 40
0.0
  9
$DIMTOL
 70
     0
  9
$DIMLIM
 70
     0
  9
$DIMTIH
 70
     0
  9
$DIMTOH
 70
     0
  9
$DIMSE1
 70
     0
  9
$DIMSE2
 70
     0
  9
$DIMTAD
 70
     1
  9
$DIMZIN
 70
     8
  9
$DIMBLK
  1

  9
$DIMASO
 70
     0
  9
$DIMSHO
 70
     0
  9
$DIMPOST
  1

  9
$DIMAPOST
  1

  9
$DIMALT
 70
     0
  9
$DIMALTD
 70
     2
  9
$DIMALTF
 40
25.399999999999999
  9
$DIMLFAC
 40
1.0
  9
$DIMTOFL
 70
     1
  9
$DIMTVP
 40
0.0
  9
$DIMTIX
 70
     1
  9
$DIMSOXD
 70
     0
  9
$DIMSAH
 70
     0
  9
$DIMBLK1
  1

  9
$DIMBLK2
  1

  9
$DIMSTYLE
  2
STANDARD
  9
$DIMCLRD
 70
     0
  9
$DIMCLRE
 70
     0
  9
$DIMCLRT
 70
     4
  9
$DIMTFAC
 40
1.0
  9
$DIMGAP
 40
1.0
  9
$LUNITS
 70
     2
  9
$LUPREC
 70
     4
  9
$SKETCHINC
 40
0.1
  9
$FILLETRAD
 40
2.0
  9
$AUNITS
 70
     0
  9
$AUPREC
 70
     0
  9
$MENU
  1
C:\R13\WIN\SUPPORT\ACAD-I
  9
$ELEVATION
 40
0.0
  9
$PELEVATION
 40
0.0
  9
$THICKNESS
 40
0.0
  9
$LIMCHECK
 70
     0
  9
$BLIPMODE
 70
     0
  9
$CHAMFERA
 40
0.0
  9
$CHAMFERB
 40
0.0
  9
$SKPOLY
 70
     0
  9
$TDCREATE
 40
2451961.7085224879
  9
$TDUPDATE
 40
2456598.7173380558
  9
$TDINDWG
 40
0.0630932523
  9
$TDUSRTIMER
 40
2456598.0065762382
  9
$USRTIMER
 70
     1
  9
$ANGBASE
 50
0.0
  9
$ANGDIR
 70
     0
  9
$PDMODE
 70
     0
  9
$PDSIZE
 40
0.0
  9
$PLINEWID
 40
0.0
  9
$COORDS
 70
     1
  9
$SPLFRAME
 70
     0
  9
$SPLINETYPE
 70
     6
  9
$SPLINESEGS
 70
     8
  9
$ATTDIA
 70
     0
  9
$ATTREQ
 70
     1
  9
$HANDLING
 70
     1
  9
$HANDSEED
  5
1ECB
  9
$SURFTAB1
 70
     6
  9
$SURFTAB2
 70
     6
  9
$SURFTYPE
 70
     6
  9
$SURFU
 70
     6
  9
$SURFV
 70
     6
  9
$UCSNAME
  2

  9
$UCSORG
 10
0.0
 20
0.0
 30
0.0
  9
$UCSXDIR
 10
1.0
 20
0.0
 30
0.0
  9
$UCSYDIR
 10
0.0
 20
1.0
 30
0.0
  9
$PUCSNAME
  2

  9
$PUCSORG
 10
0.0
 20
0.0
 30
0.0
  9
$PUCSXDIR
 10
1.0
 20
0.0
 30
0.0
  9
$PUCSYDIR
 10
0.0
 20
1.0
 30
0.0
  9
$USERI1
 70
     4
  9
$USERI2
 70
     1
  9
$USERI3
 70
     0
  9
$USERI4
 70
     0
  9
$USERI5
 70
     0
  9
$USERR1
 40
1.0
  9
$USERR2
 40
3.0
  9
$USERR3
 40
3.0
  9
$USERR4
 40
3.0
  9
$USERR5
 40
10.0
  9
$WORLDVIEW
 70
     1
  9
$SHADEDGE
 70
     3
  9
$SHADEDIF
 70
    70
  9
$TILEMODE
 70
     1
  9
$MAXACTVP
 70
    16
  9
$PLIMCHECK
 70
     0
  9
$PEXTMIN
 10
1.0000000000000000E+020
 20
1.0000000000000000E+020
 30
1.0000000000000000E+020
  9
$PEXTMAX
 10
-1.0000000000000000E+020
 20
-1.0000000000000000E+020
 30
-1.0000000000000000E+020
  9
$PLIMMIN
 10
0.0
 20
0.0
  9
$PLIMMAX
 10
12.0
 20
9.0
  9
$UNITMODE
 70
     0
  9
$VISRETAIN
 70
     0
  9
$PLINEGEN
 70
     0
  9
$PSLTSCALE
 70
     0
  0
ENDSEC
  0
SECTION
  2
TABLES
  0
TABLE
  2
VPORT
 70
     1
  0
VPORT
  2
*ACTIVE
 70
     0
 10
0.0
 20
0.0
 11
1.0
 21
1.0
 12
187.49427839065231
 22
177.52205812711131
 13
0.0
 23
0.0
 14
10.0
 24
10.0
 15
10.0
 25
10.0
 16
0.0
 26
0.0
 36
1.0
 17
0.0
 27
0.0
 37
0.0
 40
364.13085016302909
 41
1.755244755244755
 42
50.0
 43
0.0
 44
0.0
 50
0.0
 51
0.0
 71
    16
 72
   100
 73
     1
 74
     0
 75
     0
 76
     0
 77
     0
 78
     0
  0
ENDTAB
  0
TABLE
  2
LTYPE
 70
     3
  0
LTYPE
  2
CONTINUOUS
 70
     0
  3
Solid Line
 72
    65
 73
     0
 40
0.0
  0
LTYPE
  2
PHANTOM2
 70
     0
  3
___ _ _ ___ _ _ ___ _ _ ___ _ _
 72
    65
 73
     6
 40
1.25
 49
0.625
 49
-0.125
 49
0.125
 49
-0.125
 49
0.125
 49
-0.125
  0
LTYPE
  2
CENTER
 70
     0
  3
____ _ ____ _ ____ _ ____ _ ____ _ ____ _ ____
 72
    65
 73
     4
 40
2.0
 49
1.25
 49
-0.25
 49
0.25
 49
-0.25
  0
ENDTAB
  0
TABLE
  2
LAYER
 70
     3
  0
LAYER
  2
0
 70
     0
 62
     7
  6
CONTINUOUS
  0
LAYER
  2
1
 70
     0
 62
     1
  6
CENTER
  0
LAYER
  2
3
 70
     0
 62
     3
  6
CONTINUOUS
  0
ENDTAB
  0
TABLE
  2
STYLE
 70
     3
  0
STYLE
  2
STANDARD
 70
     0
 40
0.0
 41
1.0
 50
0.0
 71
     0
 42
0.2
  3
SIMPLEX
  4
BIGFONT
  0
STYLE
  2
ANNOTATIVE
 70
     0
 40
0.0
 41
1.0
 50
0.0
 71
     0
 42
0.2
  3
txt
  4

  0
STYLE
  2
STANDARD1
 70
     0
 40
0.0
 41
1.0
 50
0.0
 71
     0
 42
3.0
  3
txt
  4

  0
ENDTAB
  0
TABLE
  2
VIEW
 70
     0
  0
ENDTAB
  0
TABLE
  2
UCS
 70
     0
  0
ENDTAB
  0
TABLE
  2
APPID
 70
    31
  0
APPID
  2
ACAD
 70
     0
  0
APPID
  2
ACADANNOTATIVE
 70
     0
  0
APPID
  2
GENIUS_GENOREF_13
 70
     0
  0
APPID
  2
GENIUS_GENOENT_13
 70
     0
  0
APPID
  2
GENIUS_GENBH_13
 70
     0
  0
APPID
  2
GENIUS_GENOBJ_13
 70
     0
  0
APPID
  2
GENIUS_GENODEF_13
 70
     0
  0
APPID
  2
GENIUS_GENOLIS_13
 70
     0
  0
APPID
  2
GENIUS_GENOBJ-NBEHI-BHF_13
 70
     0
  0
APPID
  2
GENIUS_GENOBJ-NBEHI-BHB_13
 70
     0
  0
APPID
  2
GENIUS_GENOBJ-F-PART_13
 70
     0
  0
APPID
  2
GENIUS_GEFSTDP_13
 70
     0
  0
APPID
  2
GENIUS_GENOBJ-N-RSSYM_13
 70
     0
  0
APPID
  2
GENIUS_GENSYMENT_13
 70
     0
  0
APPID
  2
GENIUS_GENOBJ-N-TIT_13
 70
     0
  0
APPID
  2
GENIUS_GENTITLE_13
 70
     0
  0
APPID
  2
GENIUS_GENZVEED_13
 70
     0
  0
APPID
  2
GENIUS_GENOBJ-N-LEADER_13
 70
     0
  0
APPID
  2
GENIUS_GENOBJ-N-FIL_13
 70
     0
  0
APPID
  2
GENIUS_GENOBJ-N-SEC_13
 70
     0
  0
APPID
  2
GENIUS_GENOBJ-N-CRS_13
 70
     0
  0
APPID
  2
GENIUS_GENOBJ-N-ZOO_13
 70
     0
  0
APPID
  2
GENIUS_GENZOO_13
 70
     0
  0
APPID
  2
GENIUS_GENOBJ-F-TOL_13
 70
     0
  0
APPID
  2
GENIUS_GENFIL_13
 70
     0
  0
APPID
  2
GENIUS_GENOBJ-N-CHA_13
 70
     0
  0
APPID
  2
ACAD_MLEADERVER
 70
     0
  0
APPID
  2
ACAD_DSTYLE_DIMJAG
 70
     0
  0
APPID
  2
ACAD_DSTYLE_DIMTALN
 70
     0
  0
APPID
  2
ACAD_EXEMPT_FROM_CAD_STANDARDS
 70
     0
  0
APPID
  2
ACAD_NAV_VCDISPLAY
 70
     0
  0
ENDTAB
  0
TABLE
  2
DIMSTYLE
 70
     2
  0
DIMSTYLE
  2
STANDARD
 70
     0
  3

  4

  5

  6

  7

 40
1.0
 41
0.18
 42
0.0625
 43
0.38
 44
0.18
 45
0.0
 46
0.0
 47
0.0
 48
0.0
140
0.18
141
0.09
142
0.0
143
25.399999999999999
144
1.0
145
0.0
146
1.0
147
0.09
 71
     0
 72
     0
 73
     1
 74
     1
 75
     0
 76
     0
 77
     0
 78
     0
170
     0
171
     2
172
     0
173
     0
174
     0
175
     0
176
     0
177
     0
178
     0
  0
DIMSTYLE
  2
ANNOTATIVE
 70
     0
  3

  4

  5

  6

  7

 40
1.0
 41
0.18
 42
0.0625
 43
0.38
 44
0.18
 45
0.0
 46
0.0
 47
0.0
 48
0.0
140
0.18
141
0.09
142
0.0
143
25.399999999999999
144
1.0
145
0.0
146
1.0
147
0.09
 71
     0
 72
     0
 73
     1
 74
     1
 75
     0
 76
     0
 77
     0
 78
     0
170
     0
171
     2
172
     0
173
     0
174
     0
175
     0
176
     0
177
     0
178
     0
  0
ENDTAB
  0
ENDSEC
  0
SECTION
  2
BLOCKS
  0
BLOCK
  8
0
  2
$MODEL_SPACE
 70
     0
 10
0.0
 20
0.0
 30
0.0
  3
$MODEL_SPACE
  1

  0
ENDBLK
  5
1D90
  8
0
  0
BLOCK
 67
     1
  8
0
  2
$PAPER_SPACE
 70
     0
 10
0.0
 20
0.0
 30
0.0
  3
$PAPER_SPACE
  1

  0
ENDBLK
  5
1D8C
 67
     1
  8
0
  0
ENDSEC
  0
SECTION
  2
ENTITIES
  0
LINE
  5
1643
  8
1
 10
82.744194719409165
 20
22.479474160163011
 30
0.0
 11
82.744194719409165
 21
121.47947416016331
 31
0.0
  0
LINE
  5
1644
  8
1
 10
29.623944550228671
 20
22.479474160163011
 30
0.0
 11
29.623944550228671
 21
121.47947416016331
 31
0.0
  0
CIRCLE
  5
1645
  8
3
 10
29.623944550228771
 20
153.46257689815559
 30
0.0
 40
6.9175000000000004
  0
CIRCLE
  5
1646
  8
0
 10
29.623944550228771
 20
153.46257689815559
 30
0.0
 40
8.0
  0
CIRCLE
  5
1647
  8
0
 10
29.623944550228771
 20
153.46257689815559
 30
0.0
 40
11.5
  0
LINE
  5
1648
  8
0
 10
43.480351010779813
 20
153.46257689815559
 30
0.0
 11
36.552147780504242
 21
165.46257689815559
 31
0.0
  0
LINE
  5
1649
  8
0
 10
36.552147780504242
 20
141.4625768981555
 30
0.0
 11
43.480351010779813
 21
153.46257689815559
 31
0.0
  0
LINE
  5
164A
  8
0
 10
22.695741319953299
 20
141.4625768981555
 30
0.0
 11
36.552147780504242
 21
141.4625768981555
 31
0.0
  0
LINE
  5
164B
  8
0
 10
15.767538089677711
 20
153.46257689815559
 30
0.0
 11
22.695741319953299
 21
141.4625768981555
 31
0.0
  0
LINE
  5
164C
  8
0
 10
22.695741319953299
 20
165.46257689815559
 30
0.0
 11
15.767538089677711
 21
153.46257689815559
 31
0.0
  0
LINE
  5
164D
  8
0
 10
36.552147780504242
 20
165.46257689815559
 30
0.0
 11
22.695741319953299
 21
165.46257689815559
 31
0.0
  0
LINE
  5
164E
  8
3
 10
89.661694719409425
 20
91.268149294778155
 30
0.0
 11
89.661694719409425
 21
117.5619741601631
 31
0.0
  0
LINE
  5
164F
  8
0
 10
90.744194719409407
 20
91.268149294780059
 30
0.0
 11
90.744194719409407
 21
116.47947416016321
 31
0.0
  0
LINE
  5
1650
  8
0
 10
74.744194719409421
 20
91.268149294753144
 30
0.0
 11
74.744194719409393
 21
116.47947416016341
 31
0.0
  0
LINE
  5
1651
  8
3
 10
75.826694719409375
 20
91.268149294754949
 30
0.0
 11
75.826694719409375
 21
117.5619741601633
 31
0.0
  0
LINE
  5
1652
  8
3
 10
75.826694719409375
 20
52.479474160163363
 30
0.0
 11
74.744194719409393
 21
50.604529160970053
 31
0.0
  0
LINE
  5
1653
  8
0
 10
74.744194719409393
 20
116.47947416016341
 30
0.0
 11
76.744194719409393
 21
118.47947416016331
 31
0.0
  0
LINE
  5
1654
  8
0
 10
74.744194719409393
 20
50.343627038001209
 30
0.0
 11
74.744194719409421
 21
78.268149294741534
 31
0.0
  0
LINE
  5
1655
  8
3
 10
75.826694719409375
 20
52.479474160163363
 30
0.0
 11
75.826694719409375
 21
78.268149294739601
 31
0.0
  0
LINE
  5
1656
  8
3
 10
89.661694719409425
 20
52.479474160163363
 30
0.0
 11
90.744194719409407
 21
50.604529160970053
 31
0.0
  0
LINE
  5
1657
  8
0
 10
74.744194719409393
 20
52.479474160163363
 30
0.0
 11
90.744194719409407
 21
52.479474160163363
 31
0.0
  0
LINE
  5
1658
  8
0
 10
90.744194719409407
 20
116.47947416016321
 30
0.0
 11
74.744194719409393
 21
116.47947416016331
 31
0.0
  0
LINE
  5
1659
  8
0
 10
88.744194719409393
 20
118.47947416016321
 30
0.0
 11
90.744194719409407
 21
116.47947416016321
 31
0.0
  0
LINE
  5
165A
  8
3
 10
89.661694719409425
 20
52.479474160163363
 30
0.0
 11
89.661694719409425
 21
78.26814929471665
 31
0.0
  0
LINE
  5
165B
  8
0
 10
90.744194719409407
 20
50.343627038000939
 30
0.0
 11
90.744194719409407
 21
78.268149294714704
 31
0.0
  0
LINE
  5
165C
  8
0
 10
76.744194719409393
 20
118.47947416016331
 30
0.0
 11
88.744194719409393
 21
118.47947416016321
 31
0.0
  0
LINE
  5
166D
  8
0
 10
94.244194719442362
 20
78.268149294708977
 30
0.0
 11
71.244194719375969
 21
78.268149294747403
 31
0.0
  0
LINE
  5
166E
  8
0
 10
71.244194719375969
 20
91.268149294747374
 30
0.0
 11
94.244194719442362
 21
91.268149294785815
 31
0.0
  0
ARC
  5
166F
  8
0
 10
76.744194719442376
 20
73.649347142849109
 30
0.0
 40
17.330127017333279
 50
69.743841997640686
 51
110.2561580023593
  0
LINE
  5
1670
  8
0
 10
70.744194719427355
 20
90.979474160182406
 30
0.0
 11
71.244194719442362
 21
91.268149294785815
 31
0.0
  0
LINE
  5
1671
  8
0
 10
70.744194719427355
 20
78.556824429312385
 30
0.0
 11
71.244194719442362
 21
78.268149294708977
 31
0.0
  0
ARC
  5
1672
  8
0
 10
76.744194719442376
 20
95.886951446645696
 30
0.0
 40
17.330127017333279
 50
249.74384199764069
 51
290.25615800235931
  0
LINE
  5
1673
  8
0
 10
70.744194719427355
 20
90.979474160182406
 30
0.0
 11
70.744194719442362
 21
78.556824429303745
 31
0.0
  0
LINE
  5
1674
  8
0
 10
82.744194719442376
 20
79.62862119914162
 30
0.0
 11
82.744194719442376
 21
89.907677390353186
 31
0.0
  0
LINE
  5
1675
  8
0
 10
94.744194719457354
 20
90.979474160182406
 30
0.0
 11
94.744194719442348
 21
78.556824429303745
 31
0.0
  0
ARC
  5
1676
  8
0
 10
88.744194719442362
 20
95.886951446645696
 30
0.0
 40
17.330127017333279
 50
249.74384199764069
 51
290.25615800235931
  0
LINE
  5
1677
  8
0
 10
94.744194719457354
 20
78.556824429312385
 30
0.0
 11
94.244194719442362
 21
78.268149294708977
 31
0.0
  0
LINE
  5
1678
  8
0
 10
94.744194719457354
 20
90.979474160182406
 30
0.0
 11
94.244194719442362
 21
91.268149294785815
 31
0.0
  0
ARC
  5
1679
  8
0
 10
88.744194719442362
 20
73.649347142849109
 30
0.0
 40
17.330127017333279
 50
69.743841997640686
 51
110.2561580023593
  0
LINE
  5
167F
  8
0
 10
21.623944550228661
 20
91.268149294728119
 30
0.0
 11
21.623944550228661
 21
116.47947416016341
 31
0.0
  0
LINE
  5
1680
  8
3
 10
22.706444550228639
 20
91.268149294728204
 30
0.0
 11
22.706444550228639
 21
117.5619741601633
 31
0.0
  0
LINE
  5
1681
  8
0
 10
37.623944550228657
 20
91.268149294728204
 30
0.0
 11
37.623944550228657
 21
116.47947416016321
 31
0.0
  0
LINE
  5
1682
  8
3
 10
36.541444550228682
 20
91.268149294728119
 30
0.0
 11
36.541444550228682
 21
117.5619741601631
 31
0.0
  0
LINE
  5
1690
  8
0
 10
23.623944550228671
 20
118.47947416016331
 30
0.0
 11
35.623944550228657
 21
118.47947416016321
 31
0.0
  0
LINE
  5
1691
  8
0
 10
37.623944550228799
 20
50.34362703800025
 30
0.0
 11
37.623944550228693
 21
78.268149294728019
 31
0.0
  0
LINE
  5
1692
  8
3
 10
36.541444550228682
 20
52.47947416016325
 30
0.0
 11
36.541444550228682
 21
78.268149294728019
 31
0.0
  0
LINE
  5
1693
  8
3
 10
22.706444550228639
 20
52.47947416016325
 30
0.0
 11
22.706444550228639
 21
78.268149294728019
 31
0.0
  0
LINE
  5
1694
  8
0
 10
21.623944550228689
 20
50.34362703800025
 30
0.0
 11
21.623944550228661
 21
78.268149294728119
 31
0.0
  0
LINE
  5
1695
  8
0
 10
21.623944550228661
 20
116.47947416016341
 30
0.0
 11
23.623944550228671
 21
118.47947416016331
 31
0.0
  0
LINE
  5
1696
  8
0
 10
35.623944550228657
 20
118.47947416016321
 30
0.0
 11
37.623944550228657
 21
116.47947416016321
 31
0.0
  0
LINE
  5
1697
  8
0
 10
37.623944550228657
 20
116.47947416016321
 30
0.0
 11
21.623944550228661
 21
116.47947416016331
 31
0.0
  0
LINE
  5
1698
  8
0
 10
21.623944550228661
 20
52.47947416016325
 30
0.0
 11
37.623944550228657
 21
52.47947416016325
 31
0.0
  0
LINE
  5
1699
  8
3
 10
22.706444550228639
 20
52.47947416016325
 30
0.0
 11
21.623944550228661
 21
50.604529160969939
 31
0.0
  0
LINE
  5
169A
  8
3
 10
36.541444550228682
 20
52.47947416016325
 30
0.0
 11
37.623944550228657
 21
50.604529160969939
 31
0.0
  0
LINE
  5
169B
  8
0
 10
41.123944550120612
 20
78.268149294728119
 30
0.0
 11
18.123944550336152
 21
78.268149294728119
 31
0.0
  0
LINE
  5
169C
  8
0
 10
18.123944550228359
 20
91.268149294728119
 30
0.0
 11
41.123944550120612
 21
91.268149294728119
 31
0.0
  0
ARC
  5
169D
  8
0
 10
40.01624939564185
 20
84.845499564442306
 30
0.0
 40
6.1339745957208196
 50
64.38424746985207
 51
124.3842474712113
  0
LINE
  5
169E
  8
0
 10
43.480351010801357
 20
89.907677390333916
 30
0.0
 11
41.123944550120612
 21
91.268149294728119
 31
0.0
  0
LINE
  5
169F
  8
0
 10
43.480351010801357
 20
79.62862119912235
 30
0.0
 11
41.123944550120612
 21
78.268149294728119
 31
0.0
  0
ARC
  5
16A0
  8
0
 10
40.01624939564185
 20
84.690799025013888
 30
0.0
 40
6.1339745957208196
 50
235.6157525287887
 51
295.6157525301478
  0
LINE
  5
16A1
  8
0
 10
43.480351010779529
 20
89.907677390333916
 30
0.0
 11
43.480351010779529
 21
79.628621199109716
 31
0.0
  0
LINE
  5
16A2
  8
0
 10
36.552147780503716
 20
89.907677390333916
 30
0.0
 11
36.552147780503716
 21
79.62862119912235
 31
0.0
  0
LINE
  5
16A3
  8
0
 10
22.695741319953019
 20
89.907677390333916
 30
0.0
 11
22.695741319953019
 21
79.62862119912235
 31
0.0
  0
LINE
  5
16A4
  8
0
 10
15.767538089677201
 20
89.907677390333916
 30
0.0
 11
15.767538089677201
 21
79.628621199109716
 31
0.0
  0
ARC
  5
16A5
  8
0
 10
29.623944550228369
 20
101.4850276574326
 30
0.0
 40
22.928203228139491
 50
252.41204622431411
 51
287.58795377568589
  0
ARC
  5
16A6
  8
0
 10
19.231639704814881
 20
84.690799025013888
 30
0.0
 40
6.1339745957208196
 50
244.38424746985211
 51
304.38424747121132
  0
LINE
  5
16A7
  8
0
 10
15.767538089655369
 20
79.62862119912235
 30
0.0
 11
18.123944550336152
 21
78.268149294728119
 31
0.0
  0
LINE
  5
16A8
  8
0
 10
15.767538089655369
 20
89.907677390333916
 30
0.0
 11
18.123944550336152
 21
91.268149294728119
 31
0.0
  0
ARC
  5
16A9
  8
0
 10
19.231639704814881
 20
84.845499564442306
 30
0.0
 40
6.1339745957208196
 50
55.615752528788683
 51
115.6157525301479
  0
ARC
  5
16AA
  8
0
 10
29.623944550228369
 20
68.051270932023613
 30
0.0
 40
22.928203228139491
 50
72.412046224314139
 51
107.5879537756858
  0
CIRCLE
  5
16DD
  8
0
 10
29.623944550228771
 20
153.46257689815559
 30
0.0
 40
15.99999999999994
  0
LINE
  5
16DE
  8
1
 10
29.623944550228771
 20
172.46257689815531
 30
0.0
 11
29.623944550228771
 21
134.46257689815559
 31
0.0
  0
LINE
  5
16DF
  8
1
 10
48.623944550228778
 20
153.46257689815559
 30
0.0
 11
10.623944550228771
 21
153.46257689815559
 31
0.0
  0
LINE
  5
1967
  8
0
 10
41.446117395910491
 20
35.479474160163008
 30
0.0
 11
40.6239445502286
 21
40.479474160163008
 31
0.0
  0
LINE
  5
1968
  8
0
 10
45.6239445502286
 20
30.479474160163011
 30
0.0
 11
41.446117395910491
 21
35.479474160163008
 31
0.0
  0
LINE
  5
1969
  8
0
 10
45.123944550228593
 20
25.479474160163011
 30
0.0
 11
45.6239445502286
 21
25.979474160163011
 31
0.0
  0
LINE
  5
196A
  8
0
 10
13.6239445502286
 20
25.979474160163011
 30
0.0
 11
14.1239445502286
 21
25.479474160163011
 31
0.0
  0
LINE
  5
196D
  8
0
 10
40.6239445502286
 20
40.479474160163008
 30
0.0
 11
18.6239445502286
 21
40.479474160163001
 31
0.0
  0
LINE
  5
196E
  8
0
 10
45.6239445502286
 20
30.479474160163011
 30
0.0
 11
13.6239445502286
 21
30.479474160163011
 31
0.0
  0
LINE
  5
196F
  8
0
 10
45.123944550228593
 20
25.479474160163011
 30
0.0
 11
14.1239445502286
 21
25.479474160163011
 31
0.0
  0
LINE
  5
1971
  8
0
 10
45.6239445502286
 20
25.979474160163011
 30
0.0
 11
45.6239445502286
 21
30.4794741601631
 31
0.0
  0
LINE
  5
1972
  8
0
 10
13.6239445502286
 20
25.979474160163011
 30
0.0
 11
13.6239445502286
 21
30.4794741601631
 31
0.0
  0
LINE
  5
1973
  8
0
 10
17.801771704546692
 20
35.479474160163008
 30
0.0
 11
41.446117395910491
 21
35.479474160163008
 31
0.0
  0
LINE
  5
1974
  8
0
 10
17.801771704546692
 20
35.479474160163008
 30
0.0
 11
18.6239445502286
 21
40.479474160163008
 31
0.0
  0
LINE
  5
1975
  8
0
 10
13.6239445502286
 20
30.479474160163011
 30
0.0
 11
17.801771704546692
 21
35.479474160163008
 31
0.0
  0
ARC
  5
1976
  8
0
 10
29.623944550228771
 20
37.14934714124081
 30
0.0
 40
7.0
 50
28.407049271739051
 51
38.213210701736863
  0
ARC
  5
1977
  8
0
 10
29.623944550228771
 20
37.14934714124081
 30
0.0
 40
7.0
 50
141.7867892982631
 51
151.59295072826089
  0
LINE
  5
1978
  8
0
 10
35.123944550228771
 20
41.479474160163029
 30
0.0
 11
35.123944550228771
 21
45.479474160163022
 31
0.0
  0
LINE
  5
1979
  8
0
 10
24.123944550228771
 20
41.479474160163029
 30
0.0
 11
24.123944550228771
 21
45.479474160163022
 31
0.0
  0
LINE
  5
197A
  8
0
 10
35.123944550228771
 20
41.479474160163029
 30
0.0
 11
24.123944550228771
 21
41.479474160163029
 31
0.0
  0
LINE
  5
197B
  8
0
 10
88.244194719409407
 20
41.479474160163029
 30
0.0
 11
77.244194719409393
 21
41.479474160163029
 31
0.0
  0
LINE
  5
197C
  8
0
 10
77.244194719409393
 20
41.479474160163029
 30
0.0
 11
77.244194719409393
 21
45.479474160163022
 31
0.0
  0
LINE
  5
197D
  8
0
 10
88.244194719409407
 20
41.479474160163029
 30
0.0
 11
88.244194719409407
 21
45.479474160163022
 31
0.0
  0
ARC
  5
197E
  8
0
 10
82.744194719409393
 20
37.14934714124081
 30
0.0
 40
7.0
 50
141.7867892982631
 51
151.59295072826089
  0
ARC
  5
197F
  8
0
 10
82.744194719409393
 20
37.14934714124081
 30
0.0
 40
7.0
 50
28.407049271739041
 51
38.213210701736863
  0
LINE
  5
1980
  8
0
 10
66.744194719409222
 20
30.479474160163011
 30
0.0
 11
70.922021873727289
 21
35.479474160163008
 31
0.0
  0
LINE
  5
1981
  8
0
 10
70.922021873727289
 20
35.479474160163008
 30
0.0
 11
71.744194719409222
 21
40.479474160163008
 31
0.0
  0
LINE
  5
1982
  8
0
 10
70.922021873727289
 20
35.479474160163008
 30
0.0
 11
94.56636756509107
 21
35.479474160163008
 31
0.0
  0
LINE
  5
1983
  8
0
 10
66.744194719409194
 20
25.979474160163011
 30
0.0
 11
66.744194719409194
 21
30.4794741601631
 31
0.0
  0
LINE
  5
1984
  8
0
 10
98.744194719409194
 20
25.979474160163011
 30
0.0
 11
98.744194719409194
 21
30.4794741601631
 31
0.0
  0
LINE
  5
1986
  8
0
 10
98.244194719409194
 20
25.479474160163011
 30
0.0
 11
67.244194719409194
 21
25.479474160163011
 31
0.0
  0
LINE
  5
1987
  8
0
 10
98.744194719409194
 20
30.479474160163011
 30
0.0
 11
66.744194719409222
 21
30.479474160163011
 31
0.0
  0
LINE
  5
1988
  8
0
 10
93.744194719409236
 20
40.479474160163008
 30
0.0
 11
71.744194719409222
 21
40.479474160163001
 31
0.0
  0
LINE
  5
198B
  8
0
 10
66.744194719409194
 20
25.979474160163011
 30
0.0
 11
67.244194719409194
 21
25.479474160163011
 31
0.0
  0
LINE
  5
198C
  8
0
 10
98.244194719409194
 20
25.479474160163011
 30
0.0
 11
98.744194719409194
 21
25.979474160163011
 31
0.0
  0
LINE
  5
198D
  8
0
 10
98.744194719409194
 20
30.479474160163011
 30
0.0
 11
94.56636756509107
 21
35.479474160163008
 31
0.0
  0
LINE
  5
198E
  8
0
 10
94.56636756509107
 20
35.479474160163008
 30
0.0
 11
93.744194719409236
 21
40.479474160163008
 31
0.0
  0
LINE
  5
1A3E
  8
0
 10
90.508900601762406
 20
45.47947416016325
 30
0.0
 11
74.979488837055925
 21
45.47947416016325
 31
0.0
  0
LINE
  5
1A3F
  8
0
 10
74.979488837056209
 20
50.479474160163363
 30
0.0
 11
90.508900601762321
 21
50.479474160163129
 31
0.0
  0
ARC
  5
1A40
  8
0
 10
89.672397949684651
 20
46.25431064051952
 30
0.0
 40
4.0893163974808306
 50
64.38424746788975
 51
124.3842474680048
  0
LINE
  5
1A41
  8
0
 10
91.981799026443085
 20
49.629095858184769
 30
0.0
 11
90.508900601762136
 21
50.479474160163363
 31
0.0
  0
LINE
  5
1A42
  8
0
 10
91.981799026443085
 20
46.329852462141609
 30
0.0
 11
90.508900601762136
 21
45.479474160163022
 31
0.0
  0
ARC
  5
1A43
  8
0
 10
89.672397949684651
 20
49.704637679806858
 30
0.0
 40
4.0893163974808306
 50
235.61575253199521
 51
295.61575253211032
  0
LINE
  5
1A44
  8
0
 10
91.981799026443085
 20
49.629095858184769
 30
0.0
 11
91.981799026443085
 21
46.329852462141609
 31
0.0
  0
LINE
  5
1A45
  8
0
 10
87.362996872927127
 20
49.629095858184769
 30
0.0
 11
87.362996872926516
 21
46.329852462141382
 31
0.0
  0
LINE
  5
1A46
  8
0
 10
78.125392565891175
 20
49.629095858184769
 30
0.0
 11
78.125392565891815
 21
46.329852462141382
 31
0.0
  0
LINE
  5
1A47
  8
0
 10
73.506590412375232
 20
49.629095858184769
 30
0.0
 11
73.506590412375232
 21
46.329852462141609
 31
0.0
  0
ARC
  5
1A48
  8
0
 10
82.744194719408654
 20
60.900790102529861
 30
0.0
 40
15.28546882020385
 50
252.41204622603021
 51
287.58795377396979
  0
ARC
  5
1A49
  8
0
 10
75.815991489133651
 20
49.704637679806858
 30
0.0
 40
4.0893163974808306
 50
244.38424746788971
 51
304.38424746800467
  0
LINE
  5
1A4A
  8
0
 10
73.506590412375232
 20
46.329852462141609
 30
0.0
 11
74.979488837056209
 21
45.479474160163022
 31
0.0
  0
LINE
  5
1A4B
  8
0
 10
73.506590412375232
 20
49.629095858184769
 30
0.0
 11
74.979488837056209
 21
50.479474160163363
 31
0.0
  0
ARC
  5
1A4C
  8
0
 10
82.744194719408654
 20
35.058158217796517
 30
0.0
 40
15.28546882020385
 50
72.412046226030199
 51
107.5879537739697
  0
ARC
  5
1A4D
  8
0
 10
75.815991489133651
 20
46.25431064051952
 30
0.0
 40
4.0893163974808306
 50
55.615752531995298
 51
115.61575253211021
  0
LINE
  5
1A54
  8
0
 10
21.859238667875701
 20
45.479474160163022
 30
0.0
 11
37.38865043258162
 21
45.479474160163022
 31
0.0
  0
LINE
  5
1A55
  8
0
 10
37.388650432580647
 20
50.479474160163022
 30
0.0
 11
21.859238667876731
 21
50.479474160163022
 31
0.0
  0
ARC
  5
1A56
  8
0
 10
25.623944550228739
 20
38.790209025372967
 30
0.0
 40
11.55341801262729
 50
69.743841999608364
 51
110.25615800039159
  0
LINE
  5
1A57
  8
0
 10
21.623944550228689
 20
50.34362703800025
 30
0.0
 11
21.859238667876731
 21
50.479474160163022
 31
0.0
  0
ARC
  5
1A58
  8
0
 10
25.623944550228678
 20
57.168739294952502
 30
0.0
 40
11.55341801262729
 50
249.74384199960841
 51
290.25615800039162
  0
LINE
  5
1A59
  8
0
 10
21.623944550228629
 20
45.61532128232534
 30
0.0
 11
21.859238667876681
 21
45.479474160162461
 31
0.0
  0
LINE
  5
1A5A
  8
0
 10
21.623944550228689
 20
50.34362703800025
 30
0.0
 11
21.623944550228689
 21
45.61532128232534
 31
0.0
  0
LINE
  5
1A5B
  8
0
 10
29.623944550228739
 20
49.629095858184321
 30
0.0
 11
29.623944550228689
 21
46.329852462140948
 31
0.0
  0
LINE
  5
1A5C
  8
0
 10
37.623944550228799
 20
50.34362703800025
 30
0.0
 11
37.623944550228693
 21
45.61532128232534
 31
0.0
  0
ARC
  5
1A5D
  8
0
 10
33.623944550228693
 20
57.168739294952502
 30
0.0
 40
11.55341801262729
 50
249.74384199960841
 51
290.25615800039162
  0
LINE
  5
1A5E
  8
0
 10
37.623944550228742
 20
45.61532128232534
 30
0.0
 11
37.388650432580647
 21
45.479474160162461
 31
0.0
  0
LINE
  5
1A5F
  8
0
 10
37.623944550228799
 20
50.34362703800025
 30
0.0
 11
37.388650432580711
 21
50.479474160163022
 31
0.0
  0
ARC
  5
1A60
  8
0
 10
33.62394455022875
 20
38.790209025372967
 30
0.0
 40
11.55341801262729
 50
69.743841999608364
 51
110.25615800039159
  0
TEXT
  5
1E12
  8
0
 62
     3
 10
0.0
 20
0.0
 30
0.0
 40
10.0
  1
LSA32S16A
  7
STANDARD1
  0
ENDSEC
  0
EOF
