  0
SECTION
  2
HEADER
  9
$ACADVER
  1
AC1009
  9
$INSBASE
 10
0.0
 20
0.0
 30
0.0
  9
$EXTMIN
 10
0.0
 20
-2.960436562073669
 30
0.0
  9
$EXTMAX
 10
109.4952251023192
 20
142.880719626765
 30
0.0
  9
$LIMMIN
 10
0.0
 20
0.0
  9
$LIMMAX
 10
375.0
 20
270.0
  9
$ORTHOMODE
 70
     1
  9
$REGENMODE
 70
     1
  9
$FILLMODE
 70
     1
  9
$QTEXTMODE
 70
     0
  9
$MIRRTEXT
 70
     0
  9
$DRAGMODE
 70
     2
  9
$LTSCALE
 40
6.0
  9
$OSMODE
 70
    37
  9
$ATTMODE
 70
     1
  9
$TEXTSIZE
 40
0.2
  9
$TRACEWID
 40
0.05
  9
$TEXTSTYLE
  7
STANDARD
  9
$CLAYER
  8
0
  9
$CELTYPE
  6
BYLAYER
  9
$CECOLOR
 62
   256
  9
$DIMSCALE
 40
1.0
  9
$DIMASZ
 40
3.0
  9
$DIMEXO
 40
1.0
  9
$DIMDLI
 40
6.0
  9
$DIMRND
 40
0.0
  9
$DIMDLE
 40
0.0
  9
$DIMEXE
 40
1.0
  9
$DIMTP
 40
495.0
  9
$DIMTM
 40
0.0
  9
$DIMTXT
 40
3.0
  9
$DIMCEN
 40
0.0
  9
$DIMTSZ
 40
0.0
  9
$DIMTOL
 70
     0
  9
$DIMLIM
 70
     0
  9
$DIMTIH
 70
     0
  9
$DIMTOH
 70
     0
  9
$DIMSE1
 70
     0
  9
$DIMSE2
 70
     0
  9
$DIMTAD
 70
     1
  9
$DIMZIN
 70
     0
  9
$DIMBLK
  1

  9
$DIMASO
 70
     0
  9
$DIMSHO
 70
     0
  9
$DIMPOST
  1

  9
$DIMAPOST
  1

  9
$DIMALT
 70
     0
  9
$DIMALTD
 70
     2
  9
$DIMALTF
 40
25.399999999999999
  9
$DIMLFAC
 40
1.0
  9
$DIMTOFL
 70
     1
  9
$DIMTVP
 40
0.0
  9
$DIMTIX
 70
     1
  9
$DIMSOXD
 70
     0
  9
$DIMSAH
 70
     0
  9
$DIMBLK1
  1

  9
$DIMBLK2
  1

  9
$DIMSTYLE
  2
STANDARD
  9
$DIMCLRD
 70
     0
  9
$DIMCLRE
 70
     0
  9
$DIMCLRT
 70
     4
  9
$DIMTFAC
 40
1.0
  9
$DIMGAP
 40
1.0
  9
$LUNITS
 70
     2
  9
$LUPREC
 70
     4
  9
$SKETCHINC
 40
0.1
  9
$FILLETRAD
 40
2.0
  9
$AUNITS
 70
     0
  9
$AUPREC
 70
     0
  9
$MENU
  1
C:\R13\WIN\SUPPORT\ACAD-I
  9
$ELEVATION
 40
0.0
  9
$PELEVATION
 40
0.0
  9
$THICKNESS
 40
0.0
  9
$LIMCHECK
 70
     0
  9
$BLIPMODE
 70
     0
  9
$CHAMFERA
 40
0.0
  9
$CHAMFERB
 40
0.0
  9
$SKPOLY
 70
     0
  9
$TDCREATE
 40
2451961.7056238768
  9
$TDUPDATE
 40
2456598.7171448609
  9
$TDINDWG
 40
0.0351324653
  9
$TDUSRTIMER
 40
2456598.005292743
  9
$USRTIMER
 70
     1
  9
$ANGBASE
 50
0.0
  9
$ANGDIR
 70
     0
  9
$PDMODE
 70
     0
  9
$PDSIZE
 40
0.0
  9
$PLINEWID
 40
0.0
  9
$COORDS
 70
     1
  9
$SPLFRAME
 70
     0
  9
$SPLINETYPE
 70
     6
  9
$SPLINESEGS
 70
     8
  9
$ATTDIA
 70
     0
  9
$ATTREQ
 70
     1
  9
$HANDLING
 70
     1
  9
$HANDSEED
  5
1678
  9
$SURFTAB1
 70
     6
  9
$SURFTAB2
 70
     6
  9
$SURFTYPE
 70
     6
  9
$SURFU
 70
     6
  9
$SURFV
 70
     6
  9
$UCSNAME
  2

  9
$UCSORG
 10
0.0
 20
0.0
 30
0.0
  9
$UCSXDIR
 10
1.0
 20
0.0
 30
0.0
  9
$UCSYDIR
 10
0.0
 20
1.0
 30
0.0
  9
$PUCSNAME
  2

  9
$PUCSORG
 10
0.0
 20
0.0
 30
0.0
  9
$PUCSXDIR
 10
1.0
 20
0.0
 30
0.0
  9
$PUCSYDIR
 10
0.0
 20
1.0
 30
0.0
  9
$USERI1
 70
     4
  9
$USERI2
 70
     1
  9
$USERI3
 70
     0
  9
$USERI4
 70
     0
  9
$USERI5
 70
     0
  9
$USERR1
 40
1.0
  9
$USERR2
 40
3.0
  9
$USERR3
 40
3.0
  9
$USERR4
 40
3.0
  9
$USERR5
 40
10.0
  9
$WORLDVIEW
 70
     1
  9
$SHADEDGE
 70
     3
  9
$SHADEDIF
 70
    70
  9
$TILEMODE
 70
     1
  9
$MAXACTVP
 70
    16
  9
$PLIMCHECK
 70
     0
  9
$PEXTMIN
 10
1.0000000000000000E+020
 20
1.0000000000000000E+020
 30
1.0000000000000000E+020
  9
$PEXTMAX
 10
-1.0000000000000000E+020
 20
-1.0000000000000000E+020
 30
-1.0000000000000000E+020
  9
$PLIMMIN
 10
0.0
 20
0.0
  9
$PLIMMAX
 10
12.0
 20
9.0
  9
$UNITMODE
 70
     0
  9
$VISRETAIN
 70
     0
  9
$PLINEGEN
 70
     0
  9
$PSLTSCALE
 70
     0
  0
ENDSEC
  0
SECTION
  2
TABLES
  0
TABLE
  2
VPORT
 70
     1
  0
VPORT
  2
*ACTIVE
 70
     0
 10
0.0
 20
0.0
 11
1.0
 21
1.0
 12
187.49427839065231
 22
177.52205812711131
 13
0.0
 23
0.0
 14
10.0
 24
10.0
 15
10.0
 25
10.0
 16
0.0
 26
0.0
 36
1.0
 17
0.0
 27
0.0
 37
0.0
 40
364.13085016302909
 41
1.755244755244755
 42
50.0
 43
0.0
 44
0.0
 50
0.0
 51
0.0
 71
    16
 72
   100
 73
     1
 74
     0
 75
     0
 76
     0
 77
     0
 78
     0
  0
ENDTAB
  0
TABLE
  2
LTYPE
 70
     3
  0
LTYPE
  2
CONTINUOUS
 70
     0
  3
Solid Line
 72
    65
 73
     0
 40
0.0
  0
LTYPE
  2
PHANTOM2
 70
     0
  3
___ _ _ ___ _ _ ___ _ _ ___ _ _
 72
    65
 73
     6
 40
1.25
 49
0.625
 49
-0.125
 49
0.125
 49
-0.125
 49
0.125
 49
-0.125
  0
LTYPE
  2
CENTER
 70
     0
  3
____ _ ____ _ ____ _ ____ _ ____ _ ____ _ ____
 72
    65
 73
     4
 40
2.0
 49
1.25
 49
-0.25
 49
0.25
 49
-0.25
  0
ENDTAB
  0
TABLE
  2
LAYER
 70
     3
  0
LAYER
  2
0
 70
     0
 62
     7
  6
CONTINUOUS
  0
LAYER
  2
1
 70
     0
 62
     1
  6
CENTER
  0
LAYER
  2
3
 70
     0
 62
     3
  6
CONTINUOUS
  0
ENDTAB
  0
TABLE
  2
STYLE
 70
     3
  0
STYLE
  2
STANDARD
 70
     0
 40
0.0
 41
1.0
 50
0.0
 71
     0
 42
0.2
  3
SIMPLEX
  4
BIGFONT
  0
STYLE
  2
ANNOTATIVE
 70
     0
 40
0.0
 41
1.0
 50
0.0
 71
     0
 42
0.2
  3
txt
  4

  0
STYLE
  2
STANDARD1
 70
     0
 40
0.0
 41
1.0
 50
0.0
 71
     0
 42
3.0
  3
txt
  4

  0
ENDTAB
  0
TABLE
  2
VIEW
 70
     0
  0
ENDTAB
  0
TABLE
  2
UCS
 70
     0
  0
ENDTAB
  0
TABLE
  2
APPID
 70
    29
  0
APPID
  2
ACAD
 70
     0
  0
APPID
  2
ACADANNOTATIVE
 70
     0
  0
APPID
  2
GENIUS_GENOREF_13
 70
     0
  0
APPID
  2
GENIUS_GENOENT_13
 70
     0
  0
APPID
  2
GENIUS_GENBH_13
 70
     0
  0
APPID
  2
GENIUS_GENOBJ_13
 70
     0
  0
APPID
  2
GENIUS_GENODEF_13
 70
     0
  0
APPID
  2
GENIUS_GENOLIS_13
 70
     0
  0
APPID
  2
GENIUS_GENOBJ-NBEHI-BHF_13
 70
     0
  0
APPID
  2
GENIUS_GENOBJ-NBEHI-BHB_13
 70
     0
  0
APPID
  2
GENIUS_GENOBJ-F-PART_13
 70
     0
  0
APPID
  2
GENIUS_GEFSTDP_13
 70
     0
  0
APPID
  2
GENIUS_GENOBJ-N-RSSYM_13
 70
     0
  0
APPID
  2
GENIUS_GENSYMENT_13
 70
     0
  0
APPID
  2
GENIUS_GENOBJ-N-TIT_13
 70
     0
  0
APPID
  2
GENIUS_GENTITLE_13
 70
     0
  0
APPID
  2
GENIUS_GENZVEED_13
 70
     0
  0
APPID
  2
GENIUS_GENOBJ-N-LEADER_13
 70
     0
  0
APPID
  2
GENIUS_GENOBJ-N-FIL_13
 70
     0
  0
APPID
  2
GENIUS_GENOBJ-N-SEC_13
 70
     0
  0
APPID
  2
GENIUS_GENOBJ-N-CRS_13
 70
     0
  0
APPID
  2
GENIUS_GENOBJ-N-ZOO_13
 70
     0
  0
APPID
  2
GENIUS_GENZOO_13
 70
     0
  0
APPID
  2
GENIUS_GENOBJ-F-TOL_13
 70
     0
  0
APPID
  2
GENIUS_GENFIL_13
 70
     0
  0
APPID
  2
GENIUS_GENOBJ-N-CHA_13
 70
     0
  0
APPID
  2
ACAD_MLEADERVER
 70
     0
  0
APPID
  2
ACAD_EXEMPT_FROM_CAD_STANDARDS
 70
     0
  0
APPID
  2
ACAD_NAV_VCDISPLAY
 70
     0
  0
ENDTAB
  0
TABLE
  2
DIMSTYLE
 70
     2
  0
DIMSTYLE
  2
STANDARD
 70
     0
  3

  4

  5

  6

  7

 40
1.0
 41
0.18
 42
0.0625
 43
0.38
 44
0.18
 45
0.0
 46
0.0
 47
0.0
 48
0.0
140
0.18
141
0.09
142
0.0
143
25.399999999999999
144
1.0
145
0.0
146
1.0
147
0.09
 71
     0
 72
     0
 73
     1
 74
     1
 75
     0
 76
     0
 77
     0
 78
     0
170
     0
171
     2
172
     0
173
     0
174
     0
175
     0
176
     0
177
     0
178
     0
  0
DIMSTYLE
  2
ANNOTATIVE
 70
     0
  3

  4

  5

  6

  7

 40
1.0
 41
0.18
 42
0.0625
 43
0.38
 44
0.18
 45
0.0
 46
0.0
 47
0.0
 48
0.0
140
0.18
141
0.09
142
0.0
143
25.399999999999999
144
1.0
145
0.0
146
1.0
147
0.09
 71
     0
 72
     0
 73
     1
 74
     1
 75
     0
 76
     0
 77
     0
 78
     0
170
     0
171
     2
172
     0
173
     0
174
     0
175
     0
176
     0
177
     0
178
     0
  0
ENDTAB
  0
ENDSEC
  0
SECTION
  2
BLOCKS
  0
BLOCK
  8
0
  2
$MODEL_SPACE
 70
     0
 10
0.0
 20
0.0
 30
0.0
  3
$MODEL_SPACE
  1

  0
ENDBLK
  5
153F
  8
0
  0
BLOCK
 67
     1
  8
0
  2
$PAPER_SPACE
 70
     0
 10
0.0
 20
0.0
 30
0.0
  3
$PAPER_SPACE
  1

  0
ENDBLK
  5
153B
 67
     1
  8
0
  0
ENDSEC
  0
SECTION
  2
ENTITIES
  0
CIRCLE
  5
E71
  8
0
 10
24.107202571441832
 20
123.8807196267651
 30
0.0
 40
8.25
  0
LINE
  5
E72
  8
0
 10
14.292247995218251
 20
123.8807196267651
 30
0.0
 11
19.19972528332994
 21
115.3807196267651
 31
0.0
  0
LINE
  5
E73
  8
0
 10
19.19972528333005
 20
132.38071962676511
 30
0.0
 11
14.292247995218251
 21
123.8807196267651
 31
0.0
  0
LINE
  5
E74
  8
0
 10
29.01467985955367
 20
132.38071962676511
 30
0.0
 11
19.19972528333005
 21
132.38071962676511
 31
0.0
  0
LINE
  5
E75
  8
0
 10
33.92215714766548
 20
123.8807196267651
 30
0.0
 11
29.01467985955367
 21
132.38071962676511
 31
0.0
  0
LINE
  5
E76
  8
0
 10
29.01467985955367
 20
115.3807196267651
 30
0.0
 11
33.92215714766548
 21
123.8807196267651
 31
0.0
  0
LINE
  5
E77
  8
0
 10
19.19972528332994
 20
115.3807196267651
 30
0.0
 11
29.01467985955367
 21
115.3807196267651
 31
0.0
  0
CIRCLE
  5
E78
  8
3
 10
24.107202571441832
 20
123.8807196267651
 30
0.0
 40
4.1879999999999979
  0
CIRCLE
  5
E79
  8
0
 10
24.107202571441832
 20
123.8807196267651
 30
0.0
 40
5.0
  0
LINE
  5
E7A
  8
1
 10
43.107202571441768
 20
123.8807196267651
 30
0.0
 11
5.1072025714418867
 21
123.8807196267651
 31
0.0
  0
LINE
  5
E7B
  8
1
 10
24.107202571441832
 20
142.880719626765
 30
0.0
 11
24.107202571441832
 21
104.8807196267651
 31
0.0
  0
ARC
  5
E91
  8
0
 10
81.477452740622525
 20
56.174549049035242
 30
0.0
 40
12.275506638416489
 50
69.743841999604257
 51
110.2561580003957
  0
LINE
  5
E92
  8
0
 10
85.727452740622624
 20
68.450055687451751
 30
0.0
 11
85.477452740621473
 21
68.594393254749775
 31
0.0
  0
LINE
  5
E93
  8
0
 10
85.727452740622695
 20
60.738730822047607
 30
0.0
 11
85.477452740621544
 21
60.59439325474959
 31
0.0
  0
ARC
  5
E94
  8
0
 10
81.477452740622553
 20
73.014237460464059
 30
0.0
 40
12.275506638416489
 50
249.74384199960431
 51
290.25615800039583
  0
LINE
  5
E95
  8
0
 10
85.727452740622624
 20
68.450055687451751
 30
0.0
 11
85.727452740622539
 21
60.738730822047607
 31
0.0
  0
LINE
  5
E96
  8
0
 10
77.227452740622525
 20
67.690866308897398
 30
0.0
 11
77.227452740622553
 21
61.497920200601683
 31
0.0
  0
LINE
  5
E97
  8
0
 10
68.727452740622525
 20
68.450055687451751
 30
0.0
 11
68.727452740622567
 21
60.738730822047607
 31
0.0
  0
LINE
  5
E98
  8
0
 10
68.727452740622567
 20
60.738730822047607
 30
0.0
 11
68.977452740623605
 21
60.59439325474959
 31
0.0
  0
ARC
  5
E99
  8
0
 10
72.977452740622553
 20
73.014237460464059
 30
0.0
 40
12.275506638416489
 50
249.74384199960431
 51
290.25615800039583
  0
LINE
  5
E9A
  8
0
 10
68.727452740622525
 20
68.450055687451751
 30
0.0
 11
68.977452740623548
 21
68.594393254749775
 31
0.0
  0
ARC
  5
E9B
  8
0
 10
72.977452740622525
 20
56.174549049035242
 30
0.0
 40
12.275506638416489
 50
69.743841999604257
 51
110.2561580003957
  0
LINE
  5
E9C
  8
0
 10
85.477452740621473
 20
68.594393254749775
 30
0.0
 11
68.977452740623548
 21
68.594393254749775
 31
0.0
  0
LINE
  5
E9D
  8
0
 10
68.977452740622553
 20
60.594393254750223
 30
0.0
 11
85.477452740622553
 21
60.594393254750223
 31
0.0
  0
LINE
  5
E9E
  8
0
 10
72.227452740622553
 20
90.094393254750344
 30
0.0
 11
82.227452740622553
 21
90.094393254750187
 31
0.0
  0
LINE
  5
E9F
  8
3
 10
81.415452740622555
 20
50.59439325474986
 30
0.0
 11
82.227452740622454
 21
49.187967999004087
 31
0.0
  0
LINE
  5
EA0
  8
3
 10
73.039452740622451
 20
50.59439325474986
 30
0.0
 11
72.227452740622454
 21
49.187967999004087
 31
0.0
  0
LINE
  5
EA1
  8
0
 10
72.227452740622553
 20
50.59439325474986
 30
0.0
 11
82.227452740622553
 21
50.594393254749761
 31
0.0
  0
LINE
  5
EA2
  8
0
 10
80.727452740622539
 20
91.594393254750202
 30
0.0
 11
82.227452740622553
 21
90.094393254750187
 31
0.0
  0
LINE
  5
EA3
  8
0
 10
72.227452740622553
 20
90.094393254750344
 30
0.0
 11
73.727452740622553
 21
91.594393254750301
 31
0.0
  0
LINE
  5
EA4
  8
3
 10
73.039452740622451
 20
50.594393254749811
 30
0.0
 11
73.039452740622565
 21
60.594393254750223
 31
0.0
  0
LINE
  5
EA5
  8
3
 10
81.415452740622797
 20
50.59439325474969
 30
0.0
 11
81.415452740622797
 21
60.594393254750223
 31
0.0
  0
LINE
  5
EA6
  8
0
 10
73.727452740622553
 20
91.594393254750301
 30
0.0
 11
80.727452740622539
 21
91.594393254750202
 31
0.0
  0
LINE
  5
EA7
  8
0
 10
72.227452740622553
 20
48.594393254749711
 30
0.0
 11
72.227452740622553
 21
60.594393254750223
 31
0.0
  0
LINE
  5
EA8
  8
0
 10
82.227452740622553
 20
48.594393254749711
 30
0.0
 11
82.227452740622553
 21
60.594393254750223
 31
0.0
  0
LINE
  5
EA9
  8
3
 10
81.415452740622726
 20
68.594393254749775
 30
0.0
 11
81.415452740622655
 21
90.906393254750185
 31
0.0
  0
LINE
  5
EAA
  8
0
 10
82.227452740622525
 20
68.594393254749775
 30
0.0
 11
82.227452740622553
 21
90.094393254750187
 31
0.0
  0
LINE
  5
EAB
  8
0
 10
72.227452740622525
 20
68.594393254749775
 30
0.0
 11
72.227452740622553
 21
90.094393254750344
 31
0.0
  0
LINE
  5
EAC
  8
3
 10
73.039452740622423
 20
68.594393254749775
 30
0.0
 11
73.039452740622451
 21
90.906393254750199
 31
0.0
  0
LINE
  5
EAD
  8
0
 10
19.10720257144197
 20
68.594393254749747
 30
0.0
 11
19.10720257144197
 21
90.094393254750045
 31
0.0
  0
LINE
  5
EAE
  8
3
 10
19.919202571441868
 20
68.594393254749747
 30
0.0
 11
19.919202571441868
 21
90.906393254749929
 31
0.0
  0
LINE
  5
EAF
  8
0
 10
29.10720257144197
 20
68.594393254749662
 30
0.0
 11
29.10720257144197
 21
90.094393254749932
 31
0.0
  0
LINE
  5
EB0
  8
3
 10
28.295202571442019
 20
68.594393254749662
 30
0.0
 11
28.295202571442019
 21
90.906393254749887
 31
0.0
  0
LINE
  5
EB1
  8
0
 10
19.107202571441931
 20
90.094393254750045
 30
0.0
 11
29.107202571441949
 21
90.094393254749932
 31
0.0
  0
LINE
  5
EB2
  8
3
 10
28.295202571442019
 20
50.594393254750209
 30
0.0
 11
29.10720257144192
 21
49.187967999004393
 31
0.0
  0
LINE
  5
EB3
  8
3
 10
19.91920257144184
 20
50.594393254750209
 30
0.0
 11
19.10720257144191
 21
49.187967999004393
 31
0.0
  0
LINE
  5
EB4
  8
0
 10
19.107202571441931
 20
50.594393254750209
 30
0.0
 11
29.107202571441949
 21
50.594393254750088
 31
0.0
  0
LINE
  5
EB5
  8
0
 10
27.60720257144197
 20
91.594393254749932
 30
0.0
 11
29.10720257144197
 21
90.094393254749932
 31
0.0
  0
LINE
  5
EB6
  8
0
 10
19.10720257144197
 20
90.094393254750045
 30
0.0
 11
20.60720257144197
 21
91.594393254750045
 31
0.0
  0
LINE
  5
EB7
  8
0
 10
19.10720257144191
 20
48.594393254749868
 30
0.0
 11
19.10720257144197
 21
60.594393254749917
 31
0.0
  0
LINE
  5
EB8
  8
3
 10
19.919202571441868
 20
50.594393254750209
 30
0.0
 11
19.919202571441868
 21
60.594393254749917
 31
0.0
  0
LINE
  5
EB9
  8
3
 10
28.295202571442051
 20
50.594393254750088
 30
0.0
 11
28.295202571442079
 21
60.594393254749917
 31
0.0
  0
LINE
  5
EBA
  8
0
 10
29.10720257144192
 20
48.594393254749811
 30
0.0
 11
29.10720257144192
 21
60.594393254749917
 31
0.0
  0
LINE
  5
EBB
  8
0
 10
20.60720257144197
 20
91.594393254750045
 30
0.0
 11
27.60720257144197
 21
91.594393254749932
 31
0.0
  0
LINE
  5
EBC
  8
0
 10
32.357202571442841
 20
60.594393254749917
 30
0.0
 11
15.857202571442141
 21
60.594393254749917
 31
0.0
  0
LINE
  5
EBD
  8
0
 10
15.85720257144248
 20
68.594393254749832
 30
0.0
 11
32.35720257144277
 21
68.59439325474959
 31
0.0
  0
ARC
  5
EBE
  8
0
 10
31.468418503610231
 20
64.105157015128199
 30
0.0
 40
4.3448986723233833
 50
64.384247467891285
 51
124.3842474680048
  0
LINE
  5
EBF
  8
0
 10
33.922157147666042
 20
67.690866308897611
 30
0.0
 11
32.3572025714425
 21
68.594393254749832
 31
0.0
  0
LINE
  5
EC0
  8
0
 10
33.922157147666042
 20
61.497920200601897
 30
0.0
 11
32.3572025714425
 21
60.59439325474969
 31
0.0
  0
ARC
  5
EC1
  8
0
 10
31.468418503610231
 20
65.083629494371309
 30
0.0
 40
4.3448986723233833
 50
235.6157525319951
 51
295.61575253210867
  0
LINE
  5
EC2
  8
0
 10
33.922157147666042
 20
67.690866308897569
 30
0.0
 11
33.922157147666042
 21
61.497920200601961
 31
0.0
  0
LINE
  5
EC3
  8
0
 10
29.014679859555319
 20
67.690866308897611
 30
0.0
 11
29.01467985955469
 21
61.49792020060174
 31
0.0
  0
LINE
  5
EC4
  8
0
 10
19.199725283329649
 20
67.690866308897611
 30
0.0
 11
19.199725283330281
 21
61.49792020060174
 31
0.0
  0
LINE
  5
EC5
  8
0
 10
14.29224799521892
 20
67.690866308897569
 30
0.0
 11
14.29224799521892
 21
61.497920200601961
 31
0.0
  0
ARC
  5
EC6
  8
0
 10
24.10720257144197
 20
76.979541443514549
 30
0.0
 40
16.24081062146659
 50
252.41204622602669
 51
287.5879537739724
  0
ARC
  5
EC7
  8
0
 10
16.745986639274751
 20
65.083629494371309
 30
0.0
 40
4.3448986723233833
 50
244.3842474678913
 51
304.38424746800479
  0
LINE
  5
EC8
  8
0
 10
14.29224799521892
 20
61.497920200601897
 30
0.0
 11
15.85720257144248
 21
60.59439325474969
 31
0.0
  0
LINE
  5
EC9
  8
0
 10
14.29224799521892
 20
67.690866308897611
 30
0.0
 11
15.85720257144248
 21
68.594393254749832
 31
0.0
  0
ARC
  5
ECA
  8
0
 10
24.10720257144197
 20
52.209245065984959
 30
0.0
 40
16.24081062146659
 50
72.412046226026817
 51
107.5879537739724
  0
ARC
  5
ECB
  8
0
 10
16.745986639274751
 20
64.105157015128199
 30
0.0
 40
4.3448986723233833
 50
55.615752531995213
 51
115.6157525321086
  0
CIRCLE
  5
F0B
  8
0
 10
24.107202571441832
 20
123.8807196267651
 30
0.0
 40
15.99999999999994
  0
CIRCLE
  5
F0C
  8
0
 10
24.107202571441832
 20
123.8807196267651
 30
0.0
 40
11.822172845682021
  0
CIRCLE
  5
F0D
  8
0
 10
24.107202571441832
 20
123.8807196267651
 30
0.0
 40
10.999999999999901
  0
LINE
  5
F0E
  8
1
 10
24.10720257144181
 20
20.594393254750109
 30
0.0
 11
24.10720257144192
 21
94.594393254749988
 31
0.0
  0
LINE
  5
F0F
  8
1
 10
77.227452740622454
 20
20.594393254750109
 30
0.0
 11
77.227452740622553
 21
94.362693742588334
 31
0.0
  0
LINE
  5
118B
  8
0
 10
35.92937541712385
 20
33.594393254750123
 30
0.0
 11
35.107202571441952
 21
38.594393254750123
 31
0.0
  0
LINE
  5
118C
  8
0
 10
40.107202571441938
 20
28.594393254750109
 30
0.0
 11
35.92937541712385
 21
33.594393254750123
 31
0.0
  0
LINE
  5
118D
  8
0
 10
39.607202571441952
 20
23.594393254750109
 30
0.0
 11
40.107202571441938
 21
24.094393254750109
 31
0.0
  0
LINE
  5
118E
  8
0
 10
8.1072025714419453
 20
24.094393254750109
 30
0.0
 11
8.6072025714419453
 21
23.594393254750109
 31
0.0
  0
LINE
  5
1191
  8
0
 10
35.107202571441952
 20
38.594393254750123
 30
0.0
 11
13.10720257144194
 21
38.594393254750109
 31
0.0
  0
LINE
  5
1192
  8
0
 10
40.107202571441938
 20
28.594393254750109
 30
0.0
 11
8.1072025714419453
 21
28.594393254750109
 31
0.0
  0
LINE
  5
1193
  8
0
 10
39.607202571441952
 20
23.594393254750109
 30
0.0
 11
8.6072025714419453
 21
23.594393254750109
 31
0.0
  0
LINE
  5
1195
  8
0
 10
40.107202571441938
 20
24.094393254750109
 30
0.0
 11
40.107202571441938
 21
28.594393254750202
 31
0.0
  0
LINE
  5
1196
  8
0
 10
8.1072025714419453
 20
24.094393254750109
 30
0.0
 11
8.1072025714419453
 21
28.594393254750202
 31
0.0
  0
LINE
  5
1197
  8
0
 10
12.28502972576004
 20
33.594393254750123
 30
0.0
 11
35.92937541712385
 21
33.594393254750123
 31
0.0
  0
LINE
  5
1198
  8
0
 10
12.28502972576004
 20
33.594393254750123
 30
0.0
 11
13.10720257144194
 21
38.594393254750123
 31
0.0
  0
LINE
  5
1199
  8
0
 10
8.1072025714419453
 20
28.594393254750109
 30
0.0
 11
12.28502972576004
 21
33.594393254750123
 31
0.0
  0
ARC
  5
119A
  8
0
 10
24.10720257144213
 20
35.264266235827918
 30
0.0
 40
7.0
 50
28.407049271739329
 51
38.213210701737118
  0
ARC
  5
119B
  8
0
 10
24.10720257144213
 20
35.264266235827918
 30
0.0
 40
7.0
 50
141.7867892982629
 51
151.59295072826049
  0
LINE
  5
119C
  8
0
 10
29.607202571442119
 20
39.59439325475013
 30
0.0
 11
29.607202571442119
 21
43.59439325475013
 31
0.0
  0
LINE
  5
119D
  8
0
 10
18.607202571442109
 20
39.59439325475013
 30
0.0
 11
18.607202571442109
 21
43.59439325475013
 31
0.0
  0
LINE
  5
119E
  8
0
 10
29.607202571442119
 20
39.59439325475013
 30
0.0
 11
18.607202571442109
 21
39.59439325475013
 31
0.0
  0
LINE
  5
119F
  8
0
 10
24.107202571442009
 20
47.813738015320681
 30
0.0
 11
24.10720257144197
 21
44.375048494179552
 31
0.0
  0
LINE
  5
11A0
  8
0
 10
17.107202571441999
 20
48.438952797659873
 30
0.0
 11
17.107202571441999
 21
43.749833711840331
 31
0.0
  0
LINE
  5
11A1
  8
0
 10
31.107202571441999
 20
48.438952797659873
 30
0.0
 11
31.107202571441999
 21
43.749833711840331
 31
0.0
  0
LINE
  5
11A2
  8
0
 10
30.837971802209982
 20
48.59439325475013
 30
0.0
 11
17.376433340673991
 21
48.59439325475013
 31
0.0
  0
ARC
  5
11A3
  8
0
 10
20.607202571442119
 20
38.329712036622468
 30
0.0
 40
10.10924076103746
 50
69.743841999583211
 51
110.2561580004167
  0
LINE
  5
11A4
  8
0
 10
17.107202571441999
 20
48.438952797659873
 30
0.0
 11
17.376433340673991
 21
48.59439325475013
 31
0.0
  0
LINE
  5
11A5
  8
0
 10
31.107202571441999
 20
48.438952797659873
 30
0.0
 11
30.837971802209982
 21
48.59439325475013
 31
0.0
  0
ARC
  5
11A6
  8
0
 10
27.607202571441888
 20
38.329712036622468
 30
0.0
 40
10.10924076103746
 50
69.743841999583211
 51
110.2561580004167
  0
LINE
  5
11A7
  8
0
 10
30.837971802209982
 20
43.59439325475013
 30
0.0
 11
17.376433340673991
 21
43.59439325475013
 31
0.0
  0
ARC
  5
11A8
  8
0
 10
20.607202571442119
 20
53.859074472877772
 30
0.0
 40
10.10924076103746
 50
249.7438419995832
 51
290.2561580004168
  0
LINE
  5
11A9
  8
0
 10
17.107202571441999
 20
43.749833711840331
 30
0.0
 11
17.376433340673991
 21
43.59439325475013
 31
0.0
  0
LINE
  5
11AA
  8
0
 10
31.107202571441999
 20
43.749833711840331
 30
0.0
 11
30.837971802209982
 21
43.59439325475013
 31
0.0
  0
ARC
  5
11AB
  8
0
 10
27.607202571441888
 20
53.859074472877772
 30
0.0
 40
10.10924076103746
 50
249.7438419995832
 51
290.2561580004168
  0
LINE
  5
11AC
  8
0
 10
82.727452740622724
 20
39.59439325475013
 30
0.0
 11
71.727452740622724
 21
39.59439325475013
 31
0.0
  0
LINE
  5
11AD
  8
0
 10
71.727452740622724
 20
39.59439325475013
 30
0.0
 11
71.727452740622724
 21
43.59439325475013
 31
0.0
  0
LINE
  5
11AE
  8
0
 10
82.727452740622724
 20
39.59439325475013
 30
0.0
 11
82.727452740622724
 21
43.59439325475013
 31
0.0
  0
ARC
  5
11AF
  8
0
 10
77.227452740622724
 20
35.264266235827918
 30
0.0
 40
7.0
 50
141.7867892982629
 51
151.59295072826049
  0
ARC
  5
11B0
  8
0
 10
77.227452740622724
 20
35.264266235827918
 30
0.0
 40
7.0
 50
28.407049271739361
 51
38.213210701737111
  0
LINE
  5
11B1
  8
0
 10
61.227452740622567
 20
28.594393254750109
 30
0.0
 11
65.405279894940648
 21
33.594393254750123
 31
0.0
  0
LINE
  5
11B2
  8
0
 10
65.405279894940648
 20
33.594393254750123
 30
0.0
 11
66.227452740622567
 21
38.594393254750123
 31
0.0
  0
LINE
  5
11B3
  8
0
 10
65.405279894940648
 20
33.594393254750123
 30
0.0
 11
89.049625586304458
 21
33.594393254750123
 31
0.0
  0
LINE
  5
11B4
  8
0
 10
61.227452740622532
 20
24.094393254750109
 30
0.0
 11
61.227452740622532
 21
28.594393254750202
 31
0.0
  0
LINE
  5
11B5
  8
0
 10
93.227452740622539
 20
24.094393254750109
 30
0.0
 11
93.227452740622539
 21
28.594393254750202
 31
0.0
  0
LINE
  5
11B7
  8
0
 10
92.727452740622539
 20
23.594393254750109
 30
0.0
 11
61.727452740622539
 21
23.594393254750109
 31
0.0
  0
LINE
  5
11B8
  8
0
 10
93.227452740622539
 20
28.594393254750109
 30
0.0
 11
61.227452740622539
 21
28.594393254750109
 31
0.0
  0
LINE
  5
11B9
  8
0
 10
88.227452740622539
 20
38.594393254750123
 30
0.0
 11
66.227452740622567
 21
38.594393254750109
 31
0.0
  0
LINE
  5
11BC
  8
0
 10
61.227452740622532
 20
24.094393254750109
 30
0.0
 11
61.727452740622539
 21
23.594393254750109
 31
0.0
  0
LINE
  5
11BD
  8
0
 10
92.727452740622539
 20
23.594393254750109
 30
0.0
 11
93.227452740622539
 21
24.094393254750109
 31
0.0
  0
LINE
  5
11BE
  8
0
 10
93.227452740622539
 20
28.594393254750109
 30
0.0
 11
89.049625586304458
 21
33.594393254750123
 31
0.0
  0
LINE
  5
11BF
  8
0
 10
89.049625586304458
 20
33.594393254750123
 30
0.0
 11
88.227452740622539
 21
38.594393254750123
 31
0.0
  0
LINE
  5
11C0
  8
0
 10
83.958221971390444
 20
43.594393254750251
 30
0.0
 11
70.496683509854705
 21
43.594393254750251
 31
0.0
  0
LINE
  5
11C1
  8
0
 10
70.49668350985327
 20
48.59439325475013
 30
0.0
 11
83.958221971390245
 21
48.59439325475013
 31
0.0
  0
ARC
  5
11C2
  8
0
 10
83.289630567113434
 20
44.860800949867439
 30
0.0
 40
3.5781518477924039
 50
64.384247467826086
 51
124.3842474680382
  0
LINE
  5
11C3
  8
0
 10
85.310356509277256
 20
47.813738015320602
 30
0.0
 11
83.958221971390444
 21
48.59439325475013
 31
0.0
  0
LINE
  5
11C4
  8
0
 10
85.310356509277256
 20
44.375048494179801
 30
0.0
 11
83.958221971390444
 21
43.594393254750251
 31
0.0
  0
ARC
  5
11C5
  8
0
 10
83.289630567113434
 20
47.327985559632921
 30
0.0
 40
3.5781518477924039
 50
235.61575253196179
 51
295.61575253217387
  0
LINE
  5
11C6
  8
0
 10
85.310356509277213
 20
47.81373801532061
 30
0.0
 11
85.310356509277256
 21
44.375048494179801
 31
0.0
  0
LINE
  5
11C7
  8
0
 10
81.268904624948092
 20
47.813738015321121
 30
0.0
 11
81.268904624949869
 21
44.375048494181463
 31
0.0
  0
LINE
  5
11C8
  8
0
 10
73.186000856296815
 20
47.81373801531943
 30
0.0
 11
73.186000856295067
 21
44.375048494181463
 31
0.0
  0
LINE
  5
11C9
  8
0
 10
69.14454897196768
 20
47.813738015320602
 30
0.0
 11
69.14454897196768
 21
44.375048494179801
 31
0.0
  0
ARC
  5
11CA
  8
0
 10
77.227452740623448
 20
57.124618929494247
 30
0.0
 40
13.374785217653811
 50
252.4120462259954
 51
287.58795377400293
  0
ARC
  5
11CB
  8
0
 10
71.165274914131487
 20
47.327985559632921
 30
0.0
 40
3.5781518477924039
 50
244.3842474678261
 51
304.38424746803821
  0
LINE
  5
11CC
  8
0
 10
69.14454897196768
 20
44.375048494179801
 30
0.0
 11
70.496683509854492
 21
43.594393254750251
 31
0.0
  0
LINE
  5
11CD
  8
0
 10
69.14454897196768
 20
47.813738015320602
 30
0.0
 11
70.496683509854492
 21
48.59439325475013
 31
0.0
  0
ARC
  5
11CE
  8
0
 10
77.227452740623448
 20
35.064167580006099
 30
0.0
 40
13.374785217653811
 50
72.412046225997088
 51
107.5879537740046
  0
ARC
  5
11CF
  8
0
 10
71.165274914131487
 20
44.860800949867439
 30
0.0
 40
3.5781518477924039
 50
55.615752531961753
 51
115.6157525321739
  0
TEXT
  5
15BF
  8
0
 62
     3
 10
0.0
 20
0.0
 30
0.0
 40
10.0
  1
LSA32S10A-SUS
  7
STANDARD1
  0
ENDSEC
  0
EOF
