  0
SECTION
  2
HEADER
  9
$ACADVER
  1
AC1009
  9
$INSBASE
 10
0.0
 20
0.0
 30
0.0
  9
$EXTMIN
 10
0.0
 20
-2.960436562073669
 30
0.0
  9
$EXTMAX
 10
110.5182540897075
 20
142.86501992129141
 30
0.0
  9
$LIMMIN
 10
0.0
 20
0.0
  9
$LIMMAX
 10
375.0
 20
270.0
  9
$ORTHOMODE
 70
     1
  9
$REGENMODE
 70
     1
  9
$FILLMODE
 70
     1
  9
$QTEXTMODE
 70
     0
  9
$MIRRTEXT
 70
     0
  9
$DRAGMODE
 70
     2
  9
$LTSCALE
 40
6.0
  9
$OSMODE
 70
  3071
  9
$ATTMODE
 70
     1
  9
$TEXTSIZE
 40
0.2
  9
$TRACEWID
 40
0.05
  9
$TEXTSTYLE
  7
STANDARD
  9
$CLAYER
  8
0
  9
$CELTYPE
  6
BYLAYER
  9
$CECOLOR
 62
   256
  9
$DIMSCALE
 40
1.0
  9
$DIMASZ
 40
3.0
  9
$DIMEXO
 40
1.0
  9
$DIMDLI
 40
6.0
  9
$DIMRND
 40
0.0
  9
$DIMDLE
 40
0.0
  9
$DIMEXE
 40
1.0
  9
$DIMTP
 40
495.0
  9
$DIMTM
 40
0.0
  9
$DIMTXT
 40
3.0
  9
$DIMCEN
 40
0.0
  9
$DIMTSZ
 40
0.0
  9
$DIMTOL
 70
     0
  9
$DIMLIM
 70
     0
  9
$DIMTIH
 70
     0
  9
$DIMTOH
 70
     0
  9
$DIMSE1
 70
     0
  9
$DIMSE2
 70
     0
  9
$DIMTAD
 70
     1
  9
$DIMZIN
 70
     0
  9
$DIMBLK
  1

  9
$DIMASO
 70
     0
  9
$DIMSHO
 70
     0
  9
$DIMPOST
  1

  9
$DIMAPOST
  1

  9
$DIMALT
 70
     0
  9
$DIMALTD
 70
     2
  9
$DIMALTF
 40
25.399999999999999
  9
$DIMLFAC
 40
1.0
  9
$DIMTOFL
 70
     1
  9
$DIMTVP
 40
0.0
  9
$DIMTIX
 70
     1
  9
$DIMSOXD
 70
     0
  9
$DIMSAH
 70
     0
  9
$DIMBLK1
  1

  9
$DIMBLK2
  1

  9
$DIMSTYLE
  2
STANDARD
  9
$DIMCLRD
 70
     0
  9
$DIMCLRE
 70
     0
  9
$DIMCLRT
 70
     4
  9
$DIMTFAC
 40
1.0
  9
$DIMGAP
 40
1.0
  9
$LUNITS
 70
     2
  9
$LUPREC
 70
     4
  9
$SKETCHINC
 40
0.1
  9
$FILLETRAD
 40
2.0
  9
$AUNITS
 70
     0
  9
$AUPREC
 70
     0
  9
$MENU
  1
C:\R13\WIN\SUPPORT\ACAD-I
  9
$ELEVATION
 40
0.0
  9
$PELEVATION
 40
0.0
  9
$THICKNESS
 40
0.0
  9
$LIMCHECK
 70
     0
  9
$BLIPMODE
 70
     0
  9
$CHAMFERA
 40
0.0
  9
$CHAMFERB
 40
0.0
  9
$SKPOLY
 70
     0
  9
$TDCREATE
 40
2450834.7095229169
  9
$TDUPDATE
 40
2456597.6066461108
  9
$TDINDWG
 40
0.0664884144
  9
$TDUSRTIMER
 40
2456548.2867813772
  9
$USRTIMER
 70
     1
  9
$ANGBASE
 50
0.0
  9
$ANGDIR
 70
     0
  9
$PDMODE
 70
     0
  9
$PDSIZE
 40
0.0
  9
$PLINEWID
 40
0.0
  9
$COORDS
 70
     1
  9
$SPLFRAME
 70
     0
  9
$SPLINETYPE
 70
     6
  9
$SPLINESEGS
 70
     8
  9
$ATTDIA
 70
     0
  9
$ATTREQ
 70
     1
  9
$HANDLING
 70
     1
  9
$HANDSEED
  5
F28
  9
$SURFTAB1
 70
     6
  9
$SURFTAB2
 70
     6
  9
$SURFTYPE
 70
     6
  9
$SURFU
 70
     6
  9
$SURFV
 70
     6
  9
$UCSNAME
  2

  9
$UCSORG
 10
0.0
 20
0.0
 30
0.0
  9
$UCSXDIR
 10
1.0
 20
0.0
 30
0.0
  9
$UCSYDIR
 10
0.0
 20
1.0
 30
0.0
  9
$PUCSNAME
  2

  9
$PUCSORG
 10
0.0
 20
0.0
 30
0.0
  9
$PUCSXDIR
 10
1.0
 20
0.0
 30
0.0
  9
$PUCSYDIR
 10
0.0
 20
1.0
 30
0.0
  9
$USERI1
 70
     4
  9
$USERI2
 70
     1
  9
$USERI3
 70
     0
  9
$USERI4
 70
     0
  9
$USERI5
 70
     0
  9
$USERR1
 40
1.0
  9
$USERR2
 40
3.0
  9
$USERR3
 40
3.0
  9
$USERR4
 40
3.0
  9
$USERR5
 40
10.0
  9
$WORLDVIEW
 70
     1
  9
$SHADEDGE
 70
     3
  9
$SHADEDIF
 70
    70
  9
$TILEMODE
 70
     1
  9
$MAXACTVP
 70
    16
  9
$PLIMCHECK
 70
     0
  9
$PEXTMIN
 10
1.0000000000000000E+020
 20
1.0000000000000000E+020
 30
1.0000000000000000E+020
  9
$PEXTMAX
 10
-1.0000000000000000E+020
 20
-1.0000000000000000E+020
 30
-1.0000000000000000E+020
  9
$PLIMMIN
 10
0.0
 20
0.0
  9
$PLIMMAX
 10
12.0
 20
9.0
  9
$UNITMODE
 70
     0
  9
$VISRETAIN
 70
     0
  9
$PLINEGEN
 70
     0
  9
$PSLTSCALE
 70
     0
  0
ENDSEC
  0
SECTION
  2
TABLES
  0
TABLE
  2
VPORT
 70
     1
  0
VPORT
  2
*ACTIVE
 70
     0
 10
0.0
 20
0.0
 11
1.0
 21
1.0
 12
187.49427839065231
 22
134.10366293909439
 13
0.0
 23
0.0
 14
10.0
 24
10.0
 15
10.0
 25
10.0
 16
0.0
 26
0.0
 36
1.0
 17
0.0
 27
0.0
 37
0.0
 40
277.29405978699532
 41
2.304913294797688
 42
50.0
 43
0.0
 44
0.0
 50
0.0
 51
0.0
 71
    16
 72
   100
 73
     1
 74
     0
 75
     0
 76
     0
 77
     0
 78
     0
  0
ENDTAB
  0
TABLE
  2
LTYPE
 70
     3
  0
LTYPE
  2
CONTINUOUS
 70
     0
  3
Solid Line
 72
    65
 73
     0
 40
0.0
  0
LTYPE
  2
PHANTOM2
 70
     0
  3
___ _ _ ___ _ _ ___ _ _ ___ _ _
 72
    65
 73
     6
 40
1.25
 49
0.625
 49
-0.125
 49
0.125
 49
-0.125
 49
0.125
 49
-0.125
  0
LTYPE
  2
CENTER
 70
     0
  3
____ _ ____ _ ____ _ ____ _ ____ _ ____ _ ____
 72
    65
 73
     4
 40
2.0
 49
1.25
 49
-0.25
 49
0.25
 49
-0.25
  0
ENDTAB
  0
TABLE
  2
LAYER
 70
     3
  0
LAYER
  2
0
 70
     0
 62
     7
  6
CONTINUOUS
  0
LAYER
  2
1
 70
     0
 62
     1
  6
CENTER
  0
LAYER
  2
3
 70
     0
 62
     3
  6
CONTINUOUS
  0
ENDTAB
  0
TABLE
  2
STYLE
 70
     3
  0
STYLE
  2
STANDARD
 70
     0
 40
0.0
 41
1.0
 50
0.0
 71
     0
 42
0.2
  3
SIMPLEX
  4
BIGFONT
  0
STYLE
  2
ANNOTATIVE
 70
     0
 40
0.0
 41
1.0
 50
0.0
 71
     0
 42
0.2
  3
txt
  4

  0
STYLE
  2
STANDARD1
 70
     0
 40
0.0
 41
1.0
 50
0.0
 71
     0
 42
3.0
  3
txt
  4

  0
ENDTAB
  0
TABLE
  2
VIEW
 70
     0
  0
ENDTAB
  0
TABLE
  2
UCS
 70
     0
  0
ENDTAB
  0
TABLE
  2
APPID
 70
    29
  0
APPID
  2
ACAD
 70
     0
  0
APPID
  2
ACADANNOTATIVE
 70
     0
  0
APPID
  2
GENIUS_GENOREF_13
 70
     0
  0
APPID
  2
GENIUS_GENOENT_13
 70
     0
  0
APPID
  2
GENIUS_GENBH_13
 70
     0
  0
APPID
  2
GENIUS_GENOBJ_13
 70
     0
  0
APPID
  2
GENIUS_GENODEF_13
 70
     0
  0
APPID
  2
GENIUS_GENOLIS_13
 70
     0
  0
APPID
  2
GENIUS_GENOBJ-NBEHI-BHF_13
 70
     0
  0
APPID
  2
GENIUS_GENOBJ-NBEHI-BHB_13
 70
     0
  0
APPID
  2
GENIUS_GENOBJ-F-PART_13
 70
     0
  0
APPID
  2
GENIUS_GEFSTDP_13
 70
     0
  0
APPID
  2
GENIUS_GENOBJ-N-RSSYM_13
 70
     0
  0
APPID
  2
GENIUS_GENSYMENT_13
 70
     0
  0
APPID
  2
GENIUS_GENOBJ-N-TIT_13
 70
     0
  0
APPID
  2
GENIUS_GENTITLE_13
 70
     0
  0
APPID
  2
GENIUS_GENZVEED_13
 70
     0
  0
APPID
  2
GENIUS_GENOBJ-N-LEADER_13
 70
     0
  0
APPID
  2
GENIUS_GENOBJ-N-FIL_13
 70
     0
  0
APPID
  2
GENIUS_GENOBJ-N-SEC_13
 70
     0
  0
APPID
  2
GENIUS_GENOBJ-N-CRS_13
 70
     0
  0
APPID
  2
GENIUS_GENOBJ-N-ZOO_13
 70
     0
  0
APPID
  2
GENIUS_GENZOO_13
 70
     0
  0
APPID
  2
GENIUS_GENOBJ-F-TOL_13
 70
     0
  0
APPID
  2
GENIUS_GENFIL_13
 70
     0
  0
APPID
  2
GENIUS_GENOBJ-N-CHA_13
 70
     0
  0
APPID
  2
ACAD_MLEADERVER
 70
     0
  0
APPID
  2
ACAD_EXEMPT_FROM_CAD_STANDARDS
 70
     0
  0
APPID
  2
ACAD_NAV_VCDISPLAY
 70
     0
  0
ENDTAB
  0
TABLE
  2
DIMSTYLE
 70
     2
  0
DIMSTYLE
  2
STANDARD
 70
     0
  3

  4

  5

  6

  7

 40
1.0
 41
0.18
 42
0.0625
 43
0.38
 44
0.18
 45
0.0
 46
0.0
 47
0.0
 48
0.0
140
0.18
141
0.09
142
0.0
143
25.399999999999999
144
1.0
145
0.0
146
1.0
147
0.09
 71
     0
 72
     0
 73
     1
 74
     1
 75
     0
 76
     0
 77
     0
 78
     0
170
     0
171
     2
172
     0
173
     0
174
     0
175
     0
176
     0
177
     0
178
     0
  0
DIMSTYLE
  2
ANNOTATIVE
 70
     0
  3

  4

  5

  6

  7

 40
1.0
 41
0.18
 42
0.0625
 43
0.38
 44
0.18
 45
0.0
 46
0.0
 47
0.0
 48
0.0
140
0.18
141
0.09
142
0.0
143
25.399999999999999
144
1.0
145
0.0
146
1.0
147
0.09
 71
     0
 72
     0
 73
     1
 74
     1
 75
     0
 76
     0
 77
     0
 78
     0
170
     0
171
     2
172
     0
173
     0
174
     0
175
     0
176
     0
177
     0
178
     0
  0
ENDTAB
  0
ENDSEC
  0
SECTION
  2
BLOCKS
  0
BLOCK
  8
0
  2
$MODEL_SPACE
 70
     0
 10
0.0
 20
0.0
 30
0.0
  3
$MODEL_SPACE
  1

  0
ENDBLK
  5
E4B
  8
0
  0
BLOCK
 67
     1
  8
0
  2
$PAPER_SPACE
 70
     0
 10
0.0
 20
0.0
 30
0.0
  3
$PAPER_SPACE
  1

  0
ENDBLK
  5
E47
 67
     1
  8
0
  0
ENDSEC
  0
SECTION
  2
ENTITIES
  0
LINE
  5
9FA
  8
1
 10
98.018254089707511
 20
97.078693549276224
 30
0.0
 11
98.018254089707511
 21
24.078693549276249
 31
0.0
  0
LINE
  5
9FB
  8
1
 10
44.89800392052679
 20
24.078693549276242
 30
0.0
 11
44.898003920527337
 21
97.078693549276224
 31
0.0
  0
LINE
  5
A02
  8
0
 10
32.898003920526783
 20
27.078693549276242
 30
0.0
 11
56.898003920526783
 21
27.078693549276242
 31
0.0
  0
LINE
  5
A03
  8
0
 10
32.39800392052679
 20
27.578693549276242
 30
0.0
 11
32.39800392052679
 21
31.078693549276242
 31
0.0
  0
LINE
  5
A04
  8
0
 10
57.39800392052679
 20
27.578693549276242
 30
0.0
 11
57.39800392052679
 21
31.07869354927621
 31
0.0
  0
LINE
  5
A05
  8
0
 10
32.898003920526783
 20
27.078693549276242
 30
0.0
 11
32.39800392052679
 21
27.578693549276242
 31
0.0
  0
LINE
  5
A06
  8
0
 10
57.39800392052679
 20
27.578693549276242
 30
0.0
 11
56.898003920526783
 21
27.078693549276242
 31
0.0
  0
LINE
  5
A07
  8
0
 10
36.398003920526783
 20
39.078693549276252
 30
0.0
 11
53.398003920526762
 21
39.078693549276252
 31
0.0
  0
LINE
  5
A08
  8
0
 10
32.39800392052679
 20
31.078693549276242
 30
0.0
 11
57.39800392052679
 21
31.078693549276242
 31
0.0
  0
LINE
  5
A09
  8
0
 10
57.39800392052679
 20
31.078693549276242
 30
0.0
 11
54.89800392052679
 21
33.578693549276238
 31
0.0
  0
LINE
  5
A0A
  8
0
 10
53.398003920526762
 20
39.078693549276252
 30
0.0
 11
54.89800392052679
 21
33.578693549276238
 31
0.0
  0
LINE
  5
A0B
  8
0
 10
32.39800392052679
 20
31.078693549276242
 30
0.0
 11
34.89800392052679
 21
33.578693549276238
 31
0.0
  0
LINE
  5
A0C
  8
0
 10
36.398003920526783
 20
39.078693549276252
 30
0.0
 11
34.89800392052679
 21
33.578693549276238
 31
0.0
  0
LINE
  5
A0D
  8
0
 10
54.89800392052679
 20
33.578693549276238
 30
0.0
 11
34.89800392052679
 21
33.578693549276238
 31
0.0
  0
ARC
  5
A0E
  8
0
 10
48.398003920526662
 20
56.343374767403873
 30
0.0
 40
10.10924076103746
 50
249.74384199958371
 51
290.25615800041641
  0
LINE
  5
A0F
  8
0
 10
51.898003920526783
 20
46.234134006366432
 30
0.0
 11
51.628773151294808
 21
46.078693549276238
 31
0.0
  0
LINE
  5
A10
  8
0
 10
37.898003920526783
 20
46.234134006366432
 30
0.0
 11
38.16723468975875
 21
46.078693549276238
 31
0.0
  0
ARC
  5
A11
  8
0
 10
41.398003920526889
 20
56.343374767403873
 30
0.0
 40
10.10924076103746
 50
249.74384199958371
 51
290.25615800041641
  0
LINE
  5
A12
  8
0
 10
51.628773151294808
 20
46.078693549276238
 30
0.0
 11
38.16723468975875
 21
46.078693549276238
 31
0.0
  0
ARC
  5
A13
  8
0
 10
48.398003920526662
 20
40.814012331148568
 30
0.0
 40
10.10924076103746
 50
69.743841999583651
 51
110.25615800041631
  0
LINE
  5
A14
  8
0
 10
51.898003920526783
 20
50.923253092185981
 30
0.0
 11
51.628773151294808
 21
51.078693549276238
 31
0.0
  0
LINE
  5
A15
  8
0
 10
37.898003920526783
 20
50.923253092185981
 30
0.0
 11
38.16723468975875
 21
51.078693549276238
 31
0.0
  0
ARC
  5
A16
  8
0
 10
41.398003920526889
 20
40.814012331148568
 30
0.0
 40
10.10924076103746
 50
69.743841999583651
 51
110.25615800041631
  0
LINE
  5
A17
  8
0
 10
51.628773151294808
 20
51.078693549276238
 30
0.0
 11
38.16723468975875
 21
51.078693549276238
 31
0.0
  0
LINE
  5
A18
  8
0
 10
51.898003920526783
 20
50.923253092185981
 30
0.0
 11
51.898003920526783
 21
46.234134006366432
 31
0.0
  0
LINE
  5
A19
  8
0
 10
37.898003920526783
 20
50.923253092185981
 30
0.0
 11
37.898003920526783
 21
46.234134006366432
 31
0.0
  0
LINE
  5
A1A
  8
0
 10
44.898003920526783
 20
50.298038309846788
 30
0.0
 11
44.898003920526783
 21
46.859348788705653
 31
0.0
  0
LINE
  5
A1B
  8
3
 10
48.221503920526857
 20
53.078693549276281
 30
0.0
 11
48.898003920526769
 21
51.906961177956191
 31
0.0
  0
LINE
  5
A1C
  8
3
 10
41.574503920526688
 20
53.078693549276281
 30
0.0
 11
40.898003920526762
 21
51.906961177956191
 31
0.0
  0
LINE
  5
A1D
  8
0
 10
40.898003920526762
 20
53.078693549276281
 30
0.0
 11
48.898003920526769
 21
53.078693549276238
 31
0.0
  0
LINE
  5
A1E
  8
0
 10
40.898003920526762
 20
92.878693549276292
 30
0.0
 11
48.898003920526769
 21
92.878693549276207
 31
0.0
  0
LINE
  5
A1F
  8
0
 10
47.698003920526851
 20
94.078693549276196
 30
0.0
 11
48.898003920526769
 21
92.878693549276207
 31
0.0
  0
LINE
  5
A20
  8
0
 10
40.898003920526762
 20
92.878693549276235
 30
0.0
 11
42.098003920526807
 21
94.078693549276238
 31
0.0
  0
LINE
  5
A21
  8
0
 10
40.898003920526762
 20
51.078693549276252
 30
0.0
 11
40.898003920526762
 21
64.078693549276181
 31
0.0
  0
LINE
  5
A22
  8
3
 10
41.574503920526688
 20
53.078693549276281
 30
0.0
 11
41.574503920526688
 21
64.078693549276181
 31
0.0
  0
LINE
  5
A23
  8
3
 10
48.221503920526857
 20
53.078693549276238
 30
0.0
 11
48.22150392052697
 21
64.07869354927621
 31
0.0
  0
LINE
  5
A24
  8
0
 10
48.898003920526769
 20
51.078693549276252
 30
0.0
 11
48.898003920526769
 21
64.078693549276181
 31
0.0
  0
LINE
  5
A25
  8
0
 10
42.098003920526807
 20
94.078693549276238
 30
0.0
 11
47.698003920526851
 21
94.078693549276196
 31
0.0
  0
LINE
  5
A26
  8
0
 10
50.398003920526889
 20
42.078693549276217
 30
0.0
 11
39.398003920526889
 21
42.078693549276217
 31
0.0
  0
LINE
  5
A27
  8
0
 10
39.398003920526889
 20
42.078693549276217
 30
0.0
 11
39.398003920526889
 21
46.078693549276238
 31
0.0
  0
LINE
  5
A28
  8
0
 10
50.398003920526889
 20
42.078693549276217
 30
0.0
 11
50.398003920526889
 21
46.078693549276238
 31
0.0
  0
ARC
  5
A29
  8
0
 10
44.898003920526882
 20
37.748566530354033
 30
0.0
 40
7.0
 50
141.78678929826171
 51
169.04615684538459
  0
ARC
  5
A2A
  8
0
 10
44.898003920526882
 20
37.748566530354033
 30
0.0
 40
7.0
 50
10.953843154615351
 51
38.213210701738483
  0
ARC
  5
A2B
  8
0
 10
39.268838795929348
 20
67.111786409028113
 30
0.0
 40
3.3225695729499729
 50
55.615752531961313
 51
115.6157525321742
  0
ARC
  5
A2C
  8
0
 10
44.898003920528808
 20
58.014912565585739
 30
0.0
 40
12.41944341639239
 50
72.412046225996122
 51
107.5879537740048
  0
LINE
  5
A2D
  8
0
 10
37.392450421063018
 20
69.853799398377362
 30
0.0
 11
38.648003920529277
 21
70.578693549276196
 31
0.0
  0
LINE
  5
A2E
  8
0
 10
37.392450421063018
 20
64.803587700175001
 30
0.0
 11
38.648003920529277
 21
64.078693549276181
 31
0.0
  0
ARC
  5
A2F
  8
0
 10
39.268838795929348
 20
67.545600689524235
 30
0.0
 40
3.3225695729499729
 50
244.3842474678257
 51
304.38424746803872
  0
ARC
  5
A30
  8
0
 10
44.898003920528808
 20
76.642474532966617
 30
0.0
 40
12.41944341639239
 50
252.4120462259952
 51
287.58795377400378
  0
LINE
  5
A31
  8
0
 10
37.392450421063018
 20
69.853799398377362
 30
0.0
 11
37.392450421063018
 21
64.803587700175001
 31
0.0
  0
LINE
  5
A32
  8
0
 10
41.145227170797277
 20
69.853799398377362
 30
0.0
 11
41.145227170795451
 21
64.803587700176536
 31
0.0
  0
LINE
  5
A33
  8
0
 10
48.650780670258541
 20
69.853799398377362
 30
0.0
 11
48.65078067026036
 21
64.803587700176536
 31
0.0
  0
LINE
  5
A34
  8
0
 10
52.403557419992801
 20
69.853799398377362
 30
0.0
 11
52.403557419992801
 21
64.803587700175001
 31
0.0
  0
ARC
  5
A35
  8
0
 10
50.527169045126463
 20
67.545600689524235
 30
0.0
 40
3.3225695729499729
 50
235.61575253196131
 51
295.61575253217421
  0
LINE
  5
A36
  8
0
 10
52.403557419992801
 20
64.803587700175001
 30
0.0
 11
51.148003920526541
 21
64.078693549276181
 31
0.0
  0
LINE
  5
A37
  8
0
 10
52.403557419992801
 20
69.853799398377362
 30
0.0
 11
51.148003920526541
 21
70.578693549276196
 31
0.0
  0
ARC
  5
A38
  8
0
 10
50.527169045126463
 20
67.111786409028113
 30
0.0
 40
3.3225695729499729
 50
64.384247467825773
 51
124.38424746803869
  0
LINE
  5
A39
  8
0
 10
38.64800392052814
 20
70.578693549276196
 30
0.0
 11
51.148003920526321
 21
70.578693549276196
 31
0.0
  0
LINE
  5
A3A
  8
0
 10
51.148003920526541
 20
64.078693549276181
 30
0.0
 11
38.648003920529511
 21
64.078693549276181
 31
0.0
  0
ARC
  5
A3B
  8
0
 10
98.018254089707625
 20
37.748566530354033
 30
0.0
 40
7.0
 50
10.953843154615351
 51
38.213210701738483
  0
ARC
  5
A3C
  8
0
 10
98.018254089707625
 20
37.748566530354033
 30
0.0
 40
7.0
 50
141.78678929826171
 51
169.04615684538459
  0
LINE
  5
A3D
  8
0
 10
103.5182540897076
 20
42.078693549276217
 30
0.0
 11
103.5182540897076
 21
46.078693549276352
 31
0.0
  0
LINE
  5
A3E
  8
0
 10
92.518254089707625
 20
42.078693549276217
 30
0.0
 11
92.518254089707625
 21
46.078693549276352
 31
0.0
  0
LINE
  5
A3F
  8
0
 10
103.5182540897076
 20
42.078693549276217
 30
0.0
 11
92.518254089707625
 21
42.078693549276217
 31
0.0
  0
LINE
  5
A40
  8
0
 10
95.218254089707571
 20
94.078693549276238
 30
0.0
 11
100.81825408970749
 21
94.078693549276196
 31
0.0
  0
LINE
  5
A41
  8
0
 10
102.0182540897075
 20
51.078693549276238
 30
0.0
 11
102.0182540897075
 21
64.078693549276181
 31
0.0
  0
LINE
  5
A42
  8
3
 10
101.34175408970771
 20
53.07869354927621
 30
0.0
 11
101.34175408970771
 21
64.078693549276181
 31
0.0
  0
LINE
  5
A43
  8
3
 10
94.694754089707416
 20
53.078693549276281
 30
0.0
 11
94.694754089707416
 21
64.078693549276181
 31
0.0
  0
LINE
  5
A44
  8
0
 10
94.018254089707511
 20
51.078693549276238
 30
0.0
 11
94.018254089707511
 21
64.078693549276181
 31
0.0
  0
LINE
  5
A45
  8
0
 10
94.018254089707511
 20
92.878693549276235
 30
0.0
 11
95.218254089707571
 21
94.078693549276238
 31
0.0
  0
LINE
  5
A46
  8
0
 10
100.81825408970749
 20
94.078693549276196
 30
0.0
 11
102.0182540897075
 21
92.878693549276207
 31
0.0
  0
LINE
  5
A47
  8
0
 10
94.018254089707511
 20
92.878693549276292
 30
0.0
 11
102.0182540897075
 21
92.878693549276207
 31
0.0
  0
LINE
  5
A48
  8
0
 10
94.018254089707511
 20
53.078693549276281
 30
0.0
 11
102.0182540897075
 21
53.078693549276238
 31
0.0
  0
LINE
  5
A49
  8
3
 10
94.694754089707416
 20
53.078693549276281
 30
0.0
 11
94.018254089707511
 21
51.906961177956191
 31
0.0
  0
LINE
  5
A4A
  8
3
 10
101.34175408970761
 20
53.078693549276281
 30
0.0
 11
102.0182540897075
 21
51.906961177956191
 31
0.0
  0
LINE
  5
A4B
  8
0
 10
108.0182540897075
 20
33.578693549276238
 30
0.0
 11
88.018254089707511
 21
33.578693549276238
 31
0.0
  0
LINE
  5
A4C
  8
0
 10
89.518254089707511
 20
39.078693549276252
 30
0.0
 11
88.018254089707511
 21
33.578693549276238
 31
0.0
  0
LINE
  5
A4D
  8
0
 10
85.518254089707483
 20
31.078693549276242
 30
0.0
 11
88.018254089707511
 21
33.578693549276238
 31
0.0
  0
LINE
  5
A4E
  8
0
 10
106.5182540897075
 20
39.078693549276252
 30
0.0
 11
108.0182540897075
 21
33.578693549276238
 31
0.0
  0
LINE
  5
A4F
  8
0
 10
110.5182540897075
 20
31.078693549276242
 30
0.0
 11
108.0182540897075
 21
33.578693549276238
 31
0.0
  0
LINE
  5
A50
  8
0
 10
85.518254089707483
 20
31.078693549276242
 30
0.0
 11
110.5182540897075
 21
31.078693549276242
 31
0.0
  0
LINE
  5
A51
  8
0
 10
89.518254089707511
 20
39.078693549276252
 30
0.0
 11
106.5182540897075
 21
39.078693549276252
 31
0.0
  0
LINE
  5
A52
  8
0
 10
110.5182540897075
 20
27.578693549276242
 30
0.0
 11
110.0182540897075
 21
27.078693549276242
 31
0.0
  0
LINE
  5
A53
  8
0
 10
86.018254089707526
 20
27.078693549276242
 30
0.0
 11
85.518254089707483
 21
27.578693549276242
 31
0.0
  0
LINE
  5
A54
  8
0
 10
110.5182540897075
 20
27.578693549276242
 30
0.0
 11
110.5182540897075
 21
31.07869354927621
 31
0.0
  0
LINE
  5
A55
  8
0
 10
85.518254089707483
 20
27.578693549276242
 30
0.0
 11
85.518254089707483
 21
31.078693549276242
 31
0.0
  0
LINE
  5
A56
  8
0
 10
86.018254089707526
 20
27.078693549276242
 30
0.0
 11
110.0182540897075
 21
27.078693549276242
 31
0.0
  0
LINE
  5
A57
  8
0
 10
104.5182540897077
 20
70.434355981978115
 30
0.0
 11
104.2682540897066
 21
70.578693549276196
 31
0.0
  0
ARC
  5
A58
  8
0
 10
101.2682540897077
 20
61.047203846729403
 30
0.0
 40
9.3871521352487513
 50
69.743841999583651
 51
110.25615800041631
  0
ARC
  5
A59
  8
0
 10
101.2682540897077
 20
73.610183251822946
 30
0.0
 40
9.3871521352487513
 50
249.74384199958371
 51
290.25615800041641
  0
LINE
  5
A5A
  8
0
 10
104.5182540897077
 20
64.223031116574234
 30
0.0
 11
104.2682540897066
 21
64.078693549276181
 31
0.0
  0
LINE
  5
A5B
  8
0
 10
104.5182540897077
 20
70.434355981978115
 30
0.0
 11
104.5182540897077
 21
64.223031116574234
 31
0.0
  0
LINE
  5
A5C
  8
0
 10
98.018254089707952
 20
69.853799398376964
 30
0.0
 11
98.018254089707952
 21
64.803587700175001
 31
0.0
  0
LINE
  5
A5D
  8
0
 10
91.518254089708194
 20
70.434355981978115
 30
0.0
 11
91.518254089708194
 21
64.223031116574234
 31
0.0
  0
LINE
  5
A5E
  8
0
 10
91.518254089708194
 20
64.223031116574234
 30
0.0
 11
91.768254089709316
 21
64.078693549276181
 31
0.0
  0
ARC
  5
A5F
  8
0
 10
94.768254089708194
 20
73.610183251822946
 30
0.0
 40
9.3871521352487513
 50
249.74384199958371
 51
290.25615800041641
  0
ARC
  5
A60
  8
0
 10
94.768254089708194
 20
61.047203846729403
 30
0.0
 40
9.3871521352487513
 50
69.743841999583651
 51
110.25615800041631
  0
LINE
  5
A61
  8
0
 10
91.518254089708194
 20
70.434355981978115
 30
0.0
 11
91.768254089709316
 21
70.578693549276196
 31
0.0
  0
LINE
  5
A62
  8
0
 10
91.768254089709316
 20
70.578693549276196
 30
0.0
 11
104.2682540897066
 21
70.578693549276196
 31
0.0
  0
LINE
  5
A63
  8
0
 10
104.2682540897066
 20
64.078693549276181
 30
0.0
 11
91.768254089709316
 21
64.078693549276181
 31
0.0
  0
ARC
  5
A64
  8
0
 10
91.956076263216573
 20
47.34510124439354
 30
0.0
 40
3.5781518477924039
 50
55.615752531961313
 51
115.6157525321742
  0
ARC
  5
A65
  8
0
 10
98.01825408970852
 20
37.548467874532207
 30
0.0
 40
13.374785217653811
 50
72.412046225996122
 51
107.5879537740048
  0
LINE
  5
A66
  8
0
 10
89.935350321052738
 20
50.298038309846703
 30
0.0
 11
91.287484858939592
 21
51.078693549276238
 31
0.0
  0
LINE
  5
A67
  8
0
 10
89.935350321052738
 20
46.859348788705901
 30
0.0
 11
91.287484858939592
 21
46.078693549276352
 31
0.0
  0
ARC
  5
A68
  8
0
 10
91.956076263216573
 20
49.812285854159029
 30
0.0
 40
3.5781518477924039
 50
244.3842474678257
 51
304.38424746803872
  0
ARC
  5
A69
  8
0
 10
98.01825408970852
 20
59.608919224020383
 30
0.0
 40
13.374785217653811
 50
252.4120462259952
 51
287.58795377400378
  0
LINE
  5
A6A
  8
0
 10
89.935350321052738
 20
50.298038309846703
 30
0.0
 11
89.935350321052738
 21
46.859348788705901
 31
0.0
  0
LINE
  5
A6B
  8
0
 10
93.976802205381873
 20
50.298038309845552
 30
0.0
 11
93.976802205380054
 21
46.859348788707557
 31
0.0
  0
LINE
  5
A6C
  8
0
 10
102.05970597403299
 20
50.298038309847243
 30
0.0
 11
102.0597059740349
 21
46.859348788707557
 31
0.0
  0
LINE
  5
A6D
  8
0
 10
106.1011578583623
 20
50.298038309846717
 30
0.0
 11
106.1011578583623
 21
46.859348788705901
 31
0.0
  0
ARC
  5
A6E
  8
0
 10
104.08043191619841
 20
49.812285854159029
 30
0.0
 40
3.5781518477924039
 50
235.61575253196131
 51
295.61575253217421
  0
LINE
  5
A6F
  8
0
 10
106.1011578583623
 20
46.859348788705901
 30
0.0
 11
104.7490233204755
 21
46.078693549276352
 31
0.0
  0
LINE
  5
A70
  8
0
 10
106.1011578583623
 20
50.298038309846703
 30
0.0
 11
104.7490233204755
 21
51.078693549276238
 31
0.0
  0
ARC
  5
A71
  8
0
 10
104.08043191619841
 20
47.34510124439354
 30
0.0
 40
3.5781518477924039
 50
64.384247467825773
 51
124.38424746803869
  0
LINE
  5
A72
  8
0
 10
91.287484858938356
 20
51.078693549276238
 30
0.0
 11
104.7490233204753
 21
51.078693549276238
 31
0.0
  0
LINE
  5
A73
  8
0
 10
104.7490233204755
 20
46.078693549276352
 30
0.0
 11
91.28748485893982
 21
46.078693549276352
 31
0.0
  0
LINE
  5
A74
  8
3
 10
101.34175408970771
 20
70.578693549276196
 30
0.0
 11
101.34175408970771
 21
93.555193549276126
 31
0.0
  0
LINE
  5
A75
  8
0
 10
102.0182540897075
 20
70.578693549276196
 30
0.0
 11
102.0182540897075
 21
92.878693549276207
 31
0.0
  0
LINE
  5
A76
  8
3
 10
94.694754089707416
 20
70.578693549276196
 30
0.0
 11
94.694754089707416
 21
93.555193549276126
 31
0.0
  0
LINE
  5
A77
  8
0
 10
94.018254089707511
 20
70.578693549276196
 30
0.0
 11
94.018254089707511
 21
92.878693549276235
 31
0.0
  0
LINE
  5
A78
  8
0
 10
48.898003920526769
 20
70.578693549276196
 30
0.0
 11
48.898003920526769
 21
92.878693549276207
 31
0.0
  0
LINE
  5
A79
  8
3
 10
48.22150392052697
 20
70.578693549276196
 30
0.0
 11
48.22150392052697
 21
93.555193549276126
 31
0.0
  0
LINE
  5
A7A
  8
3
 10
41.574503920526688
 20
70.578693549276196
 30
0.0
 11
41.574503920526688
 21
93.555193549276126
 31
0.0
  0
LINE
  5
A7B
  8
0
 10
40.898003920526762
 20
70.578693549276196
 30
0.0
 11
40.898003920526762
 21
92.878693549276235
 31
0.0
  0
CIRCLE
  5
A7C
  8
0
 10
44.898003920527451
 20
127.3650199212916
 30
0.0
 40
12.5
  0
LINE
  5
A7D
  8
0
 10
41.145227170795003
 20
120.8650199212918
 30
0.0
 11
48.650780670259898
 21
120.8650199212918
 31
0.0
  0
LINE
  5
A7E
  8
0
 10
48.650780670259898
 20
120.8650199212918
 30
0.0
 11
52.403557419992232
 21
127.3650199212916
 31
0.0
  0
LINE
  5
A7F
  8
0
 10
52.403557419992232
 20
127.3650199212916
 30
0.0
 11
48.650780670259898
 21
133.86501992129121
 31
0.0
  0
LINE
  5
A80
  8
0
 10
48.650780670259898
 20
133.86501992129121
 30
0.0
 11
41.145227170795003
 21
133.86501992129121
 31
0.0
  0
LINE
  5
A81
  8
0
 10
41.145227170795003
 20
133.86501992129121
 30
0.0
 11
37.392450421062676
 21
127.3650199212916
 31
0.0
  0
LINE
  5
A82
  8
0
 10
37.392450421062676
 20
127.3650199212916
 30
0.0
 11
41.145227170795003
 21
120.8650199212918
 31
0.0
  0
CIRCLE
  5
A83
  8
0
 10
44.898003920527451
 20
127.3650199212916
 30
0.0
 40
6.25
  0
CIRCLE
  5
A84
  8
3
 10
44.898003920527451
 20
127.3650199212916
 30
0.0
 40
3.3235000000000001
  0
CIRCLE
  5
A85
  8
0
 10
44.898003920527451
 20
127.3650199212916
 30
0.0
 40
4.0
  0
CIRCLE
  5
A86
  8
0
 10
44.898003920527337
 20
127.3650199212916
 30
0.0
 40
8.5000000000000284
  0
LINE
  5
A87
  8
1
 10
44.898003920527451
 20
142.86501992129141
 30
0.0
 11
44.898003920527451
 21
111.8650199212916
 31
0.0
  0
LINE
  5
A88
  8
1
 10
60.398003920527458
 20
127.3650199212916
 30
0.0
 11
29.398003920527461
 21
127.3650199212916
 31
0.0
  0
LINE
  5
C6C
  8
0
 10
37.898003920526783
 20
123.32356803696381
 30
0.0
 11
37.898003920526783
 21
126.4893755742755
 31
0.0
  0
LINE
  5
C6D
  8
0
 10
51.898003920526769
 20
123.323568036963
 30
0.0
 11
51.898003920526783
 21
126.4893755742731
 31
0.0
  0
LINE
  5
C72
  8
0
 10
44.898003920527451
 20
119.28211615263599
 30
0.0
 11
42.156334169723351
 21
120.8650199212918
 31
0.0
  0
LINE
  5
C73
  8
0
 10
51.898003920526769
 20
131.40647180561851
 30
0.0
 11
49.156334169725469
 21
132.98937557427271
 31
0.0
  0
LINE
  5
C74
  8
0
 10
44.898003920527451
 20
119.28211615263599
 30
0.0
 11
47.639673671331472
 21
120.8650199212918
 31
0.0
  0
LINE
  5
C75
  8
0
 10
37.898003920526783
 20
131.40647180561771
 30
0.0
 11
40.639673671329447
 21
132.98937557427271
 31
0.0
  0
LINE
  5
C76
  8
0
 10
47.639673671328708
 20
133.86501992129121
 30
0.0
 11
44.898003920527451
 21
135.4479236899455
 31
0.0
  0
LINE
  5
C77
  8
0
 10
51.898003920526783
 20
128.24066426831001
 30
0.0
 11
51.898003920526769
 21
131.40647180561851
 31
0.0
  0
LINE
  5
C78
  8
0
 10
49.156334169724083
 20
121.740664268308
 30
0.0
 11
51.898003920526769
 21
123.323568036963
 31
0.0
  0
LINE
  5
C79
  8
0
 10
40.639673671330883
 20
121.740664268308
 30
0.0
 11
37.898003920526783
 21
123.32356803696381
 31
0.0
  0
LINE
  5
C7A
  8
0
 10
37.898003920526783
 20
128.24066426830771
 30
0.0
 11
37.898003920526783
 21
131.40647180561771
 31
0.0
  0
LINE
  5
C7B
  8
0
 10
42.156334169726136
 20
133.86501992129121
 30
0.0
 11
44.898003920527451
 21
135.4479236899455
 31
0.0
  0
TEXT
  5
ECB
  8
0
 62
     3
 10
0.0
 20
0.0
 30
0.0
 40
10.0
  1
LSA25S8A-SUS
  7
STANDARD1
  0
ENDSEC
  0
EOF
