  0
SECTION
  2
HEADER
  9
$ACADVER
  1
AC1009
  9
$INSBASE
 10
0.0
 20
0.0
 30
0.0
  9
$EXTMIN
 10
0.0
 20
-2.960436562073669
 30
0.0
  9
$EXTMAX
 10
134.18451708900901
 20
282.69576170139987
 30
0.0
  9
$LIMMIN
 10
0.0
 20
0.0
  9
$LIMMAX
 10
375.0
 20
270.0
  9
$ORTHOMODE
 70
     1
  9
$REGENMODE
 70
     1
  9
$FILLMODE
 70
     1
  9
$QTEXTMODE
 70
     0
  9
$MIRRTEXT
 70
     0
  9
$DRAGMODE
 70
     2
  9
$LTSCALE
 40
6.0
  9
$OSMODE
 70
  3071
  9
$ATTMODE
 70
     1
  9
$TEXTSIZE
 40
0.2
  9
$TRACEWID
 40
0.05
  9
$TEXTSTYLE
  7
STANDARD
  9
$CLAYER
  8
0
  9
$CELTYPE
  6
BYLAYER
  9
$CECOLOR
 62
   256
  9
$DIMSCALE
 40
1.0
  9
$DIMASZ
 40
3.0
  9
$DIMEXO
 40
1.0
  9
$DIMDLI
 40
6.0
  9
$DIMRND
 40
0.0
  9
$DIMDLE
 40
0.0
  9
$DIMEXE
 40
1.0
  9
$DIMTP
 40
495.0
  9
$DIMTM
 40
0.0
  9
$DIMTXT
 40
3.0
  9
$DIMCEN
 40
0.0
  9
$DIMTSZ
 40
0.0
  9
$DIMTOL
 70
     0
  9
$DIMLIM
 70
     0
  9
$DIMTIH
 70
     0
  9
$DIMTOH
 70
     0
  9
$DIMSE1
 70
     0
  9
$DIMSE2
 70
     0
  9
$DIMTAD
 70
     1
  9
$DIMZIN
 70
     0
  9
$DIMBLK
  1

  9
$DIMASO
 70
     0
  9
$DIMSHO
 70
     0
  9
$DIMPOST
  1

  9
$DIMAPOST
  1

  9
$DIMALT
 70
     0
  9
$DIMALTD
 70
     2
  9
$DIMALTF
 40
25.399999999999999
  9
$DIMLFAC
 40
1.0
  9
$DIMTOFL
 70
     1
  9
$DIMTVP
 40
0.0
  9
$DIMTIX
 70
     1
  9
$DIMSOXD
 70
     0
  9
$DIMSAH
 70
     0
  9
$DIMBLK1
  1

  9
$DIMBLK2
  1

  9
$DIMSTYLE
  2
STANDARD
  9
$DIMCLRD
 70
     0
  9
$DIMCLRE
 70
     0
  9
$DIMCLRT
 70
     4
  9
$DIMTFAC
 40
1.0
  9
$DIMGAP
 40
1.0
  9
$LUNITS
 70
     2
  9
$LUPREC
 70
     4
  9
$SKETCHINC
 40
0.1
  9
$FILLETRAD
 40
2.0
  9
$AUNITS
 70
     0
  9
$AUPREC
 70
     0
  9
$MENU
  1
C:\R13\WIN\SUPPORT\ACAD-I
  9
$ELEVATION
 40
0.0
  9
$PELEVATION
 40
0.0
  9
$THICKNESS
 40
0.0
  9
$LIMCHECK
 70
     0
  9
$BLIPMODE
 70
     0
  9
$CHAMFERA
 40
0.0
  9
$CHAMFERB
 40
0.0
  9
$SKPOLY
 70
     0
  9
$TDCREATE
 40
2451961.6998977079
  9
$TDUPDATE
 40
2456597.606619745
  9
$TDINDWG
 40
0.0598720602
  9
$TDUSRTIMER
 40
2456548.2870121072
  9
$USRTIMER
 70
     1
  9
$ANGBASE
 50
0.0
  9
$ANGDIR
 70
     0
  9
$PDMODE
 70
     0
  9
$PDSIZE
 40
0.0
  9
$PLINEWID
 40
0.0
  9
$COORDS
 70
     1
  9
$SPLFRAME
 70
     0
  9
$SPLINETYPE
 70
     6
  9
$SPLINESEGS
 70
     8
  9
$ATTDIA
 70
     0
  9
$ATTREQ
 70
     1
  9
$HANDLING
 70
     1
  9
$HANDSEED
  5
1E76
  9
$SURFTAB1
 70
     6
  9
$SURFTAB2
 70
     6
  9
$SURFTYPE
 70
     6
  9
$SURFU
 70
     6
  9
$SURFV
 70
     6
  9
$UCSNAME
  2

  9
$UCSORG
 10
0.0
 20
0.0
 30
0.0
  9
$UCSXDIR
 10
1.0
 20
0.0
 30
0.0
  9
$UCSYDIR
 10
0.0
 20
1.0
 30
0.0
  9
$PUCSNAME
  2

  9
$PUCSORG
 10
0.0
 20
0.0
 30
0.0
  9
$PUCSXDIR
 10
1.0
 20
0.0
 30
0.0
  9
$PUCSYDIR
 10
0.0
 20
1.0
 30
0.0
  9
$USERI1
 70
     4
  9
$USERI2
 70
     1
  9
$USERI3
 70
     0
  9
$USERI4
 70
     0
  9
$USERI5
 70
     0
  9
$USERR1
 40
1.0
  9
$USERR2
 40
3.0
  9
$USERR3
 40
3.0
  9
$USERR4
 40
3.0
  9
$USERR5
 40
10.0
  9
$WORLDVIEW
 70
     1
  9
$SHADEDGE
 70
     3
  9
$SHADEDIF
 70
    70
  9
$TILEMODE
 70
     1
  9
$MAXACTVP
 70
    16
  9
$PLIMCHECK
 70
     0
  9
$PEXTMIN
 10
1.0000000000000000E+020
 20
1.0000000000000000E+020
 30
1.0000000000000000E+020
  9
$PEXTMAX
 10
-1.0000000000000000E+020
 20
-1.0000000000000000E+020
 30
-1.0000000000000000E+020
  9
$PLIMMIN
 10
0.0
 20
0.0
  9
$PLIMMAX
 10
12.0
 20
9.0
  9
$UNITMODE
 70
     0
  9
$VISRETAIN
 70
     0
  9
$PLINEGEN
 70
     0
  9
$PSLTSCALE
 70
     0
  0
ENDSEC
  0
SECTION
  2
TABLES
  0
TABLE
  2
VPORT
 70
     1
  0
VPORT
  2
*ACTIVE
 70
     0
 10
0.0
 20
0.0
 11
1.0
 21
1.0
 12
187.49427839065231
 22
140.48889050137851
 13
0.0
 23
0.0
 14
10.0
 24
10.0
 15
10.0
 25
10.0
 16
0.0
 26
0.0
 36
1.0
 17
0.0
 27
0.0
 37
0.0
 40
290.18819747910061
 41
2.304913294797688
 42
50.0
 43
0.0
 44
0.0
 50
0.0
 51
0.0
 71
    16
 72
   100
 73
     1
 74
     0
 75
     0
 76
     0
 77
     0
 78
     0
  0
ENDTAB
  0
TABLE
  2
LTYPE
 70
     3
  0
LTYPE
  2
CONTINUOUS
 70
     0
  3
Solid Line
 72
    65
 73
     0
 40
0.0
  0
LTYPE
  2
PHANTOM2
 70
     0
  3
___ _ _ ___ _ _ ___ _ _ ___ _ _
 72
    65
 73
     6
 40
1.25
 49
0.625
 49
-0.125
 49
0.125
 49
-0.125
 49
0.125
 49
-0.125
  0
LTYPE
  2
CENTER
 70
     0
  3
____ _ ____ _ ____ _ ____ _ ____ _ ____ _ ____
 72
    65
 73
     4
 40
2.0
 49
1.25
 49
-0.25
 49
0.25
 49
-0.25
  0
ENDTAB
  0
TABLE
  2
LAYER
 70
     3
  0
LAYER
  2
0
 70
     0
 62
     7
  6
CONTINUOUS
  0
LAYER
  2
1
 70
     0
 62
     1
  6
CENTER
  0
LAYER
  2
3
 70
     0
 62
     3
  6
CONTINUOUS
  0
ENDTAB
  0
TABLE
  2
STYLE
 70
     3
  0
STYLE
  2
STANDARD
 70
     0
 40
0.0
 41
1.0
 50
0.0
 71
     0
 42
0.2
  3
SIMPLEX
  4
BIGFONT
  0
STYLE
  2
ANNOTATIVE
 70
     0
 40
0.0
 41
1.0
 50
0.0
 71
     0
 42
0.2
  3
txt
  4

  0
STYLE
  2
STANDARD1
 70
     0
 40
0.0
 41
1.0
 50
0.0
 71
     0
 42
3.0
  3
txt
  4

  0
ENDTAB
  0
TABLE
  2
VIEW
 70
     0
  0
ENDTAB
  0
TABLE
  2
UCS
 70
     0
  0
ENDTAB
  0
TABLE
  2
APPID
 70
    29
  0
APPID
  2
ACAD
 70
     0
  0
APPID
  2
ACADANNOTATIVE
 70
     0
  0
APPID
  2
GENIUS_GENOREF_13
 70
     0
  0
APPID
  2
GENIUS_GENOENT_13
 70
     0
  0
APPID
  2
GENIUS_GENBH_13
 70
     0
  0
APPID
  2
GENIUS_GENOBJ_13
 70
     0
  0
APPID
  2
GENIUS_GENODEF_13
 70
     0
  0
APPID
  2
GENIUS_GENOLIS_13
 70
     0
  0
APPID
  2
GENIUS_GENOBJ-NBEHI-BHF_13
 70
     0
  0
APPID
  2
GENIUS_GENOBJ-NBEHI-BHB_13
 70
     0
  0
APPID
  2
GENIUS_GENOBJ-F-PART_13
 70
     0
  0
APPID
  2
GENIUS_GEFSTDP_13
 70
     0
  0
APPID
  2
GENIUS_GENOBJ-N-RSSYM_13
 70
     0
  0
APPID
  2
GENIUS_GENSYMENT_13
 70
     0
  0
APPID
  2
GENIUS_GENOBJ-N-TIT_13
 70
     0
  0
APPID
  2
GENIUS_GENTITLE_13
 70
     0
  0
APPID
  2
GENIUS_GENZVEED_13
 70
     0
  0
APPID
  2
GENIUS_GENOBJ-N-LEADER_13
 70
     0
  0
APPID
  2
GENIUS_GENOBJ-N-FIL_13
 70
     0
  0
APPID
  2
GENIUS_GENOBJ-N-SEC_13
 70
     0
  0
APPID
  2
GENIUS_GENOBJ-N-CRS_13
 70
     0
  0
APPID
  2
GENIUS_GENOBJ-N-ZOO_13
 70
     0
  0
APPID
  2
GENIUS_GENZOO_13
 70
     0
  0
APPID
  2
GENIUS_GENOBJ-F-TOL_13
 70
     0
  0
APPID
  2
GENIUS_GENFIL_13
 70
     0
  0
APPID
  2
GENIUS_GENOBJ-N-CHA_13
 70
     0
  0
APPID
  2
ACAD_MLEADERVER
 70
     0
  0
APPID
  2
ACAD_EXEMPT_FROM_CAD_STANDARDS
 70
     0
  0
APPID
  2
ACAD_NAV_VCDISPLAY
 70
     0
  0
ENDTAB
  0
TABLE
  2
DIMSTYLE
 70
     2
  0
DIMSTYLE
  2
STANDARD
 70
     0
  3

  4

  5

  6

  7

 40
1.0
 41
0.18
 42
0.0625
 43
0.38
 44
0.18
 45
0.0
 46
0.0
 47
0.0
 48
0.0
140
0.18
141
0.09
142
0.0
143
25.399999999999999
144
1.0
145
0.0
146
1.0
147
0.09
 71
     0
 72
     0
 73
     1
 74
     1
 75
     0
 76
     0
 77
     0
 78
     0
170
     0
171
     2
172
     0
173
     0
174
     0
175
     0
176
     0
177
     0
178
     0
  0
DIMSTYLE
  2
ANNOTATIVE
 70
     0
  3

  4

  5

  6

  7

 40
1.0
 41
0.18
 42
0.0625
 43
0.38
 44
0.18
 45
0.0
 46
0.0
 47
0.0
 48
0.0
140
0.18
141
0.09
142
0.0
143
25.399999999999999
144
1.0
145
0.0
146
1.0
147
0.09
 71
     0
 72
     0
 73
     1
 74
     1
 75
     0
 76
     0
 77
     0
 78
     0
170
     0
171
     2
172
     0
173
     0
174
     0
175
     0
176
     0
177
     0
178
     0
  0
ENDTAB
  0
ENDSEC
  0
SECTION
  2
BLOCKS
  0
BLOCK
  8
0
  2
$MODEL_SPACE
 70
     0
 10
0.0
 20
0.0
 30
0.0
  3
$MODEL_SPACE
  1

  0
ENDBLK
  5
1D99
  8
0
  0
BLOCK
 67
     1
  8
0
  2
$PAPER_SPACE
 70
     0
 10
0.0
 20
0.0
 30
0.0
  3
$PAPER_SPACE
  1

  0
ENDBLK
  5
1D95
 67
     1
  8
0
  0
ENDSEC
  0
SECTION
  2
ENTITIES
  0
LINE
  5
1A19
  8
0
 10
32.898003920526783
 20
27.078693549276242
 30
0.0
 11
56.898003920526783
 21
27.078693549276242
 31
0.0
  0
LINE
  5
1A1A
  8
0
 10
32.39800392052679
 20
27.578693549276242
 30
0.0
 11
32.39800392052679
 21
31.078693549276242
 31
0.0
  0
LINE
  5
1A1B
  8
0
 10
57.39800392052679
 20
27.578693549276242
 30
0.0
 11
57.39800392052679
 21
31.078693549276242
 31
0.0
  0
LINE
  5
1A1C
  8
0
 10
32.898003920526783
 20
27.078693549276242
 30
0.0
 11
32.39800392052679
 21
27.578693549276242
 31
0.0
  0
LINE
  5
1A1D
  8
0
 10
57.39800392052679
 20
27.578693549276242
 30
0.0
 11
56.898003920526783
 21
27.078693549276242
 31
0.0
  0
LINE
  5
1A1E
  8
0
 10
36.398003920526783
 20
39.078693549276252
 30
0.0
 11
53.398003920526762
 21
39.078693549276252
 31
0.0
  0
LINE
  5
1A1F
  8
0
 10
32.39800392052679
 20
31.078693549276242
 30
0.0
 11
57.39800392052679
 21
31.078693549276242
 31
0.0
  0
LINE
  5
1A20
  8
0
 10
57.39800392052679
 20
31.078693549276242
 30
0.0
 11
54.89800392052679
 21
33.578693549276238
 31
0.0
  0
LINE
  5
1A21
  8
0
 10
53.398003920526762
 20
39.078693549276252
 30
0.0
 11
54.89800392052679
 21
33.578693549276238
 31
0.0
  0
LINE
  5
1A22
  8
0
 10
32.39800392052679
 20
31.078693549276242
 30
0.0
 11
34.89800392052679
 21
33.578693549276238
 31
0.0
  0
LINE
  5
1A23
  8
0
 10
36.398003920526783
 20
39.078693549276252
 30
0.0
 11
34.89800392052679
 21
33.578693549276238
 31
0.0
  0
LINE
  5
1A24
  8
0
 10
54.89800392052679
 20
33.578693549276238
 30
0.0
 11
34.89800392052679
 21
33.578693549276238
 31
0.0
  0
LINE
  5
1A25
  8
0
 10
50.398003920526769
 20
42.078693549276217
 30
0.0
 11
39.398003920526783
 21
42.078693549276217
 31
0.0
  0
LINE
  5
1A26
  8
0
 10
39.398003920526783
 20
42.078693549276217
 30
0.0
 11
39.398003920526783
 21
45.078693549276011
 31
0.0
  0
LINE
  5
1A27
  8
0
 10
50.398003920526769
 20
42.078693549276217
 30
0.0
 11
50.398003920526769
 21
45.078693549276011
 31
0.0
  0
ARC
  5
1A28
  8
0
 10
44.898003920526783
 20
37.748566530354033
 30
0.0
 40
7.0
 50
141.78678929826171
 51
169.04615684538459
  0
ARC
  5
1A29
  8
0
 10
44.898003920526783
 20
37.748566530354033
 30
0.0
 40
7.0
 50
10.95384315461536
 51
38.21321070173849
  0
ARC
  5
1A2A
  8
0
 10
121.68451708900911
 20
37.748566530354033
 30
0.0
 40
7.0
 50
10.95384315461536
 51
38.21321070173849
  0
ARC
  5
1A2B
  8
0
 10
121.68451708900911
 20
37.748566530354033
 30
0.0
 40
7.0
 50
141.78678929826171
 51
169.04615684538459
  0
LINE
  5
1A2C
  8
0
 10
127.18451708900911
 20
42.078693549276217
 30
0.0
 11
127.18451708900911
 21
45.078693549276011
 31
0.0
  0
LINE
  5
1A2D
  8
0
 10
116.18451708900911
 20
42.078693549276217
 30
0.0
 11
116.18451708900911
 21
45.078693549276011
 31
0.0
  0
LINE
  5
1A2E
  8
0
 10
127.18451708900911
 20
42.078693549276217
 30
0.0
 11
116.18451708900911
 21
42.078693549276217
 31
0.0
  0
LINE
  5
1A2F
  8
0
 10
131.68451708900901
 20
33.578693549276238
 30
0.0
 11
111.68451708900911
 21
33.578693549276238
 31
0.0
  0
LINE
  5
1A30
  8
0
 10
113.18451708900911
 20
39.078693549276252
 30
0.0
 11
111.68451708900911
 21
33.578693549276238
 31
0.0
  0
LINE
  5
1A31
  8
0
 10
109.18451708900911
 20
31.078693549276242
 30
0.0
 11
111.68451708900911
 21
33.578693549276238
 31
0.0
  0
LINE
  5
1A32
  8
0
 10
130.18451708900901
 20
39.078693549276252
 30
0.0
 11
131.68451708900901
 21
33.578693549276238
 31
0.0
  0
LINE
  5
1A33
  8
0
 10
134.18451708900901
 20
31.078693549276242
 30
0.0
 11
131.68451708900901
 21
33.578693549276238
 31
0.0
  0
LINE
  5
1A34
  8
0
 10
109.18451708900911
 20
31.078693549276242
 30
0.0
 11
134.18451708900901
 21
31.078693549276242
 31
0.0
  0
LINE
  5
1A35
  8
0
 10
113.18451708900911
 20
39.078693549276252
 30
0.0
 11
130.18451708900901
 21
39.078693549276252
 31
0.0
  0
LINE
  5
1A36
  8
0
 10
134.18451708900901
 20
27.578693549276242
 30
0.0
 11
133.68451708900901
 21
27.078693549276242
 31
0.0
  0
LINE
  5
1A37
  8
0
 10
109.68451708900911
 20
27.078693549276242
 30
0.0
 11
109.18451708900911
 21
27.578693549276242
 31
0.0
  0
LINE
  5
1A38
  8
0
 10
134.18451708900901
 20
27.578693549276242
 30
0.0
 11
134.18451708900901
 21
31.078693549276242
 31
0.0
  0
LINE
  5
1A39
  8
0
 10
109.18451708900911
 20
27.578693549276242
 30
0.0
 11
109.18451708900911
 21
31.078693549276242
 31
0.0
  0
LINE
  5
1A3A
  8
0
 10
109.68451708900911
 20
27.078693549276242
 30
0.0
 11
133.68451708900901
 21
27.078693549276242
 31
0.0
  0
ARC
  5
1A3B
  8
0
 10
44.898003920527898
 20
267.19576170139987
 30
0.0
 40
12.5
 50
253.73979529168909
 51
286.26020470831071
  0
LINE
  5
1A3C
  8
1
 10
44.898003920527898
 20
282.69576170139987
 30
0.0
 11
44.898003920527898
 21
251.69576170139999
 31
0.0
  0
LINE
  5
1A4C
  8
0
 10
51.82620715080327
 20
279.19576170139987
 30
0.0
 11
37.969800690252562
 21
279.19576170139987
 31
0.0
  0
LINE
  5
1A4D
  8
0
 10
37.969800690252562
 20
279.19576170139987
 30
0.0
 11
31.041597459976732
 21
267.19576170139987
 31
0.0
  0
LINE
  5
1A4E
  8
0
 10
31.041597459976732
 20
267.19576170139987
 30
0.0
 11
37.969800690252562
 21
255.1957617013999
 31
0.0
  0
LINE
  5
1A4F
  8
0
 10
37.969800690252562
 20
255.1957617013999
 30
0.0
 11
51.82620715080327
 21
255.1957617013999
 31
0.0
  0
LINE
  5
1A50
  8
0
 10
51.82620715080327
 20
255.1957617013999
 30
0.0
 11
58.754410381079083
 21
267.19576170139987
 31
0.0
  0
LINE
  5
1A51
  8
0
 10
58.754410381079083
 20
267.19576170139987
 30
0.0
 11
51.82620715080327
 21
279.19576170139987
 31
0.0
  0
CIRCLE
  5
1A52
  8
0
 10
44.898003920527898
 20
267.19576170139987
 30
0.0
 40
11.5
  0
CIRCLE
  5
1A53
  8
0
 10
44.898003920527898
 20
267.19576170139987
 30
0.0
 40
8.0
  0
CIRCLE
  5
1A54
  8
3
 10
44.898003920527898
 20
267.19576170139987
 30
0.0
 40
6.9175000000000004
  0
ARC
  5
1A55
  8
0
 10
127.68451708900911
 20
73.248566531948811
 30
0.0
 40
17.330127017333279
 50
69.743841997641496
 51
110.2561580023585
  0
LINE
  5
1A56
  8
0
 10
133.6845170890241
 20
90.578693549282136
 30
0.0
 11
133.18451708900901
 21
90.867368683885545
 31
0.0
  0
LINE
  5
1A57
  8
0
 10
133.6845170890241
 20
78.156043818412115
 30
0.0
 11
133.18451708900901
 21
77.867368683808692
 31
0.0
  0
ARC
  5
1A58
  8
0
 10
127.68451708900911
 20
95.486170835745426
 30
0.0
 40
17.330127017333279
 50
249.7438419976414
 51
290.25615800235852
  0
LINE
  5
1A59
  8
0
 10
133.6845170890241
 20
90.578693549282136
 30
0.0
 11
133.68451708900901
 21
78.156043818403475
 31
0.0
  0
LINE
  5
1A5A
  8
0
 10
121.68451708900911
 20
79.227840588241335
 30
0.0
 11
121.68451708900911
 21
89.506896779452916
 31
0.0
  0
LINE
  5
1A5B
  8
0
 10
109.6845170889941
 20
90.578693549282136
 30
0.0
 11
109.68451708900911
 21
78.156043818403475
 31
0.0
  0
ARC
  5
1A5C
  8
0
 10
115.68451708900911
 20
95.486170835745426
 30
0.0
 40
17.330127017333279
 50
249.7438419976414
 51
290.25615800235852
  0
LINE
  5
1A5D
  8
0
 10
109.6845170889941
 20
78.156043818412115
 30
0.0
 11
110.18451708900911
 21
77.867368683808692
 31
0.0
  0
LINE
  5
1A5E
  8
0
 10
109.6845170889941
 20
90.578693549282136
 30
0.0
 11
110.18451708900911
 21
90.867368683885545
 31
0.0
  0
ARC
  5
1A5F
  8
0
 10
115.68451708900911
 20
73.248566531948811
 30
0.0
 40
17.330127017333279
 50
69.743841997641496
 51
110.2561580023585
  0
LINE
  5
1A60
  8
0
 10
110.1845170889427
 20
90.867368683847104
 30
0.0
 11
133.18451708900901
 21
90.867368683885545
 31
0.0
  0
LINE
  5
1A61
  8
0
 10
133.18451708900901
 20
77.867368683808692
 30
0.0
 11
110.1845170889427
 21
77.867368683847147
 31
0.0
  0
ARC
  5
1A62
  8
0
 10
44.898003920527231
 20
67.650490321136601
 30
0.0
 40
22.928203228139491
 50
72.412046224314182
 51
107.5879537756858
  0
ARC
  5
1A63
  8
0
 10
34.505699075113732
 20
84.444718953555309
 30
0.0
 40
6.1339745957208196
 50
55.61575252878869
 51
115.615752530148
  0
LINE
  5
1A64
  8
0
 10
31.041597459954229
 20
89.506896779446777
 30
0.0
 11
33.398003920635013
 21
90.867368683840979
 31
0.0
  0
LINE
  5
1A65
  8
0
 10
31.041597459954229
 20
79.22784058823521
 30
0.0
 11
33.398003920635013
 21
77.867368683840979
 31
0.0
  0
ARC
  5
1A66
  8
0
 10
34.505699075113732
 20
84.290018414126905
 30
0.0
 40
6.1339745957208196
 50
244.384247469852
 51
304.38424747121132
  0
ARC
  5
1A67
  8
0
 10
44.898003920527231
 20
101.0842470465456
 30
0.0
 40
22.928203228139491
 50
252.41204622431411
 51
287.58795377568589
  0
LINE
  5
1A68
  8
0
 10
31.04159745997606
 20
89.506896779446777
 30
0.0
 11
31.04159745997606
 21
79.227840588222705
 31
0.0
  0
LINE
  5
1A69
  8
0
 10
37.969800690251873
 20
89.506896779446777
 30
0.0
 11
37.969800690251873
 21
79.22784058823521
 31
0.0
  0
LINE
  5
1A6A
  8
0
 10
51.826207150802581
 20
89.506896779446777
 30
0.0
 11
51.826207150802581
 21
79.22784058823521
 31
0.0
  0
LINE
  5
1A6B
  8
0
 10
58.754410381078387
 20
89.506896779446777
 30
0.0
 11
58.754410381078387
 21
79.227840588222705
 31
0.0
  0
ARC
  5
1A6C
  8
0
 10
55.290308765940722
 20
84.290018414126905
 30
0.0
 40
6.1339745957208196
 50
235.6157525287887
 51
295.61575253014797
  0
LINE
  5
1A6D
  8
0
 10
58.754410381100229
 20
79.22784058823521
 30
0.0
 11
56.398003920419448
 21
77.867368683840979
 31
0.0
  0
LINE
  5
1A6E
  8
0
 10
58.754410381100229
 20
89.506896779446777
 30
0.0
 11
56.398003920419448
 21
90.867368683840979
 31
0.0
  0
ARC
  5
1A6F
  8
0
 10
55.290308765940722
 20
84.444718953555309
 30
0.0
 40
6.1339745957208196
 50
64.384247469851928
 51
124.3842474712113
  0
LINE
  5
1A70
  8
0
 10
33.398003920527231
 20
90.867368683840979
 30
0.0
 11
56.398003920419448
 21
90.867368683840979
 31
0.0
  0
LINE
  5
1A71
  8
0
 10
56.398003920419448
 20
77.867368683840979
 30
0.0
 11
33.398003920635013
 21
77.867368683840979
 31
0.0
  0
LINE
  5
1A72
  8
3
 10
51.815503920527483
 20
53.078693549276238
 30
0.0
 11
52.898003920527458
 21
51.203748550082928
 31
0.0
  0
LINE
  5
1A73
  8
3
 10
37.98050392052744
 20
53.078693549276238
 30
0.0
 11
36.898003920527451
 21
51.203748550082928
 31
0.0
  0
LINE
  5
1A74
  8
0
 10
36.898003920527451
 20
53.078693549276238
 30
0.0
 11
52.898003920527458
 21
53.078693549276238
 31
0.0
  0
LINE
  5
1A75
  8
0
 10
52.898003920527458
 20
217.07869354927601
 30
0.0
 11
36.898003920527451
 21
217.07869354927621
 31
0.0
  0
LINE
  5
1A76
  8
0
 10
50.898003920527458
 20
219.07869354927601
 30
0.0
 11
52.898003920527458
 21
217.07869354927601
 31
0.0
  0
LINE
  5
1A77
  8
0
 10
36.898003920527451
 20
217.07869354927649
 30
0.0
 11
38.898003920527451
 21
219.07869354927621
 31
0.0
  0
LINE
  5
1A78
  8
0
 10
36.898003920527451
 20
50.942846427113572
 30
0.0
 11
36.898003920527451
 21
77.867368683840979
 31
0.0
  0
LINE
  5
1A79
  8
3
 10
37.98050392052744
 20
53.078693549276238
 30
0.0
 11
37.98050392052744
 21
77.867368683840979
 31
0.0
  0
LINE
  5
1A7A
  8
3
 10
51.815503920527483
 20
53.078693549276238
 30
0.0
 11
51.815503920527483
 21
77.867368683840979
 31
0.0
  0
LINE
  5
1A7B
  8
0
 10
52.898003920527678
 20
50.942846427113111
 30
0.0
 11
52.898003920527678
 21
77.867368683840979
 31
0.0
  0
LINE
  5
1A7C
  8
0
 10
38.898003920527451
 20
219.07869354927621
 30
0.0
 11
50.898003920527458
 21
219.07869354927601
 31
0.0
  0
ARC
  5
1A7D
  8
0
 10
48.898003920527003
 20
39.389428414485963
 30
0.0
 40
11.55341801262729
 50
69.743841999606843
 51
110.256158000393
  0
LINE
  5
1A7E
  8
0
 10
52.89800392052701
 20
50.942846427113111
 30
0.0
 11
52.662709802879021
 21
51.078693549276011
 31
0.0
  0
LINE
  5
1A7F
  8
0
 10
52.89800392052701
 20
45.214540671438428
 30
0.0
 11
52.662709802879021
 21
45.078693549275563
 31
0.0
  0
ARC
  5
1A80
  8
0
 10
48.898003920527003
 20
56.767958684065377
 30
0.0
 40
11.55341801262729
 50
249.74384199960679
 51
290.2561580003931
  0
LINE
  5
1A81
  8
0
 10
52.89800392052701
 20
50.942846427113111
 30
0.0
 11
52.89800392052701
 21
45.214540671438428
 31
0.0
  0
LINE
  5
1A82
  8
0
 10
44.898003920527003
 20
50.228315247297289
 30
0.0
 11
44.898003920527003
 21
45.929071851253809
 31
0.0
  0
LINE
  5
1A83
  8
0
 10
36.898003920527003
 20
50.942846427113111
 30
0.0
 11
36.898003920527003
 21
45.214540671438428
 31
0.0
  0
LINE
  5
1A84
  8
0
 10
36.898003920527003
 20
45.214540671438428
 30
0.0
 11
37.133298038174992
 21
45.078693549275563
 31
0.0
  0
ARC
  5
1A85
  8
0
 10
40.898003920527003
 20
56.767958684065377
 30
0.0
 40
11.55341801262729
 50
249.74384199960679
 51
290.2561580003931
  0
LINE
  5
1A86
  8
0
 10
36.898003920527003
 20
50.942846427113111
 30
0.0
 11
37.133298038174992
 21
51.078693549276011
 31
0.0
  0
ARC
  5
1A87
  8
0
 10
40.898003920527003
 20
39.389428414485963
 30
0.0
 40
11.55341801262729
 50
69.743841999606843
 51
110.256158000393
  0
LINE
  5
1A88
  8
0
 10
52.662709802879021
 20
51.078693549276011
 30
0.0
 11
37.133298038174992
 21
51.078693549276011
 31
0.0
  0
LINE
  5
1A89
  8
0
 10
37.133298038174082
 20
45.078693549276011
 30
0.0
 11
52.662709802879931
 21
45.078693549276011
 31
0.0
  0
ARC
  5
1A8A
  8
0
 10
114.7099287937866
 20
46.853530029632502
 30
0.0
 40
4.0893163974808306
 50
55.615752531995177
 51
115.6157525321115
  0
ARC
  5
1A8B
  8
0
 10
121.63813202406151
 20
35.657377606909392
 30
0.0
 40
15.28546882020385
 50
72.412046226028565
 51
107.58795377397141
  0
LINE
  5
1A8C
  8
0
 10
112.400527717028
 20
50.228315247297758
 30
0.0
 11
113.873426141709
 21
51.078693549276473
 31
0.0
  0
LINE
  5
1A8D
  8
0
 10
112.400527717028
 20
45.929071851254712
 30
0.0
 11
113.873426141709
 21
45.078693549276011
 31
0.0
  0
ARC
  5
1A8E
  8
0
 10
114.7099287937866
 20
49.30385706891996
 30
0.0
 40
4.0893163974808306
 50
244.3842474678884
 51
304.38424746800467
  0
ARC
  5
1A8F
  8
0
 10
121.63813202406151
 20
60.500009491642849
 30
0.0
 40
15.28546882020385
 50
252.41204622602851
 51
287.58795377397138
  0
LINE
  5
1A90
  8
0
 10
112.400527717028
 20
50.228315247297758
 30
0.0
 11
112.400527717028
 21
45.929071851254712
 31
0.0
  0
LINE
  5
1A91
  8
0
 10
117.0193298705441
 20
50.228315247297758
 30
0.0
 11
117.01932987054469
 21
45.92907185125425
 31
0.0
  0
LINE
  5
1A92
  8
0
 10
126.25693417758011
 20
50.228315247297758
 30
0.0
 11
126.2569341775794
 21
45.92907185125425
 31
0.0
  0
LINE
  5
1A93
  8
0
 10
130.87573633109591
 20
50.228315247297758
 30
0.0
 11
130.87573633109591
 21
45.929071851254712
 31
0.0
  0
ARC
  5
1A94
  8
0
 10
128.5663352543375
 20
49.30385706891996
 30
0.0
 40
4.0893163974808306
 50
235.6157525319951
 51
295.61575253211151
  0
LINE
  5
1A95
  8
0
 10
130.87573633109591
 20
45.929071851254712
 30
0.0
 11
129.4028379064151
 21
45.078693549276011
 31
0.0
  0
LINE
  5
1A96
  8
0
 10
130.87573633109591
 20
50.228315247297758
 30
0.0
 11
129.4028379064151
 21
51.078693549276473
 31
0.0
  0
ARC
  5
1A97
  8
0
 10
128.5663352543375
 20
46.853530029632502
 30
0.0
 40
4.0893163974808306
 50
64.384247467888486
 51
124.3842474680048
  0
LINE
  5
1A98
  8
0
 10
113.873426141709
 20
51.078693549276473
 30
0.0
 11
129.4028379064151
 21
51.078693549276011
 31
0.0
  0
LINE
  5
1A99
  8
0
 10
129.4028379064153
 20
45.078693549276231
 30
0.0
 11
113.8734261417088
 21
45.078693549276231
 31
0.0
  0
LINE
  5
1A9A
  8
1
 10
44.89800392052679
 20
24.078693549276242
 30
0.0
 11
44.898003920527671
 21
222.07869354927601
 31
0.0
  0
LINE
  5
1A9B
  8
0
 10
115.68451708900911
 20
219.07869354927621
 30
0.0
 11
127.68451708900911
 21
219.07869354927601
 31
0.0
  0
LINE
  5
1A9C
  8
0
 10
129.68451708900901
 20
50.942846427113111
 30
0.0
 11
129.68451708900901
 21
77.867368683814377
 31
0.0
  0
LINE
  5
1A9D
  8
3
 10
128.60201708900911
 20
53.078693549276238
 30
0.0
 11
128.60201708900911
 21
77.867368683816437
 31
0.0
  0
LINE
  5
1A9E
  8
0
 10
127.68451708900911
 20
219.07869354927601
 30
0.0
 11
129.68451708900901
 21
217.07869354927601
 31
0.0
  0
LINE
  5
1A9F
  8
0
 10
129.68451708900901
 20
217.07869354927601
 30
0.0
 11
113.68451708900911
 21
217.07869354927621
 31
0.0
  0
LINE
  5
1AA0
  8
0
 10
113.68451708900911
 20
53.078693549276238
 30
0.0
 11
129.68451708900901
 21
53.078693549276238
 31
0.0
  0
LINE
  5
1AA1
  8
3
 10
128.60201708900911
 20
53.078693549276238
 30
0.0
 11
129.68451708900901
 21
51.203748550082928
 31
0.0
  0
LINE
  5
1AA2
  8
3
 10
114.767017089009
 20
53.078693549276238
 30
0.0
 11
114.767017089009
 21
77.867368683839388
 31
0.0
  0
LINE
  5
1AA3
  8
0
 10
113.68451708900911
 20
50.942846427113572
 30
0.0
 11
113.68451708900911
 21
77.867368683841221
 31
0.0
  0
LINE
  5
1AA4
  8
0
 10
113.68451708900911
 20
217.07869354927649
 30
0.0
 11
115.68451708900911
 21
219.07869354927621
 31
0.0
  0
LINE
  5
1AA5
  8
3
 10
114.767017089009
 20
53.078693549276238
 30
0.0
 11
113.68451708900911
 21
51.203748550082928
 31
0.0
  0
LINE
  5
1AA6
  8
3
 10
114.767017089009
 20
90.867368683854863
 30
0.0
 11
114.767017089009
 21
218.16119354927619
 31
0.0
  0
LINE
  5
1AA7
  8
0
 10
113.68451708900911
 20
90.867368683853059
 30
0.0
 11
113.68451708900911
 21
217.07869354927649
 31
0.0
  0
LINE
  5
1AA8
  8
0
 10
129.68451708900901
 20
90.867368683879874
 30
0.0
 11
129.68451708900901
 21
217.07869354927601
 31
0.0
  0
LINE
  5
1AA9
  8
3
 10
128.60201708900911
 20
90.867368683878041
 30
0.0
 11
128.60201708900911
 21
218.16119354927599
 31
0.0
  0
LINE
  5
1AAA
  8
3
 10
51.815503920527483
 20
90.867368683840979
 30
0.0
 11
51.815503920527483
 21
218.16119354927599
 31
0.0
  0
LINE
  5
1AAB
  8
0
 10
52.898003920527458
 20
90.867368683841207
 30
0.0
 11
52.898003920527458
 21
217.07869354927601
 31
0.0
  0
LINE
  5
1AAC
  8
3
 10
37.98050392052744
 20
90.867368683841207
 30
0.0
 11
37.98050392052744
 21
218.16119354927619
 31
0.0
  0
LINE
  5
1AAD
  8
0
 10
36.898003920527451
 20
90.867368683840979
 30
0.0
 11
36.898003920527451
 21
217.07869354927649
 31
0.0
  0
ARC
  5
1AAE
  8
0
 10
44.898003920527898
 20
267.19576170139987
 30
0.0
 40
12.5
 50
193.73979529168861
 51
226.2602047083117
  0
ARC
  5
1AAF
  8
0
 10
44.898003920527898
 20
267.19576170139987
 30
0.0
 40
12.5
 50
133.73979529168821
 51
166.26020470831131
  0
ARC
  5
1AB0
  8
0
 10
44.898003920527898
 20
267.19576170139987
 30
0.0
 40
12.5
 50
73.739795291686903
 51
106.260204708313
  0
ARC
  5
1AB1
  8
0
 10
44.898003920527898
 20
267.19576170139987
 30
0.0
 40
12.5
 50
13.739795291687591
 51
46.260204708312813
  0
ARC
  5
1AB2
  8
0
 10
44.898003920527898
 20
267.19576170139987
 30
0.0
 40
12.5
 50
313.73979529168719
 51
346.26020470831241
  0
LINE
  5
1AB3
  8
1
 10
28.041597459976739
 20
267.19576170139987
 30
0.0
 11
61.75441038107909
 21
267.19576170139987
 31
0.0
  0
LINE
  5
1AB4
  8
1
 10
121.68451708900911
 20
222.07869354927601
 30
0.0
 11
121.68451708900911
 21
24.078693549276242
 31
0.0
  0
TEXT
  5
1E19
  8
0
 62
     3
 10
0.0
 20
0.0
 30
0.0
 40
10.0
  1
LSA25S16D
  7
STANDARD1
  0
ENDSEC
  0
EOF
