  0
SECTION
  2
HEADER
  9
$ACADVER
  1
AC1009
  9
$INSBASE
 10
0.0
 20
0.0
 30
0.0
  9
$EXTMIN
 10
0.0
 20
-2.960436562073669
 30
0.0
  9
$EXTMAX
 10
110.5182540897075
 20
197.86501992129121
 30
0.0
  9
$LIMMIN
 10
0.0
 20
0.0
  9
$LIMMAX
 10
375.0
 20
270.0
  9
$ORTHOMODE
 70
     1
  9
$REGENMODE
 70
     1
  9
$FILLMODE
 70
     1
  9
$QTEXTMODE
 70
     0
  9
$MIRRTEXT
 70
     0
  9
$DRAGMODE
 70
     2
  9
$LTSCALE
 40
6.0
  9
$OSMODE
 70
  3071
  9
$ATTMODE
 70
     1
  9
$TEXTSIZE
 40
0.2
  9
$TRACEWID
 40
0.05
  9
$TEXTSTYLE
  7
STANDARD
  9
$CLAYER
  8
0
  9
$CELTYPE
  6
BYLAYER
  9
$CECOLOR
 62
   256
  9
$DIMSCALE
 40
1.0
  9
$DIMASZ
 40
3.0
  9
$DIMEXO
 40
1.0
  9
$DIMDLI
 40
6.0
  9
$DIMRND
 40
0.0
  9
$DIMDLE
 40
0.0
  9
$DIMEXE
 40
1.0
  9
$DIMTP
 40
495.0
  9
$DIMTM
 40
0.0
  9
$DIMTXT
 40
3.0
  9
$DIMCEN
 40
0.0
  9
$DIMTSZ
 40
0.0
  9
$DIMTOL
 70
     0
  9
$DIMLIM
 70
     0
  9
$DIMTIH
 70
     0
  9
$DIMTOH
 70
     0
  9
$DIMSE1
 70
     0
  9
$DIMSE2
 70
     0
  9
$DIMTAD
 70
     1
  9
$DIMZIN
 70
     0
  9
$DIMBLK
  1

  9
$DIMASO
 70
     0
  9
$DIMSHO
 70
     0
  9
$DIMPOST
  1

  9
$DIMAPOST
  1

  9
$DIMALT
 70
     0
  9
$DIMALTD
 70
     2
  9
$DIMALTF
 40
25.399999999999999
  9
$DIMLFAC
 40
1.0
  9
$DIMTOFL
 70
     1
  9
$DIMTVP
 40
0.0
  9
$DIMTIX
 70
     1
  9
$DIMSOXD
 70
     0
  9
$DIMSAH
 70
     0
  9
$DIMBLK1
  1

  9
$DIMBLK2
  1

  9
$DIMSTYLE
  2
STANDARD
  9
$DIMCLRD
 70
     0
  9
$DIMCLRE
 70
     0
  9
$DIMCLRT
 70
     4
  9
$DIMTFAC
 40
1.0
  9
$DIMGAP
 40
1.0
  9
$LUNITS
 70
     2
  9
$LUPREC
 70
     4
  9
$SKETCHINC
 40
0.1
  9
$FILLETRAD
 40
2.0
  9
$AUNITS
 70
     0
  9
$AUPREC
 70
     0
  9
$MENU
  1
C:\R13\WIN\SUPPORT\ACAD-I
  9
$ELEVATION
 40
0.0
  9
$PELEVATION
 40
0.0
  9
$THICKNESS
 40
0.0
  9
$LIMCHECK
 70
     0
  9
$BLIPMODE
 70
     0
  9
$CHAMFERA
 40
0.0
  9
$CHAMFERB
 40
0.0
  9
$SKPOLY
 70
     0
  9
$TDCREATE
 40
2451961.6877398728
  9
$TDUPDATE
 40
2456597.6064901161
  9
$TDINDWG
 40
0.034779213
  9
$TDUSRTIMER
 40
2456548.2890754049
  9
$USRTIMER
 70
     1
  9
$ANGBASE
 50
0.0
  9
$ANGDIR
 70
     0
  9
$PDMODE
 70
     0
  9
$PDSIZE
 40
0.0
  9
$PLINEWID
 40
0.0
  9
$COORDS
 70
     1
  9
$SPLFRAME
 70
     0
  9
$SPLINETYPE
 70
     6
  9
$SPLINESEGS
 70
     8
  9
$ATTDIA
 70
     0
  9
$ATTREQ
 70
     1
  9
$HANDLING
 70
     1
  9
$HANDSEED
  5
13C3
  9
$SURFTAB1
 70
     6
  9
$SURFTAB2
 70
     6
  9
$SURFTYPE
 70
     6
  9
$SURFU
 70
     6
  9
$SURFV
 70
     6
  9
$UCSNAME
  2

  9
$UCSORG
 10
0.0
 20
0.0
 30
0.0
  9
$UCSXDIR
 10
1.0
 20
0.0
 30
0.0
  9
$UCSYDIR
 10
0.0
 20
1.0
 30
0.0
  9
$PUCSNAME
  2

  9
$PUCSORG
 10
0.0
 20
0.0
 30
0.0
  9
$PUCSXDIR
 10
1.0
 20
0.0
 30
0.0
  9
$PUCSYDIR
 10
0.0
 20
1.0
 30
0.0
  9
$USERI1
 70
     4
  9
$USERI2
 70
     1
  9
$USERI3
 70
     0
  9
$USERI4
 70
     0
  9
$USERI5
 70
     0
  9
$USERR1
 40
1.0
  9
$USERR2
 40
3.0
  9
$USERR3
 40
3.0
  9
$USERR4
 40
3.0
  9
$USERR5
 40
10.0
  9
$WORLDVIEW
 70
     1
  9
$SHADEDGE
 70
     3
  9
$SHADEDIF
 70
    70
  9
$TILEMODE
 70
     1
  9
$MAXACTVP
 70
    16
  9
$PLIMCHECK
 70
     0
  9
$PEXTMIN
 10
1.0000000000000000E+020
 20
1.0000000000000000E+020
 30
1.0000000000000000E+020
  9
$PEXTMAX
 10
-1.0000000000000000E+020
 20
-1.0000000000000000E+020
 30
-1.0000000000000000E+020
  9
$PLIMMIN
 10
0.0
 20
0.0
  9
$PLIMMAX
 10
12.0
 20
9.0
  9
$UNITMODE
 70
     0
  9
$VISRETAIN
 70
     0
  9
$PLINEGEN
 70
     0
  9
$PSLTSCALE
 70
     0
  0
ENDSEC
  0
SECTION
  2
TABLES
  0
TABLE
  2
VPORT
 70
     1
  0
VPORT
  2
*ACTIVE
 70
     0
 10
0.0
 20
0.0
 11
1.0
 21
1.0
 12
187.49427839065231
 22
134.10366293909439
 13
0.0
 23
0.0
 14
10.0
 24
10.0
 15
10.0
 25
10.0
 16
0.0
 26
0.0
 36
1.0
 17
0.0
 27
0.0
 37
0.0
 40
277.29405978699532
 41
2.304913294797688
 42
50.0
 43
0.0
 44
0.0
 50
0.0
 51
0.0
 71
    16
 72
   100
 73
     1
 74
     0
 75
     0
 76
     0
 77
     0
 78
     0
  0
ENDTAB
  0
TABLE
  2
LTYPE
 70
     3
  0
LTYPE
  2
CONTINUOUS
 70
     0
  3
Solid Line
 72
    65
 73
     0
 40
0.0
  0
LTYPE
  2
PHANTOM2
 70
     0
  3
___ _ _ ___ _ _ ___ _ _ ___ _ _
 72
    65
 73
     6
 40
1.25
 49
0.625
 49
-0.125
 49
0.125
 49
-0.125
 49
0.125
 49
-0.125
  0
LTYPE
  2
CENTER
 70
     0
  3
____ _ ____ _ ____ _ ____ _ ____ _ ____ _ ____
 72
    65
 73
     4
 40
2.0
 49
1.25
 49
-0.25
 49
0.25
 49
-0.25
  0
ENDTAB
  0
TABLE
  2
LAYER
 70
     3
  0
LAYER
  2
0
 70
     0
 62
     7
  6
CONTINUOUS
  0
LAYER
  2
1
 70
     0
 62
     1
  6
CENTER
  0
LAYER
  2
3
 70
     0
 62
     3
  6
CONTINUOUS
  0
ENDTAB
  0
TABLE
  2
STYLE
 70
     3
  0
STYLE
  2
STANDARD
 70
     0
 40
0.0
 41
1.0
 50
0.0
 71
     0
 42
0.2
  3
SIMPLEX
  4
BIGFONT
  0
STYLE
  2
ANNOTATIVE
 70
     0
 40
0.0
 41
1.0
 50
0.0
 71
     0
 42
0.2
  3
txt
  4

  0
STYLE
  2
STANDARD1
 70
     0
 40
0.0
 41
1.0
 50
0.0
 71
     0
 42
3.0
  3
txt
  4

  0
ENDTAB
  0
TABLE
  2
VIEW
 70
     0
  0
ENDTAB
  0
TABLE
  2
UCS
 70
     0
  0
ENDTAB
  0
TABLE
  2
APPID
 70
    29
  0
APPID
  2
ACAD
 70
     0
  0
APPID
  2
ACADANNOTATIVE
 70
     0
  0
APPID
  2
GENIUS_GENOREF_13
 70
     0
  0
APPID
  2
GENIUS_GENOENT_13
 70
     0
  0
APPID
  2
GENIUS_GENBH_13
 70
     0
  0
APPID
  2
GENIUS_GENOBJ_13
 70
     0
  0
APPID
  2
GENIUS_GENODEF_13
 70
     0
  0
APPID
  2
GENIUS_GENOLIS_13
 70
     0
  0
APPID
  2
GENIUS_GENOBJ-NBEHI-BHF_13
 70
     0
  0
APPID
  2
GENIUS_GENOBJ-NBEHI-BHB_13
 70
     0
  0
APPID
  2
GENIUS_GENOBJ-F-PART_13
 70
     0
  0
APPID
  2
GENIUS_GEFSTDP_13
 70
     0
  0
APPID
  2
GENIUS_GENOBJ-N-RSSYM_13
 70
     0
  0
APPID
  2
GENIUS_GENSYMENT_13
 70
     0
  0
APPID
  2
GENIUS_GENOBJ-N-TIT_13
 70
     0
  0
APPID
  2
GENIUS_GENTITLE_13
 70
     0
  0
APPID
  2
GENIUS_GENZVEED_13
 70
     0
  0
APPID
  2
GENIUS_GENOBJ-N-LEADER_13
 70
     0
  0
APPID
  2
GENIUS_GENOBJ-N-FIL_13
 70
     0
  0
APPID
  2
GENIUS_GENOBJ-N-SEC_13
 70
     0
  0
APPID
  2
GENIUS_GENOBJ-N-CRS_13
 70
     0
  0
APPID
  2
GENIUS_GENOBJ-N-ZOO_13
 70
     0
  0
APPID
  2
GENIUS_GENZOO_13
 70
     0
  0
APPID
  2
GENIUS_GENOBJ-F-TOL_13
 70
     0
  0
APPID
  2
GENIUS_GENFIL_13
 70
     0
  0
APPID
  2
GENIUS_GENOBJ-N-CHA_13
 70
     0
  0
APPID
  2
ACAD_MLEADERVER
 70
     0
  0
APPID
  2
ACAD_EXEMPT_FROM_CAD_STANDARDS
 70
     0
  0
APPID
  2
ACAD_NAV_VCDISPLAY
 70
     0
  0
ENDTAB
  0
TABLE
  2
DIMSTYLE
 70
     2
  0
DIMSTYLE
  2
STANDARD
 70
     0
  3

  4

  5

  6

  7

 40
1.0
 41
0.18
 42
0.0625
 43
0.38
 44
0.18
 45
0.0
 46
0.0
 47
0.0
 48
0.0
140
0.18
141
0.09
142
0.0
143
25.399999999999999
144
1.0
145
0.0
146
1.0
147
0.09
 71
     0
 72
     0
 73
     1
 74
     1
 75
     0
 76
     0
 77
     0
 78
     0
170
     0
171
     2
172
     0
173
     0
174
     0
175
     0
176
     0
177
     0
178
     0
  0
DIMSTYLE
  2
ANNOTATIVE
 70
     0
  3

  4

  5

  6

  7

 40
1.0
 41
0.18
 42
0.0625
 43
0.38
 44
0.18
 45
0.0
 46
0.0
 47
0.0
 48
0.0
140
0.18
141
0.09
142
0.0
143
25.399999999999999
144
1.0
145
0.0
146
1.0
147
0.09
 71
     0
 72
     0
 73
     1
 74
     1
 75
     0
 76
     0
 77
     0
 78
     0
170
     0
171
     2
172
     0
173
     0
174
     0
175
     0
176
     0
177
     0
178
     0
  0
ENDTAB
  0
ENDSEC
  0
SECTION
  2
BLOCKS
  0
BLOCK
  8
0
  2
$MODEL_SPACE
 70
     0
 10
0.0
 20
0.0
 30
0.0
  3
$MODEL_SPACE
  1

  0
ENDBLK
  5
12E6
  8
0
  0
BLOCK
 67
     1
  8
0
  2
$PAPER_SPACE
 70
     0
 10
0.0
 20
0.0
 30
0.0
  3
$PAPER_SPACE
  1

  0
ENDBLK
  5
12E2
 67
     1
  8
0
  0
ENDSEC
  0
SECTION
  2
ENTITIES
  0
LINE
  5
F91
  8
3
 10
93.830254089706656
 20
71.078693549276196
 30
0.0
 11
93.83025408970741
 21
148.39069354927619
 31
0.0
  0
LINE
  5
F92
  8
0
 10
93.018254089706758
 20
71.078693549276196
 30
0.0
 11
93.018254089707511
 21
147.5786935492763
 31
0.0
  0
LINE
  5
F93
  8
0
 10
103.0182540897067
 20
71.078693549276196
 30
0.0
 11
103.0182540897075
 21
147.5786935492761
 31
0.0
  0
LINE
  5
F94
  8
3
 10
102.2062540897068
 20
71.078693549276196
 30
0.0
 11
102.2062540897076
 21
148.39069354927611
 31
0.0
  0
LINE
  5
F95
  8
0
 10
39.89800392052625
 20
71.078693549276323
 30
0.0
 11
39.898003920527003
 21
147.5786935492763
 31
0.0
  0
LINE
  5
F96
  8
3
 10
40.710003920526141
 20
71.078693549276323
 30
0.0
 11
40.710003920526901
 21
148.39069354927619
 31
0.0
  0
LINE
  5
F97
  8
0
 10
49.89800392052625
 20
71.078693549276238
 30
0.0
 11
49.898003920527003
 21
147.5786935492761
 31
0.0
  0
LINE
  5
F98
  8
3
 10
49.086003920526352
 20
71.078693549276238
 30
0.0
 11
49.086003920527112
 21
148.39069354927611
 31
0.0
  0
LINE
  5
F99
  8
0
 10
103.0182540897073
 20
51.078693549275933
 30
0.0
 11
103.0182540897075
 21
63.078693549276181
 31
0.0
  0
LINE
  5
F9A
  8
0
 10
93.018254089707511
 20
51.078693549275897
 30
0.0
 11
93.018254089707511
 21
63.078693549276181
 31
0.0
  0
LINE
  5
F9B
  8
0
 10
94.518254089707511
 20
149.0786935492763
 30
0.0
 11
101.5182540897075
 21
149.07869354927621
 31
0.0
  0
LINE
  5
F9C
  8
3
 10
102.2062540897076
 20
53.078693549275677
 30
0.0
 11
102.2062540897076
 21
63.078693549276181
 31
0.0
  0
LINE
  5
F9D
  8
3
 10
93.83025408970741
 20
53.078693549275791
 30
0.0
 11
93.83025408970741
 21
63.078693549276181
 31
0.0
  0
LINE
  5
F9E
  8
0
 10
93.018254089707511
 20
147.5786935492763
 30
0.0
 11
94.518254089707511
 21
149.0786935492763
 31
0.0
  0
LINE
  5
F9F
  8
0
 10
101.5182540897075
 20
149.07869354927621
 30
0.0
 11
103.0182540897075
 21
147.5786935492761
 31
0.0
  0
LINE
  5
FA0
  8
0
 10
93.018254089707511
 20
53.078693549275847
 30
0.0
 11
103.0182540897075
 21
53.078693549275712
 31
0.0
  0
LINE
  5
FA1
  8
3
 10
93.83025408970741
 20
53.078693549275847
 30
0.0
 11
93.018254089707511
 21
51.672268293530067
 31
0.0
  0
LINE
  5
FA2
  8
3
 10
102.2062540897076
 20
53.078693549275847
 30
0.0
 11
103.0182540897075
 21
51.672268293530067
 31
0.0
  0
LINE
  5
FA3
  8
0
 10
93.018254089707511
 20
147.5786935492763
 30
0.0
 11
103.0182540897075
 21
147.5786935492761
 31
0.0
  0
LINE
  5
FA4
  8
0
 10
39.898003920527003
 20
147.5786935492763
 30
0.0
 11
49.898003920527003
 21
147.5786935492761
 31
0.0
  0
LINE
  5
FA5
  8
3
 10
49.086003920527112
 20
53.078693549276458
 30
0.0
 11
49.898003920527003
 21
51.672268293530628
 31
0.0
  0
LINE
  5
FA6
  8
3
 10
40.710003920526901
 20
53.078693549276458
 30
0.0
 11
39.898003920527003
 21
51.672268293530628
 31
0.0
  0
LINE
  5
FA7
  8
0
 10
39.898003920527003
 20
53.078693549276458
 30
0.0
 11
49.898003920527003
 21
53.078693549276352
 31
0.0
  0
LINE
  5
FA8
  8
0
 10
48.398003920527003
 20
149.07869354927621
 30
0.0
 11
49.898003920527003
 21
147.5786935492761
 31
0.0
  0
LINE
  5
FA9
  8
0
 10
39.898003920527003
 20
147.5786935492763
 30
0.0
 11
41.398003920527003
 21
149.0786935492763
 31
0.0
  0
LINE
  5
FAA
  8
0
 10
39.898003920527003
 20
51.07869354927611
 30
0.0
 11
39.898003920527003
 21
63.078693549276181
 31
0.0
  0
LINE
  5
FAB
  8
3
 10
40.710003920526901
 20
53.078693549276458
 30
0.0
 11
40.710003920526901
 21
63.078693549276181
 31
0.0
  0
LINE
  5
FAC
  8
3
 10
49.086003920527112
 20
53.078693549276352
 30
0.0
 11
49.086003920527112
 21
63.078693549276181
 31
0.0
  0
LINE
  5
FAD
  8
0
 10
49.898003920527003
 20
51.078693549276068
 30
0.0
 11
49.898003920527003
 21
63.078693549276181
 31
0.0
  0
LINE
  5
FAE
  8
0
 10
41.398003920527003
 20
149.0786935492763
 30
0.0
 11
48.398003920527003
 21
149.07869354927621
 31
0.0
  0
LINE
  5
FAF
  8
0
 10
53.148003920527913
 20
63.078693549276181
 30
0.0
 11
36.648003920527223
 21
63.078693549276181
 31
0.0
  0
LINE
  5
FB0
  8
0
 10
36.648003920526811
 20
71.078693549276409
 30
0.0
 11
53.148003920527152
 21
71.078693549276196
 31
0.0
  0
ARC
  5
FB1
  8
0
 10
52.259219852694542
 20
66.58945730965479
 30
0.0
 40
4.3448986723233833
 50
64.384247467891328
 51
124.3842474680048
  0
LINE
  5
FB2
  8
0
 10
54.712958496750431
 20
70.175166603424202
 30
0.0
 11
53.148003920526811
 21
71.078693549276409
 31
0.0
  0
LINE
  5
FB3
  8
0
 10
54.712958496751192
 20
63.982220495128153
 30
0.0
 11
53.148003920527572
 21
63.07869354927594
 31
0.0
  0
ARC
  5
FB4
  8
0
 10
52.25921985269531
 20
67.567929788897573
 30
0.0
 40
4.3448986723233833
 50
235.61575253199521
 51
295.61575253210867
  0
LINE
  5
FB5
  8
0
 10
54.712958496750431
 20
70.175166603424145
 30
0.0
 11
54.712958496751192
 21
63.98222049512821
 31
0.0
  0
LINE
  5
FB6
  8
0
 10
49.805481208639591
 20
70.175166603424202
 30
0.0
 11
49.80548120863979
 21
63.98222049512799
 31
0.0
  0
LINE
  5
FB7
  8
0
 10
39.990526632414053
 20
70.175166603424202
 30
0.0
 11
39.990526632415367
 21
63.98222049512799
 31
0.0
  0
LINE
  5
FB8
  8
0
 10
35.083049344303198
 20
70.175166603424145
 30
0.0
 11
35.083049344303959
 21
63.98222049512821
 31
0.0
  0
ARC
  5
FB9
  8
0
 10
44.898003920527003
 20
79.463841738040799
 30
0.0
 40
16.24081062146659
 50
252.4120462260276
 51
287.5879537739724
  0
ARC
  5
FBA
  8
0
 10
37.536787988359833
 20
67.567929788897573
 30
0.0
 40
4.3448986723233833
 50
244.3842474678913
 51
304.38424746800479
  0
LINE
  5
FBB
  8
0
 10
35.083049344303959
 20
63.982220495128153
 30
0.0
 11
36.648003920527572
 21
63.07869354927594
 31
0.0
  0
LINE
  5
FBC
  8
0
 10
35.083049344303198
 20
70.175166603424202
 30
0.0
 11
36.648003920526811
 21
71.078693549276409
 31
0.0
  0
ARC
  5
FBD
  8
0
 10
44.898003920526229
 20
54.693545360511557
 30
0.0
 40
16.24081062146659
 50
72.412046226027599
 51
107.5879537739724
  0
ARC
  5
FBE
  8
0
 10
37.53678798835908
 20
66.58945730965479
 30
0.0
 40
4.3448986723233833
 50
55.615752531995213
 51
115.6157525321086
  0
LINE
  5
FBF
  8
0
 10
89.768254089707526
 20
63.078693549276181
 30
0.0
 11
106.2682540897075
 21
63.078693549276181
 31
0.0
  0
LINE
  5
FC0
  8
0
 10
106.26825408970571
 20
71.078693549276196
 30
0.0
 11
89.768254089707781
 21
71.078693549276196
 31
0.0
  0
ARC
  5
FC1
  8
0
 10
93.768254089706758
 20
58.658849343561663
 30
0.0
 40
12.275506638416489
 50
69.743841999605735
 51
110.25615800039419
  0
LINE
  5
FC2
  8
0
 10
89.51825408970673
 20
70.934355981978172
 30
0.0
 11
89.768254089707781
 21
71.078693549276196
 31
0.0
  0
ARC
  5
FC3
  8
0
 10
93.768254089707483
 20
75.498537754990011
 30
0.0
 40
12.275506638416489
 50
249.74384199960571
 51
290.25615800039418
  0
LINE
  5
FC4
  8
0
 10
89.518254089707511
 20
63.223031116573559
 30
0.0
 11
89.768254089708535
 21
63.078693549275542
 31
0.0
  0
LINE
  5
FC5
  8
0
 10
89.51825408970673
 20
70.934355981978172
 30
0.0
 11
89.518254089707511
 21
63.223031116573559
 31
0.0
  0
LINE
  5
FC6
  8
0
 10
98.018254089706758
 20
70.175166603423818
 30
0.0
 11
98.018254089707511
 21
63.982220495127649
 31
0.0
  0
LINE
  5
FC7
  8
0
 10
106.5182540897068
 20
70.934355981978172
 30
0.0
 11
106.5182540897075
 21
63.223031116573559
 31
0.0
  0
ARC
  5
FC8
  8
0
 10
102.2682540897075
 20
75.498537754990011
 30
0.0
 40
12.275506638416489
 50
249.74384199960571
 51
290.25615800039418
  0
LINE
  5
FC9
  8
0
 10
106.5182540897076
 20
63.223031116573559
 30
0.0
 11
106.2682540897065
 21
63.078693549275542
 31
0.0
  0
LINE
  5
FCA
  8
0
 10
106.5182540897068
 20
70.934355981978172
 30
0.0
 11
106.26825408970571
 21
71.078693549276196
 31
0.0
  0
ARC
  5
FCB
  8
0
 10
102.2682540897067
 20
58.658849343561663
 30
0.0
 40
12.275506638416489
 50
69.743841999605735
 51
110.25615800039419
  0
CIRCLE
  5
FCC
  8
0
 10
44.898003920527451
 20
182.36501992129121
 30
0.0
 40
8.25
  0
LINE
  5
FCD
  8
0
 10
35.083049344303838
 20
182.36501992129121
 30
0.0
 11
39.990526632415602
 21
173.86501992129129
 31
0.0
  0
LINE
  5
FCE
  8
0
 10
39.990526632415708
 20
190.86501992129141
 30
0.0
 11
35.083049344303838
 21
182.36501992129121
 31
0.0
  0
LINE
  5
FCF
  8
0
 10
49.805481208639307
 20
190.86501992129141
 30
0.0
 11
39.990526632415708
 21
190.86501992129141
 31
0.0
  0
LINE
  5
FD0
  8
0
 10
54.712958496751071
 20
182.36501992129129
 30
0.0
 11
49.805481208639307
 21
190.86501992129141
 31
0.0
  0
LINE
  5
FD1
  8
0
 10
49.805481208639307
 20
173.86501992129121
 30
0.0
 11
54.712958496751071
 21
182.36501992129129
 31
0.0
  0
LINE
  5
FD2
  8
0
 10
39.990526632415602
 20
173.86501992129129
 30
0.0
 11
49.805481208639307
 21
173.86501992129121
 31
0.0
  0
CIRCLE
  5
FD3
  8
3
 10
44.898003920527451
 20
182.36501992129121
 30
0.0
 40
4.1879999999999979
  0
CIRCLE
  5
FD4
  8
0
 10
44.898003920527451
 20
182.36501992129121
 30
0.0
 40
5.0
  0
LINE
  5
FD5
  8
1
 10
60.398003920527458
 20
182.36501992129121
 30
0.0
 11
29.398003920527461
 21
182.36501992129121
 31
0.0
  0
LINE
  5
FD6
  8
1
 10
44.898003920527451
 20
197.86501992129121
 30
0.0
 11
44.898003920527451
 21
166.86501992129141
 31
0.0
  0
CIRCLE
  5
FD7
  8
0
 10
44.898003920527451
 20
182.36501992129121
 30
0.0
 40
12.5
  0
LINE
  5
FD8
  8
0
 10
104.7490233204755
 20
46.078693549276068
 30
0.0
 11
91.28748485893982
 21
46.078693549276068
 31
0.0
  0
LINE
  5
FD9
  8
0
 10
91.287484858938356
 20
51.078693549275933
 30
0.0
 11
104.7490233204753
 21
51.078693549275933
 31
0.0
  0
ARC
  5
FDA
  8
0
 10
104.08043191619841
 20
47.34510124439327
 30
0.0
 40
3.5781518477924039
 50
64.384247467825759
 51
124.38424746803869
  0
LINE
  5
FDB
  8
0
 10
106.1011578583623
 20
50.29803830984639
 30
0.0
 11
104.7490233204755
 21
51.078693549275933
 31
0.0
  0
LINE
  5
FDC
  8
0
 10
106.1011578583623
 20
46.859348788705638
 30
0.0
 11
104.7490233204755
 21
46.078693549276068
 31
0.0
  0
ARC
  5
FDD
  8
0
 10
104.08043191619841
 20
49.812285854158738
 30
0.0
 40
3.5781518477924039
 50
235.61575253196131
 51
295.61575253217421
  0
LINE
  5
FDE
  8
0
 10
106.1011578583623
 20
50.29803830984644
 30
0.0
 11
106.1011578583623
 21
46.859348788705638
 31
0.0
  0
LINE
  5
FDF
  8
0
 10
102.05970597403299
 20
50.298038309846973
 30
0.0
 11
102.0597059740349
 21
46.859348788707273
 31
0.0
  0
LINE
  5
FE0
  8
0
 10
93.976802205381873
 20
50.298038309845239
 30
0.0
 11
93.976802205380054
 21
46.859348788707273
 31
0.0
  0
LINE
  5
FE1
  8
0
 10
89.935350321052738
 20
50.29803830984639
 30
0.0
 11
89.935350321052738
 21
46.859348788705638
 31
0.0
  0
ARC
  5
FE2
  8
0
 10
98.01825408970852
 20
59.608919224020099
 30
0.0
 40
13.374785217653811
 50
252.4120462259952
 51
287.58795377400378
  0
ARC
  5
FE3
  8
0
 10
91.956076263216573
 20
49.812285854158738
 30
0.0
 40
3.5781518477924039
 50
244.3842474678257
 51
304.38424746803872
  0
LINE
  5
FE4
  8
0
 10
89.935350321052738
 20
46.859348788705638
 30
0.0
 11
91.287484858939592
 21
46.078693549276068
 31
0.0
  0
LINE
  5
FE5
  8
0
 10
89.935350321052738
 20
50.29803830984639
 30
0.0
 11
91.287484858939592
 21
51.078693549275933
 31
0.0
  0
ARC
  5
FE6
  8
0
 10
98.01825408970852
 20
37.54846787453193
 30
0.0
 40
13.374785217653811
 50
72.412046225996122
 51
107.5879537740048
  0
ARC
  5
FE7
  8
0
 10
91.956076263216573
 20
47.34510124439327
 30
0.0
 40
3.5781518477924039
 50
55.615752531961313
 51
115.6157525321742
  0
LINE
  5
FE8
  8
0
 10
86.018254089707526
 20
27.078693549276242
 30
0.0
 11
110.0182540897075
 21
27.078693549276242
 31
0.0
  0
LINE
  5
FE9
  8
0
 10
85.518254089707483
 20
27.578693549276242
 30
0.0
 11
85.518254089707483
 21
31.078693549276242
 31
0.0
  0
LINE
  5
FEA
  8
0
 10
110.5182540897075
 20
27.578693549276242
 30
0.0
 11
110.5182540897075
 21
31.078693549276242
 31
0.0
  0
LINE
  5
FEB
  8
0
 10
86.018254089707526
 20
27.078693549276242
 30
0.0
 11
85.518254089707483
 21
27.578693549276242
 31
0.0
  0
LINE
  5
FEC
  8
0
 10
110.5182540897075
 20
27.578693549276242
 30
0.0
 11
110.0182540897075
 21
27.078693549276242
 31
0.0
  0
LINE
  5
FED
  8
0
 10
89.518254089707511
 20
39.078693549276252
 30
0.0
 11
106.5182540897075
 21
39.078693549276252
 31
0.0
  0
LINE
  5
FEE
  8
0
 10
85.518254089707483
 20
31.078693549276242
 30
0.0
 11
110.5182540897075
 21
31.078693549276242
 31
0.0
  0
LINE
  5
FEF
  8
0
 10
110.5182540897075
 20
31.078693549276242
 30
0.0
 11
108.0182540897075
 21
33.578693549276238
 31
0.0
  0
LINE
  5
FF0
  8
0
 10
106.5182540897075
 20
39.078693549276252
 30
0.0
 11
108.0182540897075
 21
33.578693549276238
 31
0.0
  0
LINE
  5
FF1
  8
0
 10
85.518254089707483
 20
31.078693549276242
 30
0.0
 11
88.018254089707511
 21
33.578693549276238
 31
0.0
  0
LINE
  5
FF2
  8
0
 10
89.518254089707511
 20
39.078693549276252
 30
0.0
 11
88.018254089707511
 21
33.578693549276238
 31
0.0
  0
LINE
  5
FF3
  8
0
 10
108.0182540897075
 20
33.578693549276238
 30
0.0
 11
88.018254089707511
 21
33.578693549276238
 31
0.0
  0
LINE
  5
FF4
  8
0
 10
103.5182540897076
 20
42.078693549276217
 30
0.0
 11
92.518254089707625
 21
42.078693549276217
 31
0.0
  0
LINE
  5
FF5
  8
0
 10
92.518254089707625
 20
42.078693549276217
 30
0.0
 11
92.518254089707725
 21
46.078693549276068
 31
0.0
  0
LINE
  5
FF6
  8
0
 10
103.5182540897076
 20
42.078693549276217
 30
0.0
 11
103.5182540897076
 21
46.078693549276068
 31
0.0
  0
ARC
  5
FF7
  8
0
 10
98.018254089707625
 20
37.748566530354033
 30
0.0
 40
7.0
 50
141.78678929826171
 51
169.04615684538459
  0
ARC
  5
FF8
  8
0
 10
98.018254089707625
 20
37.748566530354033
 30
0.0
 40
7.0
 50
10.95384315461536
 51
38.213210701738468
  0
ARC
  5
FF9
  8
0
 10
44.898003920526882
 20
37.748566530354033
 30
0.0
 40
7.0
 50
10.95384315461536
 51
38.213210701738468
  0
ARC
  5
FFA
  8
0
 10
44.898003920526882
 20
37.748566530354033
 30
0.0
 40
7.0
 50
141.78678929826171
 51
169.04615684538459
  0
LINE
  5
FFB
  8
0
 10
50.398003920526889
 20
42.078693549276217
 30
0.0
 11
50.398003920526889
 21
46.078693549276068
 31
0.0
  0
LINE
  5
FFC
  8
0
 10
39.398003920526889
 20
42.078693549276217
 30
0.0
 11
39.398003920526889
 21
46.078693549276068
 31
0.0
  0
LINE
  5
FFD
  8
0
 10
50.398003920526889
 20
42.078693549276217
 30
0.0
 11
39.398003920526889
 21
42.078693549276217
 31
0.0
  0
LINE
  5
FFE
  8
0
 10
44.898003920526783
 20
50.298038309846611
 30
0.0
 11
44.898003920526783
 21
46.85934878870551
 31
0.0
  0
LINE
  5
FFF
  8
0
 10
37.898003920526783
 20
50.923253092185803
 30
0.0
 11
37.898003920526783
 21
46.234134006366283
 31
0.0
  0
LINE
  5
1000
  8
0
 10
51.898003920526783
 20
50.923253092185803
 30
0.0
 11
51.898003920526783
 21
46.234134006366283
 31
0.0
  0
LINE
  5
1001
  8
0
 10
51.628773151294808
 20
51.078693549276068
 30
0.0
 11
38.16723468975875
 21
51.078693549276068
 31
0.0
  0
ARC
  5
1002
  8
0
 10
41.398003920526889
 20
40.814012331148383
 30
0.0
 40
10.10924076103746
 50
69.74384199958368
 51
110.25615800041631
  0
LINE
  5
1003
  8
0
 10
37.898003920526783
 20
50.923253092185803
 30
0.0
 11
38.16723468975875
 21
51.078693549276068
 31
0.0
  0
LINE
  5
1004
  8
0
 10
51.898003920526783
 20
50.923253092185803
 30
0.0
 11
51.628773151294808
 21
51.078693549276068
 31
0.0
  0
ARC
  5
1005
  8
0
 10
48.398003920526662
 20
40.814012331148383
 30
0.0
 40
10.10924076103746
 50
69.74384199958368
 51
110.25615800041631
  0
LINE
  5
1006
  8
0
 10
51.628773151294808
 20
46.078693549276068
 30
0.0
 11
38.16723468975875
 21
46.078693549276068
 31
0.0
  0
ARC
  5
1007
  8
0
 10
41.398003920526889
 20
56.343374767403709
 30
0.0
 40
10.10924076103746
 50
249.74384199958371
 51
290.25615800041641
  0
LINE
  5
1008
  8
0
 10
37.898003920526783
 20
46.234134006366283
 30
0.0
 11
38.16723468975875
 21
46.078693549276068
 31
0.0
  0
LINE
  5
1009
  8
0
 10
51.898003920526783
 20
46.234134006366283
 30
0.0
 11
51.628773151294808
 21
46.078693549276068
 31
0.0
  0
ARC
  5
100A
  8
0
 10
48.398003920526662
 20
56.343374767403709
 30
0.0
 40
10.10924076103746
 50
249.74384199958371
 51
290.25615800041641
  0
LINE
  5
100B
  8
0
 10
54.89800392052679
 20
33.578693549276238
 30
0.0
 11
34.89800392052679
 21
33.578693549276238
 31
0.0
  0
LINE
  5
100C
  8
0
 10
36.398003920526783
 20
39.078693549276252
 30
0.0
 11
34.89800392052679
 21
33.578693549276238
 31
0.0
  0
LINE
  5
100D
  8
0
 10
32.39800392052679
 20
31.078693549276242
 30
0.0
 11
34.89800392052679
 21
33.578693549276238
 31
0.0
  0
LINE
  5
100E
  8
0
 10
53.398003920526762
 20
39.078693549276252
 30
0.0
 11
54.89800392052679
 21
33.578693549276238
 31
0.0
  0
LINE
  5
100F
  8
0
 10
57.39800392052679
 20
31.078693549276242
 30
0.0
 11
54.89800392052679
 21
33.578693549276238
 31
0.0
  0
LINE
  5
1010
  8
0
 10
32.39800392052679
 20
31.078693549276242
 30
0.0
 11
57.39800392052679
 21
31.078693549276242
 31
0.0
  0
LINE
  5
1011
  8
0
 10
36.398003920526783
 20
39.078693549276252
 30
0.0
 11
53.398003920526762
 21
39.078693549276252
 31
0.0
  0
LINE
  5
1012
  8
0
 10
57.39800392052679
 20
27.578693549276242
 30
0.0
 11
56.898003920526783
 21
27.078693549276242
 31
0.0
  0
LINE
  5
1013
  8
0
 10
32.898003920526783
 20
27.078693549276242
 30
0.0
 11
32.39800392052679
 21
27.578693549276242
 31
0.0
  0
LINE
  5
1014
  8
0
 10
57.39800392052679
 20
27.578693549276242
 30
0.0
 11
57.39800392052679
 21
31.078693549276242
 31
0.0
  0
LINE
  5
1015
  8
0
 10
32.39800392052679
 20
27.578693549276242
 30
0.0
 11
32.39800392052679
 21
31.078693549276242
 31
0.0
  0
LINE
  5
1016
  8
0
 10
32.898003920526783
 20
27.078693549276242
 30
0.0
 11
56.898003920526783
 21
27.078693549276242
 31
0.0
  0
LINE
  5
101D
  8
1
 10
44.89800392052679
 20
24.078693549276242
 30
0.0
 11
44.898003920527337
 21
152.07869354927621
 31
0.0
  0
LINE
  5
101E
  8
1
 10
98.018254089707511
 20
152.07869354927621
 30
0.0
 11
98.018254089707511
 21
24.07869354927627
 31
0.0
  0
TEXT
  5
1366
  8
0
 62
     3
 10
0.0
 20
0.0
 30
0.0
 40
10.0
  1
LSA25S10C
  7
STANDARD1
  0
ENDSEC
  0
EOF
