  0
SECTION
  2
HEADER
  9
$ACADVER
  1
AC1009
  9
$INSBASE
 10
0.0
 20
0.0
 30
0.0
  9
$EXTMIN
 10
0.0
 20
-2.960436562073669
 30
0.0
  9
$EXTMAX
 10
110.5182540897075
 20
142.86501992129141
 30
0.0
  9
$LIMMIN
 10
0.0
 20
0.0
  9
$LIMMAX
 10
375.0
 20
270.0
  9
$ORTHOMODE
 70
     1
  9
$REGENMODE
 70
     1
  9
$FILLMODE
 70
     1
  9
$QTEXTMODE
 70
     0
  9
$MIRRTEXT
 70
     0
  9
$DRAGMODE
 70
     2
  9
$LTSCALE
 40
6.0
  9
$OSMODE
 70
  3071
  9
$ATTMODE
 70
     1
  9
$TEXTSIZE
 40
0.2
  9
$TRACEWID
 40
0.05
  9
$TEXTSTYLE
  7
STANDARD
  9
$CLAYER
  8
0
  9
$CELTYPE
  6
BYLAYER
  9
$CECOLOR
 62
   256
  9
$DIMSCALE
 40
1.0
  9
$DIMASZ
 40
3.0
  9
$DIMEXO
 40
1.0
  9
$DIMDLI
 40
6.0
  9
$DIMRND
 40
0.0
  9
$DIMDLE
 40
0.0
  9
$DIMEXE
 40
1.0
  9
$DIMTP
 40
495.0
  9
$DIMTM
 40
0.0
  9
$DIMTXT
 40
3.0
  9
$DIMCEN
 40
0.0
  9
$DIMTSZ
 40
0.0
  9
$DIMTOL
 70
     0
  9
$DIMLIM
 70
     0
  9
$DIMTIH
 70
     0
  9
$DIMTOH
 70
     0
  9
$DIMSE1
 70
     0
  9
$DIMSE2
 70
     0
  9
$DIMTAD
 70
     1
  9
$DIMZIN
 70
     0
  9
$DIMBLK
  1

  9
$DIMASO
 70
     0
  9
$DIMSHO
 70
     0
  9
$DIMPOST
  1

  9
$DIMAPOST
  1

  9
$DIMALT
 70
     0
  9
$DIMALTD
 70
     2
  9
$DIMALTF
 40
25.399999999999999
  9
$DIMLFAC
 40
1.0
  9
$DIMTOFL
 70
     1
  9
$DIMTVP
 40
0.0
  9
$DIMTIX
 70
     1
  9
$DIMSOXD
 70
     0
  9
$DIMSAH
 70
     0
  9
$DIMBLK1
  1

  9
$DIMBLK2
  1

  9
$DIMSTYLE
  2
STANDARD
  9
$DIMCLRD
 70
     0
  9
$DIMCLRE
 70
     0
  9
$DIMCLRT
 70
     4
  9
$DIMTFAC
 40
1.0
  9
$DIMGAP
 40
1.0
  9
$LUNITS
 70
     2
  9
$LUPREC
 70
     4
  9
$SKETCHINC
 40
0.1
  9
$FILLETRAD
 40
2.0
  9
$AUNITS
 70
     0
  9
$AUPREC
 70
     0
  9
$MENU
  1
C:\R13\WIN\SUPPORT\ACAD-I
  9
$ELEVATION
 40
0.0
  9
$PELEVATION
 40
0.0
  9
$THICKNESS
 40
0.0
  9
$LIMCHECK
 70
     0
  9
$BLIPMODE
 70
     0
  9
$CHAMFERA
 40
0.0
  9
$CHAMFERB
 40
0.0
  9
$SKPOLY
 70
     0
  9
$TDCREATE
 40
2451961.685890452
  9
$TDUPDATE
 40
2456597.6064604982
  9
$TDINDWG
 40
0.0316063773
  9
$TDUSRTIMER
 40
2456548.2897067359
  9
$USRTIMER
 70
     1
  9
$ANGBASE
 50
0.0
  9
$ANGDIR
 70
     0
  9
$PDMODE
 70
     0
  9
$PDSIZE
 40
0.0
  9
$PLINEWID
 40
0.0
  9
$COORDS
 70
     1
  9
$SPLFRAME
 70
     0
  9
$SPLINETYPE
 70
     6
  9
$SPLINESEGS
 70
     8
  9
$ATTDIA
 70
     0
  9
$ATTREQ
 70
     1
  9
$HANDLING
 70
     1
  9
$HANDSEED
  5
11CF
  9
$SURFTAB1
 70
     6
  9
$SURFTAB2
 70
     6
  9
$SURFTYPE
 70
     6
  9
$SURFU
 70
     6
  9
$SURFV
 70
     6
  9
$UCSNAME
  2

  9
$UCSORG
 10
0.0
 20
0.0
 30
0.0
  9
$UCSXDIR
 10
1.0
 20
0.0
 30
0.0
  9
$UCSYDIR
 10
0.0
 20
1.0
 30
0.0
  9
$PUCSNAME
  2

  9
$PUCSORG
 10
0.0
 20
0.0
 30
0.0
  9
$PUCSXDIR
 10
1.0
 20
0.0
 30
0.0
  9
$PUCSYDIR
 10
0.0
 20
1.0
 30
0.0
  9
$USERI1
 70
     4
  9
$USERI2
 70
     1
  9
$USERI3
 70
     0
  9
$USERI4
 70
     0
  9
$USERI5
 70
     0
  9
$USERR1
 40
1.0
  9
$USERR2
 40
3.0
  9
$USERR3
 40
3.0
  9
$USERR4
 40
3.0
  9
$USERR5
 40
10.0
  9
$WORLDVIEW
 70
     1
  9
$SHADEDGE
 70
     3
  9
$SHADEDIF
 70
    70
  9
$TILEMODE
 70
     1
  9
$MAXACTVP
 70
    16
  9
$PLIMCHECK
 70
     0
  9
$PEXTMIN
 10
1.0000000000000000E+020
 20
1.0000000000000000E+020
 30
1.0000000000000000E+020
  9
$PEXTMAX
 10
-1.0000000000000000E+020
 20
-1.0000000000000000E+020
 30
-1.0000000000000000E+020
  9
$PLIMMIN
 10
0.0
 20
0.0
  9
$PLIMMAX
 10
12.0
 20
9.0
  9
$UNITMODE
 70
     0
  9
$VISRETAIN
 70
     0
  9
$PLINEGEN
 70
     0
  9
$PSLTSCALE
 70
     0
  0
ENDSEC
  0
SECTION
  2
TABLES
  0
TABLE
  2
VPORT
 70
     1
  0
VPORT
  2
*ACTIVE
 70
     0
 10
0.0
 20
0.0
 11
1.0
 21
1.0
 12
187.49427839065231
 22
134.10366293909439
 13
0.0
 23
0.0
 14
10.0
 24
10.0
 15
10.0
 25
10.0
 16
0.0
 26
0.0
 36
1.0
 17
0.0
 27
0.0
 37
0.0
 40
277.29405978699532
 41
2.304913294797688
 42
50.0
 43
0.0
 44
0.0
 50
0.0
 51
0.0
 71
    16
 72
   100
 73
     1
 74
     0
 75
     0
 76
     0
 77
     0
 78
     0
  0
ENDTAB
  0
TABLE
  2
LTYPE
 70
     3
  0
LTYPE
  2
CONTINUOUS
 70
     0
  3
Solid Line
 72
    65
 73
     0
 40
0.0
  0
LTYPE
  2
PHANTOM2
 70
     0
  3
___ _ _ ___ _ _ ___ _ _ ___ _ _
 72
    65
 73
     6
 40
1.25
 49
0.625
 49
-0.125
 49
0.125
 49
-0.125
 49
0.125
 49
-0.125
  0
LTYPE
  2
CENTER
 70
     0
  3
____ _ ____ _ ____ _ ____ _ ____ _ ____ _ ____
 72
    65
 73
     4
 40
2.0
 49
1.25
 49
-0.25
 49
0.25
 49
-0.25
  0
ENDTAB
  0
TABLE
  2
LAYER
 70
     3
  0
LAYER
  2
0
 70
     0
 62
     7
  6
CONTINUOUS
  0
LAYER
  2
1
 70
     0
 62
     1
  6
CENTER
  0
LAYER
  2
3
 70
     0
 62
     3
  6
CONTINUOUS
  0
ENDTAB
  0
TABLE
  2
STYLE
 70
     3
  0
STYLE
  2
STANDARD
 70
     0
 40
0.0
 41
1.0
 50
0.0
 71
     0
 42
0.2
  3
SIMPLEX
  4
BIGFONT
  0
STYLE
  2
ANNOTATIVE
 70
     0
 40
0.0
 41
1.0
 50
0.0
 71
     0
 42
0.2
  3
txt
  4

  0
STYLE
  2
STANDARD1
 70
     0
 40
0.0
 41
1.0
 50
0.0
 71
     0
 42
3.0
  3
txt
  4

  0
ENDTAB
  0
TABLE
  2
VIEW
 70
     0
  0
ENDTAB
  0
TABLE
  2
UCS
 70
     0
  0
ENDTAB
  0
TABLE
  2
APPID
 70
    29
  0
APPID
  2
ACAD
 70
     0
  0
APPID
  2
ACADANNOTATIVE
 70
     0
  0
APPID
  2
GENIUS_GENOREF_13
 70
     0
  0
APPID
  2
GENIUS_GENOENT_13
 70
     0
  0
APPID
  2
GENIUS_GENBH_13
 70
     0
  0
APPID
  2
GENIUS_GENOBJ_13
 70
     0
  0
APPID
  2
GENIUS_GENODEF_13
 70
     0
  0
APPID
  2
GENIUS_GENOLIS_13
 70
     0
  0
APPID
  2
GENIUS_GENOBJ-NBEHI-BHF_13
 70
     0
  0
APPID
  2
GENIUS_GENOBJ-NBEHI-BHB_13
 70
     0
  0
APPID
  2
GENIUS_GENOBJ-F-PART_13
 70
     0
  0
APPID
  2
GENIUS_GEFSTDP_13
 70
     0
  0
APPID
  2
GENIUS_GENOBJ-N-RSSYM_13
 70
     0
  0
APPID
  2
GENIUS_GENSYMENT_13
 70
     0
  0
APPID
  2
GENIUS_GENOBJ-N-TIT_13
 70
     0
  0
APPID
  2
GENIUS_GENTITLE_13
 70
     0
  0
APPID
  2
GENIUS_GENZVEED_13
 70
     0
  0
APPID
  2
GENIUS_GENOBJ-N-LEADER_13
 70
     0
  0
APPID
  2
GENIUS_GENOBJ-N-FIL_13
 70
     0
  0
APPID
  2
GENIUS_GENOBJ-N-SEC_13
 70
     0
  0
APPID
  2
GENIUS_GENOBJ-N-CRS_13
 70
     0
  0
APPID
  2
GENIUS_GENOBJ-N-ZOO_13
 70
     0
  0
APPID
  2
GENIUS_GENZOO_13
 70
     0
  0
APPID
  2
GENIUS_GENOBJ-F-TOL_13
 70
     0
  0
APPID
  2
GENIUS_GENFIL_13
 70
     0
  0
APPID
  2
GENIUS_GENOBJ-N-CHA_13
 70
     0
  0
APPID
  2
ACAD_MLEADERVER
 70
     0
  0
APPID
  2
ACAD_EXEMPT_FROM_CAD_STANDARDS
 70
     0
  0
APPID
  2
ACAD_NAV_VCDISPLAY
 70
     0
  0
ENDTAB
  0
TABLE
  2
DIMSTYLE
 70
     2
  0
DIMSTYLE
  2
STANDARD
 70
     0
  3

  4

  5

  6

  7

 40
1.0
 41
0.18
 42
0.0625
 43
0.38
 44
0.18
 45
0.0
 46
0.0
 47
0.0
 48
0.0
140
0.18
141
0.09
142
0.0
143
25.399999999999999
144
1.0
145
0.0
146
1.0
147
0.09
 71
     0
 72
     0
 73
     1
 74
     1
 75
     0
 76
     0
 77
     0
 78
     0
170
     0
171
     2
172
     0
173
     0
174
     0
175
     0
176
     0
177
     0
178
     0
  0
DIMSTYLE
  2
ANNOTATIVE
 70
     0
  3

  4

  5

  6

  7

 40
1.0
 41
0.18
 42
0.0625
 43
0.38
 44
0.18
 45
0.0
 46
0.0
 47
0.0
 48
0.0
140
0.18
141
0.09
142
0.0
143
25.399999999999999
144
1.0
145
0.0
146
1.0
147
0.09
 71
     0
 72
     0
 73
     1
 74
     1
 75
     0
 76
     0
 77
     0
 78
     0
170
     0
171
     2
172
     0
173
     0
174
     0
175
     0
176
     0
177
     0
178
     0
  0
ENDTAB
  0
ENDSEC
  0
SECTION
  2
BLOCKS
  0
BLOCK
  8
0
  2
$MODEL_SPACE
 70
     0
 10
0.0
 20
0.0
 30
0.0
  3
$MODEL_SPACE
  1

  0
ENDBLK
  5
10F2
  8
0
  0
BLOCK
 67
     1
  8
0
  2
$PAPER_SPACE
 70
     0
 10
0.0
 20
0.0
 30
0.0
  3
$PAPER_SPACE
  1

  0
ENDBLK
  5
10EE
 67
     1
  8
0
  0
ENDSEC
  0
SECTION
  2
ENTITIES
  0
LINE
  5
C9F
  8
3
 10
93.830254089706784
 20
71.078693549276068
 30
0.0
 11
93.830254089707381
 21
93.390693549276193
 31
0.0
  0
LINE
  5
CA0
  8
0
 10
93.018254089706872
 20
71.078693549276068
 30
0.0
 11
93.018254089707469
 21
92.578693549276281
 31
0.0
  0
LINE
  5
CA1
  8
0
 10
103.0182540897069
 20
71.078693549276068
 30
0.0
 11
103.0182540897075
 21
92.578693549276196
 31
0.0
  0
LINE
  5
CA2
  8
3
 10
102.206254089707
 20
71.078693549276068
 30
0.0
 11
102.2062540897076
 21
93.390693549276122
 31
0.0
  0
LINE
  5
CA3
  8
0
 10
39.898003920526392
 20
71.078693549276238
 30
0.0
 11
39.898003920526982
 21
92.578693549276281
 31
0.0
  0
LINE
  5
CA4
  8
3
 10
40.71000392052629
 20
71.078693549276238
 30
0.0
 11
40.710003920526859
 21
93.390693549276193
 31
0.0
  0
LINE
  5
CA5
  8
0
 10
49.898003920526392
 20
71.078693549276124
 30
0.0
 11
49.898003920526968
 21
92.578693549276196
 31
0.0
  0
LINE
  5
CA6
  8
3
 10
49.086003920526487
 20
71.078693549276124
 30
0.0
 11
49.086003920527077
 21
93.390693549276122
 31
0.0
  0
LINE
  5
CA7
  8
0
 10
103.0182540897075
 20
51.078693549275933
 30
0.0
 11
103.0182540897075
 21
63.078693549276181
 31
0.0
  0
LINE
  5
CA8
  8
0
 10
93.018254089707469
 20
51.078693549275897
 30
0.0
 11
93.018254089707469
 21
63.078693549276181
 31
0.0
  0
LINE
  5
CA9
  8
0
 10
94.518254089707483
 20
94.078693549276281
 30
0.0
 11
101.5182540897075
 21
94.078693549276167
 31
0.0
  0
LINE
  5
CAA
  8
3
 10
102.2062540897076
 20
53.078693549275677
 30
0.0
 11
102.2062540897076
 21
63.078693549276181
 31
0.0
  0
LINE
  5
CAB
  8
3
 10
93.830254089707381
 20
53.078693549275791
 30
0.0
 11
93.830254089707381
 21
63.078693549276181
 31
0.0
  0
LINE
  5
CAC
  8
0
 10
93.018254089707469
 20
92.578693549276281
 30
0.0
 11
94.518254089707483
 21
94.078693549276281
 31
0.0
  0
LINE
  5
CAD
  8
0
 10
101.5182540897075
 20
94.078693549276167
 30
0.0
 11
103.0182540897075
 21
92.578693549276196
 31
0.0
  0
LINE
  5
CAE
  8
0
 10
93.018254089707469
 20
53.078693549275847
 30
0.0
 11
103.0182540897075
 21
53.078693549275712
 31
0.0
  0
LINE
  5
CAF
  8
3
 10
93.830254089707381
 20
53.078693549275847
 30
0.0
 11
93.018254089707469
 21
51.672268293530067
 31
0.0
  0
LINE
  5
CB0
  8
3
 10
102.2062540897076
 20
53.078693549275847
 30
0.0
 11
103.0182540897075
 21
51.672268293530067
 31
0.0
  0
LINE
  5
CB1
  8
0
 10
93.018254089707469
 20
92.578693549276281
 30
0.0
 11
103.0182540897075
 21
92.578693549276196
 31
0.0
  0
LINE
  5
CB2
  8
0
 10
39.898003920526982
 20
92.578693549276281
 30
0.0
 11
49.898003920526968
 21
92.578693549276196
 31
0.0
  0
LINE
  5
CB3
  8
3
 10
49.086003920527077
 20
53.078693549276458
 30
0.0
 11
49.898003920526968
 21
51.672268293530628
 31
0.0
  0
LINE
  5
CB4
  8
3
 10
40.710003920526859
 20
53.078693549276458
 30
0.0
 11
39.898003920526982
 21
51.672268293530628
 31
0.0
  0
LINE
  5
CB5
  8
0
 10
39.898003920526982
 20
53.078693549276458
 30
0.0
 11
49.898003920526968
 21
53.078693549276352
 31
0.0
  0
LINE
  5
CB6
  8
0
 10
48.398003920526982
 20
94.078693549276167
 30
0.0
 11
49.898003920526968
 21
92.578693549276196
 31
0.0
  0
LINE
  5
CB7
  8
0
 10
39.898003920526982
 20
92.578693549276281
 30
0.0
 11
41.398003920526982
 21
94.078693549276281
 31
0.0
  0
LINE
  5
CB8
  8
0
 10
39.898003920526982
 20
51.07869354927611
 30
0.0
 11
39.898003920526982
 21
63.078693549276181
 31
0.0
  0
LINE
  5
CB9
  8
3
 10
40.710003920526859
 20
53.078693549276458
 30
0.0
 11
40.710003920526859
 21
63.078693549276181
 31
0.0
  0
LINE
  5
CBA
  8
3
 10
49.086003920527077
 20
53.078693549276352
 30
0.0
 11
49.086003920527077
 21
63.078693549276181
 31
0.0
  0
LINE
  5
CBB
  8
0
 10
49.898003920526968
 20
51.078693549276068
 30
0.0
 11
49.898003920526968
 21
63.078693549276181
 31
0.0
  0
LINE
  5
CBC
  8
0
 10
41.398003920526982
 20
94.078693549276281
 30
0.0
 11
48.398003920526982
 21
94.078693549276167
 31
0.0
  0
LINE
  5
CBD
  8
0
 10
53.148003920527877
 20
63.078693549276181
 30
0.0
 11
36.648003920527209
 21
63.078693549276181
 31
0.0
  0
LINE
  5
CBE
  8
0
 10
36.648003920526961
 20
71.078693549276295
 30
0.0
 11
53.148003920527287
 21
71.078693549276068
 31
0.0
  0
ARC
  5
CBF
  8
0
 10
52.259219852694699
 20
66.589457309654691
 30
0.0
 40
4.3448986723233833
 50
64.384247467891271
 51
124.3842474680048
  0
LINE
  5
CC0
  8
0
 10
54.712958496750574
 20
70.175166603424074
 30
0.0
 11
53.148003920526961
 21
71.078693549276295
 31
0.0
  0
LINE
  5
CC1
  8
0
 10
54.712958496751149
 20
63.982220495128153
 30
0.0
 11
53.148003920527543
 21
63.07869354927594
 31
0.0
  0
ARC
  5
CC2
  8
0
 10
52.259219852695288
 20
67.567929788897573
 30
0.0
 40
4.3448986723233833
 50
235.61575253199521
 51
295.61575253210867
  0
LINE
  5
CC3
  8
0
 10
54.712958496750574
 20
70.175166603424032
 30
0.0
 11
54.712958496751149
 21
63.98222049512821
 31
0.0
  0
LINE
  5
CC4
  8
0
 10
49.805481208639719
 20
70.175166603424074
 30
0.0
 11
49.805481208639748
 21
63.98222049512799
 31
0.0
  0
LINE
  5
CC5
  8
0
 10
39.990526632414188
 20
70.175166603424074
 30
0.0
 11
39.990526632415353
 21
63.98222049512799
 31
0.0
  0
LINE
  5
CC6
  8
0
 10
35.083049344303348
 20
70.175166603424032
 30
0.0
 11
35.08304934430393
 21
63.98222049512821
 31
0.0
  0
ARC
  5
CC7
  8
0
 10
44.898003920526968
 20
79.463841738040799
 30
0.0
 40
16.24081062146659
 50
252.41204622602751
 51
287.58795377397217
  0
ARC
  5
CC8
  8
0
 10
37.536787988359812
 20
67.567929788897573
 30
0.0
 40
4.3448986723233833
 50
244.3842474678913
 51
304.38424746800479
  0
LINE
  5
CC9
  8
0
 10
35.08304934430393
 20
63.982220495128153
 30
0.0
 11
36.64800392052755
 21
63.07869354927594
 31
0.0
  0
LINE
  5
CCA
  8
0
 10
35.083049344303348
 20
70.175166603424074
 30
0.0
 11
36.648003920526961
 21
71.078693549276295
 31
0.0
  0
ARC
  5
CCB
  8
0
 10
44.898003920526392
 20
54.69354536051145
 30
0.0
 40
16.24081062146659
 50
72.412046226027599
 51
107.5879537739724
  0
ARC
  5
CCC
  8
0
 10
37.536787988359229
 20
66.589457309654691
 30
0.0
 40
4.3448986723233833
 50
55.615752531995142
 51
115.6157525321087
  0
LINE
  5
CCD
  8
0
 10
89.768254089707483
 20
63.078693549276181
 30
0.0
 11
106.2682540897075
 21
63.078693549276181
 31
0.0
  0
LINE
  5
CCE
  8
0
 10
106.26825408970581
 20
71.078693549276068
 30
0.0
 11
89.768254089707924
 21
71.078693549276068
 31
0.0
  0
ARC
  5
CCF
  8
0
 10
93.768254089706858
 20
58.658849343561528
 30
0.0
 40
12.275506638416489
 50
69.743841999605806
 51
110.25615800039419
  0
LINE
  5
CD0
  8
0
 10
89.518254089706872
 20
70.934355981978058
 30
0.0
 11
89.768254089707924
 21
71.078693549276068
 31
0.0
  0
ARC
  5
CD1
  8
0
 10
93.768254089707483
 20
75.498537754990011
 30
0.0
 40
12.275506638416489
 50
249.74384199960571
 51
290.25615800039418
  0
LINE
  5
CD2
  8
0
 10
89.518254089707483
 20
63.223031116573559
 30
0.0
 11
89.768254089708506
 21
63.078693549275542
 31
0.0
  0
LINE
  5
CD3
  8
0
 10
89.518254089706872
 20
70.934355981978058
 30
0.0
 11
89.518254089707483
 21
63.223031116573559
 31
0.0
  0
LINE
  5
CD4
  8
0
 10
98.018254089706872
 20
70.175166603423691
 30
0.0
 11
98.018254089707483
 21
63.982220495127649
 31
0.0
  0
LINE
  5
CD5
  8
0
 10
106.518254089707
 20
70.934355981978058
 30
0.0
 11
106.5182540897074
 21
63.223031116573559
 31
0.0
  0
ARC
  5
CD6
  8
0
 10
102.2682540897074
 20
75.498537754990011
 30
0.0
 40
12.275506638416489
 50
249.74384199960571
 51
290.25615800039418
  0
LINE
  5
CD7
  8
0
 10
106.5182540897076
 20
63.223031116573559
 30
0.0
 11
106.2682540897064
 21
63.078693549275542
 31
0.0
  0
LINE
  5
CD8
  8
0
 10
106.518254089707
 20
70.934355981978058
 30
0.0
 11
106.26825408970581
 21
71.078693549276068
 31
0.0
  0
ARC
  5
CD9
  8
0
 10
102.2682540897069
 20
58.658849343561528
 30
0.0
 40
12.275506638416489
 50
69.743841999605806
 51
110.25615800039419
  0
CIRCLE
  5
CDA
  8
0
 10
44.898003920527422
 20
127.36501992129151
 30
0.0
 40
8.25
  0
LINE
  5
CDB
  8
0
 10
35.083049344303831
 20
127.36501992129151
 30
0.0
 11
39.99052663241558
 21
118.8650199212916
 31
0.0
  0
LINE
  5
CDC
  8
0
 10
39.990526632415687
 20
135.86501992129149
 30
0.0
 11
35.083049344303831
 21
127.36501992129151
 31
0.0
  0
LINE
  5
CDD
  8
0
 10
49.8054812086393
 20
135.86501992129149
 30
0.0
 11
39.990526632415687
 21
135.86501992129149
 31
0.0
  0
LINE
  5
CDE
  8
0
 10
54.712958496751043
 20
127.3650199212916
 30
0.0
 11
49.8054812086393
 21
135.86501992129149
 31
0.0
  0
LINE
  5
CDF
  8
0
 10
49.8054812086393
 20
118.86501992129151
 30
0.0
 11
54.712958496751043
 21
127.3650199212916
 31
0.0
  0
LINE
  5
CE0
  8
0
 10
39.99052663241558
 20
118.8650199212916
 30
0.0
 11
49.8054812086393
 21
118.86501992129151
 31
0.0
  0
CIRCLE
  5
CE1
  8
3
 10
44.898003920527422
 20
127.36501992129151
 30
0.0
 40
4.1879999999999979
  0
CIRCLE
  5
CE2
  8
0
 10
44.898003920527422
 20
127.36501992129151
 30
0.0
 40
5.0
  0
LINE
  5
CF2
  8
1
 10
60.398003920527429
 20
127.36501992129151
 30
0.0
 11
29.39800392052744
 21
127.36501992129151
 31
0.0
  0
LINE
  5
CF3
  8
1
 10
44.898003920527422
 20
142.86501992129141
 30
0.0
 11
44.898003920527422
 21
111.86501992129151
 31
0.0
  0
CIRCLE
  5
CF4
  8
0
 10
44.898003920527422
 20
127.36501992129151
 30
0.0
 40
12.5
  0
LINE
  5
CF5
  8
0
 10
104.7490233204755
 20
46.078693549276068
 30
0.0
 11
91.287484858939806
 21
46.078693549276068
 31
0.0
  0
LINE
  5
CF6
  8
0
 10
91.287484858938313
 20
51.078693549275933
 30
0.0
 11
104.7490233204753
 21
51.078693549275933
 31
0.0
  0
ARC
  5
CF7
  8
0
 10
104.08043191619841
 20
47.34510124439327
 30
0.0
 40
3.5781518477924039
 50
64.384247467825858
 51
124.38424746803869
  0
LINE
  5
CF8
  8
0
 10
106.1011578583622
 20
50.29803830984639
 30
0.0
 11
104.7490233204755
 21
51.078693549275933
 31
0.0
  0
LINE
  5
CF9
  8
0
 10
106.1011578583622
 20
46.859348788705638
 30
0.0
 11
104.7490233204755
 21
46.078693549276068
 31
0.0
  0
ARC
  5
CFA
  8
0
 10
104.08043191619841
 20
49.812285854158738
 30
0.0
 40
3.5781518477924039
 50
235.61575253196131
 51
295.6157525321741
  0
LINE
  5
CFB
  8
0
 10
106.1011578583622
 20
50.29803830984644
 30
0.0
 11
106.1011578583622
 21
46.859348788705638
 31
0.0
  0
LINE
  5
CFC
  8
0
 10
102.05970597403299
 20
50.298038309846973
 30
0.0
 11
102.0597059740349
 21
46.859348788707273
 31
0.0
  0
LINE
  5
CFD
  8
0
 10
93.976802205381844
 20
50.298038309845239
 30
0.0
 11
93.976802205380054
 21
46.859348788707273
 31
0.0
  0
LINE
  5
CFE
  8
0
 10
89.935350321052695
 20
50.29803830984639
 30
0.0
 11
89.935350321052695
 21
46.859348788705638
 31
0.0
  0
ARC
  5
CFF
  8
0
 10
98.018254089708506
 20
59.608919224020099
 30
0.0
 40
13.374785217653811
 50
252.4120462259952
 51
287.58795377400378
  0
ARC
  5
D00
  8
0
 10
91.956076263216559
 20
49.812285854158738
 30
0.0
 40
3.5781518477924039
 50
244.3842474678259
 51
304.38424746803872
  0
LINE
  5
D01
  8
0
 10
89.935350321052695
 20
46.859348788705638
 30
0.0
 11
91.287484858939564
 21
46.078693549276068
 31
0.0
  0
LINE
  5
D02
  8
0
 10
89.935350321052695
 20
50.29803830984639
 30
0.0
 11
91.287484858939564
 21
51.078693549275933
 31
0.0
  0
ARC
  5
D03
  8
0
 10
98.018254089708506
 20
37.54846787453193
 30
0.0
 40
13.374785217653811
 50
72.412046225996122
 51
107.5879537740048
  0
ARC
  5
D04
  8
0
 10
91.956076263216559
 20
47.34510124439327
 30
0.0
 40
3.5781518477924039
 50
55.615752531961249
 51
115.6157525321741
  0
LINE
  5
D05
  8
0
 10
86.018254089707483
 20
27.078693549276242
 30
0.0
 11
110.0182540897075
 21
27.078693549276242
 31
0.0
  0
LINE
  5
D06
  8
0
 10
85.518254089707469
 20
27.578693549276242
 30
0.0
 11
85.518254089707469
 21
31.078693549276242
 31
0.0
  0
LINE
  5
D07
  8
0
 10
110.5182540897075
 20
27.578693549276242
 30
0.0
 11
110.5182540897075
 21
31.078693549276242
 31
0.0
  0
LINE
  5
D08
  8
0
 10
86.018254089707483
 20
27.078693549276242
 30
0.0
 11
85.518254089707469
 21
27.578693549276242
 31
0.0
  0
LINE
  5
D09
  8
0
 10
110.5182540897075
 20
27.578693549276242
 30
0.0
 11
110.0182540897075
 21
27.078693549276242
 31
0.0
  0
LINE
  5
D0A
  8
0
 10
89.518254089707483
 20
39.078693549276252
 30
0.0
 11
106.5182540897074
 21
39.078693549276252
 31
0.0
  0
LINE
  5
D0B
  8
0
 10
85.518254089707469
 20
31.078693549276242
 30
0.0
 11
110.5182540897075
 21
31.078693549276242
 31
0.0
  0
LINE
  5
D0C
  8
0
 10
110.5182540897075
 20
31.078693549276242
 30
0.0
 11
108.0182540897075
 21
33.578693549276238
 31
0.0
  0
LINE
  5
D0D
  8
0
 10
106.5182540897074
 20
39.078693549276252
 30
0.0
 11
108.0182540897075
 21
33.578693549276238
 31
0.0
  0
LINE
  5
D0E
  8
0
 10
85.518254089707469
 20
31.078693549276242
 30
0.0
 11
88.018254089707469
 21
33.578693549276238
 31
0.0
  0
LINE
  5
D0F
  8
0
 10
89.518254089707483
 20
39.078693549276252
 30
0.0
 11
88.018254089707469
 21
33.578693549276238
 31
0.0
  0
LINE
  5
D10
  8
0
 10
108.0182540897075
 20
33.578693549276238
 30
0.0
 11
88.018254089707469
 21
33.578693549276238
 31
0.0
  0
LINE
  5
D11
  8
0
 10
103.5182540897076
 20
42.078693549276217
 30
0.0
 11
92.518254089707568
 21
42.078693549276217
 31
0.0
  0
LINE
  5
D12
  8
0
 10
92.518254089707568
 20
42.078693549276217
 30
0.0
 11
92.518254089707568
 21
46.078693549276068
 31
0.0
  0
LINE
  5
D13
  8
0
 10
103.5182540897076
 20
42.078693549276217
 30
0.0
 11
103.5182540897076
 21
46.078693549276068
 31
0.0
  0
ARC
  5
D14
  8
0
 10
98.018254089707582
 20
37.748566530354033
 30
0.0
 40
7.0
 50
141.78678929826191
 51
169.04615684538459
  0
ARC
  5
D15
  8
0
 10
98.018254089707582
 20
37.748566530354033
 30
0.0
 40
7.0
 50
10.95384315461536
 51
38.213210701738532
  0
ARC
  5
D16
  8
0
 10
44.898003920526861
 20
37.748566530354033
 30
0.0
 40
7.0
 50
10.95384315461536
 51
38.213210701738532
  0
ARC
  5
D17
  8
0
 10
44.898003920526861
 20
37.748566530354033
 30
0.0
 40
7.0
 50
141.78678929826191
 51
169.04615684538459
  0
LINE
  5
D18
  8
0
 10
50.398003920526847
 20
42.078693549276217
 30
0.0
 11
50.398003920526847
 21
46.078693549276068
 31
0.0
  0
LINE
  5
D19
  8
0
 10
39.398003920526868
 20
42.078693549276217
 30
0.0
 11
39.398003920526868
 21
46.078693549276068
 31
0.0
  0
LINE
  5
D1A
  8
0
 10
50.398003920526847
 20
42.078693549276217
 30
0.0
 11
39.398003920526868
 21
42.078693549276217
 31
0.0
  0
LINE
  5
D1B
  8
0
 10
44.89800392052674
 20
50.298038309846611
 30
0.0
 11
44.89800392052674
 21
46.85934878870551
 31
0.0
  0
LINE
  5
D1C
  8
0
 10
37.898003920526762
 20
50.923253092185803
 30
0.0
 11
37.898003920526762
 21
46.234134006366283
 31
0.0
  0
LINE
  5
D1D
  8
0
 10
51.89800392052674
 20
50.923253092185803
 30
0.0
 11
51.89800392052674
 21
46.234134006366283
 31
0.0
  0
LINE
  5
D1E
  8
0
 10
51.62877315129478
 20
51.078693549276068
 30
0.0
 11
38.167234689758722
 21
51.078693549276068
 31
0.0
  0
ARC
  5
D1F
  8
0
 10
41.398003920526868
 20
40.814012331148383
 30
0.0
 40
10.10924076103746
 50
69.743841999583623
 51
110.25615800041631
  0
LINE
  5
D20
  8
0
 10
37.898003920526762
 20
50.923253092185803
 30
0.0
 11
38.167234689758722
 21
51.078693549276068
 31
0.0
  0
LINE
  5
D21
  8
0
 10
51.89800392052674
 20
50.923253092185803
 30
0.0
 11
51.62877315129478
 21
51.078693549276068
 31
0.0
  0
ARC
  5
D22
  8
0
 10
48.398003920526641
 20
40.814012331148383
 30
0.0
 40
10.10924076103746
 50
69.743841999583623
 51
110.25615800041631
  0
LINE
  5
D23
  8
0
 10
51.62877315129478
 20
46.078693549276068
 30
0.0
 11
38.167234689758722
 21
46.078693549276068
 31
0.0
  0
ARC
  5
D24
  8
0
 10
41.398003920526868
 20
56.343374767403709
 30
0.0
 40
10.10924076103746
 50
249.74384199958371
 51
290.25615800041641
  0
LINE
  5
D25
  8
0
 10
37.898003920526762
 20
46.234134006366283
 30
0.0
 11
38.167234689758722
 21
46.078693549276068
 31
0.0
  0
LINE
  5
D26
  8
0
 10
51.89800392052674
 20
46.234134006366283
 30
0.0
 11
51.62877315129478
 21
46.078693549276068
 31
0.0
  0
ARC
  5
D27
  8
0
 10
48.398003920526641
 20
56.343374767403709
 30
0.0
 40
10.10924076103746
 50
249.74384199958371
 51
290.25615800041641
  0
LINE
  5
D28
  8
0
 10
54.89800392052674
 20
33.578693549276238
 30
0.0
 11
34.898003920526747
 21
33.578693549276238
 31
0.0
  0
LINE
  5
D29
  8
0
 10
36.398003920526762
 20
39.078693549276252
 30
0.0
 11
34.898003920526747
 21
33.578693549276238
 31
0.0
  0
LINE
  5
D2A
  8
0
 10
32.398003920526747
 20
31.078693549276242
 30
0.0
 11
34.898003920526747
 21
33.578693549276238
 31
0.0
  0
LINE
  5
D2B
  8
0
 10
53.39800392052674
 20
39.078693549276252
 30
0.0
 11
54.89800392052674
 21
33.578693549276238
 31
0.0
  0
LINE
  5
D2C
  8
0
 10
57.39800392052674
 20
31.078693549276242
 30
0.0
 11
54.89800392052674
 21
33.578693549276238
 31
0.0
  0
LINE
  5
D2D
  8
0
 10
32.398003920526747
 20
31.078693549276242
 30
0.0
 11
57.39800392052674
 21
31.078693549276242
 31
0.0
  0
LINE
  5
D2E
  8
0
 10
36.398003920526762
 20
39.078693549276252
 30
0.0
 11
53.39800392052674
 21
39.078693549276252
 31
0.0
  0
LINE
  5
D2F
  8
0
 10
57.39800392052674
 20
27.578693549276242
 30
0.0
 11
56.89800392052674
 21
27.078693549276242
 31
0.0
  0
LINE
  5
D30
  8
0
 10
32.898003920526762
 20
27.078693549276242
 30
0.0
 11
32.398003920526747
 21
27.578693549276242
 31
0.0
  0
LINE
  5
D31
  8
0
 10
57.39800392052674
 20
27.578693549276242
 30
0.0
 11
57.39800392052674
 21
31.078693549276242
 31
0.0
  0
LINE
  5
D32
  8
0
 10
32.398003920526747
 20
27.578693549276242
 30
0.0
 11
32.398003920526747
 21
31.078693549276242
 31
0.0
  0
LINE
  5
D33
  8
0
 10
32.898003920526762
 20
27.078693549276242
 30
0.0
 11
56.89800392052674
 21
27.078693549276242
 31
0.0
  0
LINE
  5
D3A
  8
1
 10
44.898003920526783
 20
24.078693549276242
 30
0.0
 11
44.898003920527323
 21
97.078693549276224
 31
0.0
  0
LINE
  5
D3B
  8
1
 10
98.018254089707483
 20
97.078693549276224
 30
0.0
 11
98.018254089707483
 21
24.078693549276242
 31
0.0
  0
TEXT
  5
1172
  8
0
 62
     3
 10
0.0
 20
0.0
 30
0.0
 40
10.0
  1
LSA25S10A-SUS
  7
STANDARD1
  0
ENDSEC
  0
EOF
