  0
SECTION
  2
HEADER
  9
$ACADVER
  1
AC1009
  9
$INSBASE
 10
0.0
 20
0.0
 30
0.0
  9
$EXTMIN
 10
0.0
 20
-2.960436562073669
 30
0.0
  9
$EXTMAX
 10
111.0
 20
97.799999999999983
 30
0.0
  9
$LIMMIN
 10
0.0
 20
0.0
  9
$LIMMAX
 10
187.5
 20
135.0
  9
$ORTHOMODE
 70
     1
  9
$REGENMODE
 70
     1
  9
$FILLMODE
 70
     1
  9
$QTEXTMODE
 70
     0
  9
$MIRRTEXT
 70
     0
  9
$DRAGMODE
 70
     2
  9
$LTSCALE
 40
5.0
  9
$OSMODE
 70
  3071
  9
$ATTMODE
 70
     1
  9
$TEXTSIZE
 40
2.0000000000000502
  9
$TRACEWID
 40
0.05
  9
$TEXTSTYLE
  7
STANDARD
  9
$CLAYER
  8
0
  9
$CELTYPE
  6
BYLAYER
  9
$CECOLOR
 62
   256
  9
$DIMSCALE
 40
0.5
  9
$DIMASZ
 40
3.0
  9
$DIMEXO
 40
2.0
  9
$DIMDLI
 40
0.38
  9
$DIMRND
 40
0.0
  9
$DIMDLE
 40
0.0
  9
$DIMEXE
 40
2.0
  9
$DIMTP
 40
0.0
  9
$DIMTM
 40
0.0
  9
$DIMTXT
 40
3.2000000000000002
  9
$DIMCEN
 40
0.0
  9
$DIMTSZ
 40
0.0
  9
$DIMTOL
 70
     0
  9
$DIMLIM
 70
     0
  9
$DIMTIH
 70
     0
  9
$DIMTOH
 70
     0
  9
$DIMSE1
 70
     0
  9
$DIMSE2
 70
     0
  9
$DIMTAD
 70
     1
  9
$DIMZIN
 70
     0
  9
$DIMBLK
  1

  9
$DIMASO
 70
     1
  9
$DIMSHO
 70
     0
  9
$DIMPOST
  1

  9
$DIMAPOST
  1

  9
$DIMALT
 70
     0
  9
$DIMALTD
 70
     2
  9
$DIMALTF
 40
25.399999999999999
  9
$DIMLFAC
 40
1.0
  9
$DIMTOFL
 70
     1
  9
$DIMTVP
 40
1.6000000000000001
  9
$DIMTIX
 70
     1
  9
$DIMSOXD
 70
     0
  9
$DIMSAH
 70
     0
  9
$DIMBLK1
  1

  9
$DIMBLK2
  1

  9
$DIMSTYLE
  2
STANDARD
  9
$DIMCLRD
 70
     0
  9
$DIMCLRE
 70
     0
  9
$DIMCLRT
 70
     0
  9
$DIMTFAC
 40
1.0
  9
$DIMGAP
 40
0.09
  9
$LUNITS
 70
     2
  9
$LUPREC
 70
     4
  9
$SKETCHINC
 40
0.1
  9
$FILLETRAD
 40
0.0
  9
$AUNITS
 70
     0
  9
$AUPREC
 70
     4
  9
$MENU
  1
E:\r13\win\SUPPORT\ACAD
  9
$ELEVATION
 40
0.0
  9
$PELEVATION
 40
0.0
  9
$THICKNESS
 40
0.0
  9
$LIMCHECK
 70
     0
  9
$BLIPMODE
 70
     0
  9
$CHAMFERA
 40
0.0
  9
$CHAMFERB
 40
0.0
  9
$SKPOLY
 70
     0
  9
$TDCREATE
 40
2449839.7866898151
  9
$TDUPDATE
 40
2456597.6062633451
  9
$TDINDWG
 40
0.0133478009
  9
$TDUSRTIMER
 40
0.0133478009
  9
$USRTIMER
 70
     1
  9
$ANGBASE
 50
0.0
  9
$ANGDIR
 70
     0
  9
$PDMODE
 70
     0
  9
$PDSIZE
 40
0.0
  9
$PLINEWID
 40
0.0
  9
$COORDS
 70
     1
  9
$SPLFRAME
 70
     0
  9
$SPLINETYPE
 70
     6
  9
$SPLINESEGS
 70
     8
  9
$ATTDIA
 70
     0
  9
$ATTREQ
 70
     1
  9
$HANDLING
 70
     1
  9
$HANDSEED
  5
2D6
  9
$SURFTAB1
 70
     6
  9
$SURFTAB2
 70
     6
  9
$SURFTYPE
 70
     6
  9
$SURFU
 70
     6
  9
$SURFV
 70
     6
  9
$UCSNAME
  2

  9
$UCSORG
 10
0.0
 20
0.0
 30
0.0
  9
$UCSXDIR
 10
1.0
 20
0.0
 30
0.0
  9
$UCSYDIR
 10
0.0
 20
1.0
 30
0.0
  9
$PUCSNAME
  2

  9
$PUCSORG
 10
0.0
 20
0.0
 30
0.0
  9
$PUCSXDIR
 10
1.0
 20
0.0
 30
0.0
  9
$PUCSYDIR
 10
0.0
 20
1.0
 30
0.0
  9
$USERI1
 70
     0
  9
$USERI2
 70
     1
  9
$USERI3
 70
     1
  9
$USERI4
 70
     0
  9
$USERI5
 70
     0
  9
$USERR1
 40
0.0
  9
$USERR2
 40
0.0
  9
$USERR3
 40
0.0
  9
$USERR4
 40
0.0
  9
$USERR5
 40
0.0
  9
$WORLDVIEW
 70
     1
  9
$SHADEDGE
 70
     3
  9
$SHADEDIF
 70
    70
  9
$TILEMODE
 70
     1
  9
$MAXACTVP
 70
    16
  9
$PLIMCHECK
 70
     0
  9
$PEXTMIN
 10
1.0000000000000000E+020
 20
1.0000000000000000E+020
 30
1.0000000000000000E+020
  9
$PEXTMAX
 10
-1.0000000000000000E+020
 20
-1.0000000000000000E+020
 30
-1.0000000000000000E+020
  9
$PLIMMIN
 10
0.0
 20
0.0
  9
$PLIMMAX
 10
12.0
 20
9.0
  9
$UNITMODE
 70
     0
  9
$VISRETAIN
 70
     0
  9
$PLINEGEN
 70
     0
  9
$PSLTSCALE
 70
     0
  0
ENDSEC
  0
SECTION
  2
TABLES
  0
TABLE
  2
VPORT
 70
     1
  0
VPORT
  2
*ACTIVE
 70
     0
 10
0.0
 20
0.0
 11
1.0
 21
1.0
 12
93.74713919532617
 22
66.313465060797697
 13
0.0
 23
0.0
 14
5.0
 24
5.0
 15
5.0
 25
5.0
 16
0.0
 26
0.0
 36
1.0
 17
0.0
 27
0.0
 37
0.0
 40
140.15365342376049
 41
2.304913294797688
 42
50.0
 43
0.0
 44
0.0
 50
0.0
 51
0.0
 71
     0
 72
   500
 73
     1
 74
     0
 75
     0
 76
     0
 77
     0
 78
     2
  0
ENDTAB
  0
TABLE
  2
LTYPE
 70
     3
  0
LTYPE
  2
CONTINUOUS
 70
     0
  3
Solid Line
 72
    65
 73
     0
 40
0.0
  0
LTYPE
  2
CENTER
 70
     0
  3
____ _ ____ _ ____ _ ____ _ ____ _ ____ _ ____
 72
    65
 73
     4
 40
2.0
 49
1.25
 49
-0.25
 49
0.25
 49
-0.25
  0
LTYPE
  2
PHANTOM2
 70
     0
  3
___ _ _ ___ _ _ ___ _ _ ___ _ _
 72
    65
 73
     6
 40
1.25
 49
0.625
 49
-0.125
 49
0.125
 49
-0.125
 49
0.125
 49
-0.125
  0
ENDTAB
  0
TABLE
  2
LAYER
 70
     4
  0
LAYER
  2
0
 70
     0
 62
     7
  6
CONTINUOUS
  0
LAYER
  2
1
 70
     0
 62
     1
  6
CENTER
  0
LAYER
  2
3
 70
     0
 62
     3
  6
CONTINUOUS
  0
LAYER
  2
DEFPOINTS
 70
     0
 62
     7
  6
CONTINUOUS
  0
ENDTAB
  0
TABLE
  2
STYLE
 70
     2
  0
STYLE
  2
STANDARD
 70
     0
 40
0.0
 41
1.0
 50
0.0
 71
     0
 42
2.0000000000000502
  3
TXT
  4
BIGFONT
  0
STYLE
  2
STANDARD1
 70
     0
 40
0.0
 41
1.0
 50
0.0
 71
     0
 42
3.0
  3
txt
  4

  0
ENDTAB
  0
TABLE
  2
VIEW
 70
     1
  0
VIEW
  2
ALL
 70
     0
 40
135.0
 10
110.4957983193277
 20
67.5
 41
0.0
 11
0.0
 21
0.0
 31
1.0
 12
0.0
 22
0.0
 32
0.0
 42
0.0
 43
0.0
 44
0.0
 50
0.0
 71
     0
  0
ENDTAB
  0
TABLE
  2
UCS
 70
     0
  0
ENDTAB
  0
TABLE
  2
APPID
 70
     6
  0
APPID
  2
ACAD
 70
     0
  0
APPID
  2
ACAD_DSTYLE_DIMJAG
 70
     0
  0
APPID
  2
ACAD_DSTYLE_DIMTALN
 70
     0
  0
APPID
  2
ACAD_MLEADERVER
 70
     0
  0
APPID
  2
ACAD_EXEMPT_FROM_CAD_STANDARDS
 70
     0
  0
APPID
  2
ACAD_NAV_VCDISPLAY
 70
     0
  0
ENDTAB
  0
TABLE
  2
DIMSTYLE
 70
     1
  0
DIMSTYLE
  2
STANDARD
 70
     0
  3

  4

  5

  6

  7

 40
1.0
 41
0.18
 42
0.0625
 43
0.38
 44
0.18
 45
0.0
 46
0.0
 47
0.0
 48
0.0
140
0.18
141
0.09
142
0.0
143
25.399999999999999
144
1.0
145
0.0
146
1.0
147
0.09
 71
     0
 72
     0
 73
     1
 74
     1
 75
     0
 76
     0
 77
     0
 78
     0
170
     0
171
     2
172
     0
173
     0
174
     0
175
     0
176
     0
177
     0
178
     0
  0
ENDTAB
  0
ENDSEC
  0
SECTION
  2
BLOCKS
  0
BLOCK
  8
0
  2
$MODEL_SPACE
 70
     0
 10
0.0
 20
0.0
 30
0.0
  3
$MODEL_SPACE
  1

  0
ENDBLK
  5
C9
  8
0
  0
BLOCK
 67
     1
  8
0
  2
$PAPER_SPACE
 70
     0
 10
0.0
 20
0.0
 30
0.0
  3
$PAPER_SPACE
  1

  0
ENDBLK
  5
C7
 67
     1
  8
0
  0
ENDSEC
  0
SECTION
  2
ENTITIES
  0
LINE
  5
34
  8
1
 10
47.500000000000007
 20
89.799999999999997
 30
0.0
 11
78.500000000000028
 21
89.799999999999983
 31
0.0
  0
LINE
  5
35
  8
1
 10
63.000000000000021
 20
97.799999999999983
 30
0.0
 11
62.999999999999979
 21
81.799999999999955
 31
0.0
  0
LINE
  5
36
  8
1
 10
62.999999999999993
 20
65.299999999999983
 30
0.0
 11
62.999999999999979
 21
31.300000000000011
 31
0.0
  0
LINE
  5
44
  8
0
 10
60.499999999999993
 20
49.800000000000033
 30
0.0
 11
60.499999999999957
 21
34.70000000000001
 31
0.0
  0
LINE
  5
45
  8
3
 10
60.93299999999978
 20
48.199999999999967
 30
0.0
 11
60.932999999999772
 21
34.267000000000188
 31
0.0
  0
LINE
  5
46
  8
3
 10
65.067000000000206
 20
48.199999999999967
 30
0.0
 11
65.067000000000178
 21
34.267000000000252
 31
0.0
  0
LINE
  5
47
  8
0
 10
65.5
 20
49.800000000000033
 30
0.0
 11
65.5
 21
34.70000000000001
 31
0.0
  0
LINE
  5
48
  8
0
 10
64.599999999999994
 20
33.800000000000011
 30
0.0
 11
61.39999999999997
 21
33.800000000000011
 31
0.0
  0
LINE
  5
49
  8
0
 10
65.5
 20
48.199999999999967
 30
0.0
 11
60.499999999999993
 21
48.199999999999967
 31
0.0
  0
LINE
  5
4A
  8
3
 10
65.067000000000206
 20
48.199999999999967
 30
0.0
 11
65.5
 21
48.949977999676904
 31
0.0
  0
LINE
  5
4B
  8
0
 10
65.5
 20
34.70000000000001
 30
0.0
 11
64.599999999999994
 21
33.800000000000011
 31
0.0
  0
LINE
  5
4C
  8
0
 10
61.39999999999997
 20
33.800000000000011
 30
0.0
 11
60.499999999999957
 21
34.70000000000001
 31
0.0
  0
LINE
  5
4D
  8
0
 10
65.499999999999972
 20
34.700000000000038
 30
0.0
 11
60.499999999999957
 21
34.700000000000038
 31
0.0
  0
LINE
  5
4E
  8
3
 10
60.932999999999808
 20
48.199999999999967
 30
0.0
 11
60.500000000000021
 21
48.949977999676904
 31
0.0
  0
LINE
  5
51
  8
1
 10
105.5
 20
65.299999999999969
 30
0.0
 11
105.5
 21
31.300000000000011
 31
0.0
  0
LINE
  5
62
  8
3
 10
103.43299999999989
 20
48.200000000000003
 30
0.0
 11
103.0000000000001
 21
48.949977999676932
 31
0.0
  0
LINE
  5
63
  8
0
 10
108.0
 20
34.700000000000038
 30
0.0
 11
103.0
 21
34.700000000000038
 31
0.0
  0
LINE
  5
64
  8
0
 10
103.90000000000001
 20
33.800000000000011
 30
0.0
 11
103.0
 21
34.70000000000001
 31
0.0
  0
LINE
  5
65
  8
0
 10
108.0
 20
34.70000000000001
 30
0.0
 11
107.09999999999999
 21
33.800000000000011
 31
0.0
  0
LINE
  5
66
  8
3
 10
107.56700000000021
 20
48.200000000000003
 30
0.0
 11
108.0
 21
48.949977999676932
 31
0.0
  0
LINE
  5
67
  8
0
 10
108.0
 20
48.200000000000003
 30
0.0
 11
103.0
 21
48.200000000000003
 31
0.0
  0
LINE
  5
68
  8
0
 10
107.09999999999999
 20
33.800000000000011
 30
0.0
 11
103.90000000000001
 21
33.800000000000011
 31
0.0
  0
LINE
  5
69
  8
0
 10
108.0
 20
49.800000000000047
 30
0.0
 11
108.0
 21
34.70000000000001
 31
0.0
  0
LINE
  5
6A
  8
3
 10
107.56700000000021
 20
48.200000000000003
 30
0.0
 11
107.56700000000021
 21
34.267000000000252
 31
0.0
  0
LINE
  5
6B
  8
3
 10
103.43299999999979
 20
48.200000000000003
 30
0.0
 11
103.43299999999979
 21
34.267000000000188
 31
0.0
  0
LINE
  5
6C
  8
0
 10
103.0
 20
49.800000000000047
 30
0.0
 11
103.0
 21
34.70000000000001
 31
0.0
  0
LINE
  5
1C4
  8
0
 10
59.5
 20
49.799999999999997
 30
0.0
 11
66.5
 21
49.799999999999997
 31
0.0
  0
LINE
  5
1C5
  8
0
 10
50.0
 20
50.20000000000001
 30
0.0
 11
76.0
 21
50.20000000000001
 31
0.0
  0
LINE
  5
1C6
  8
0
 10
59.5
 20
50.20000000000001
 30
0.0
 11
59.5
 21
49.799999999999997
 31
0.0
  0
LINE
  5
1C7
  8
0
 10
50.0
 20
50.199999999999989
 30
0.0
 11
50.43677004072569
 21
58.334068848191947
 31
0.0
  0
ARC
  5
1C8
  8
0
 10
63.0
 20
37.800000000000011
 30
0.0
 40
25.0
 50
62.652244213623788
 51
117.34775481568759
  0
LINE
  5
1C9
  8
0
 10
76.0
 20
50.199999999999989
 30
0.0
 11
75.563093830542357
 21
58.336634799454053
 31
0.0
  0
ARC
  5
1CA
  8
0
 10
52.43402911023486
 20
58.22939693570607
 30
0.0
 40
2.0
 50
117.3477548156858
 51
177.0
  0
ARC
  5
1CB
  8
0
 10
73.565970889765126
 20
58.22939693570607
 30
0.0
 40
2.0
 50
2.9999999999999032
 51
62.652245184314161
  0
LINE
  5
1CC
  8
0
 10
66.5
 20
50.20000000000001
 30
0.0
 11
66.5
 21
49.799999999999997
 31
0.0
  0
LINE
  5
1CD
  8
0
 10
100.0
 20
50.199999999999982
 30
0.0
 11
111.0
 21
50.199999999999982
 31
0.0
  0
LINE
  5
1CE
  8
0
 10
102.0
 20
49.799999999999997
 30
0.0
 11
109.0
 21
49.799999999999997
 31
0.0
  0
LINE
  5
1CF
  8
0
 10
102.0
 20
50.199999999999939
 30
0.0
 11
102.0
 21
49.799999999999997
 31
0.0
  0
LINE
  5
1D0
  8
0
 10
109.0000000000001
 20
50.199999999999982
 30
0.0
 11
109.0
 21
49.799999999999997
 31
0.0
  0
LINE
  5
1D1
  8
0
 10
100.0
 20
50.199999999999982
 30
0.0
 11
100.4736088097569
 21
59.036994435483329
 31
0.0
  0
LINE
  5
1D2
  8
0
 10
111.0
 20
50.199999999999982
 30
0.0
 11
110.5263911902432
 21
59.036994435481802
 31
0.0
  0
ARC
  5
1D3
  8
0
 10
105.50020179919611
 20
57.394337086935103
 30
0.0
 40
5.4056629168315906
 50
28.869506160647731
 51
151.13049383935211
  0
ARC
  5
1D4
  8
0
 10
102.6782581252924
 20
58.897723375383123
 30
0.0
 40
2.2090439182308339
 50
149.9390541713222
 51
176.3853413755543
  0
ARC
  5
1D5
  8
0
 10
107.7822943486522
 20
58.735489041919507
 30
0.0
 40
2.760610979181279
 50
6.2701756898513148
 51
27.361622289123961
  0
LINE
  5
1D6
  8
0
 10
52.44187354954957
 20
86.552798318095199
 30
0.0
 11
57.587732016632259
 21
85.066144142856913
 31
0.0
  0
LINE
  5
1D7
  8
0
 10
68.412267983367613
 20
85.066144142856913
 30
0.0
 11
73.558126450450374
 21
86.552798318095199
 31
0.0
  0
LINE
  5
1D8
  8
0
 10
73.558126450450345
 20
93.047201681904795
 30
0.0
 11
68.412267983367613
 21
94.533855857143038
 31
0.0
  0
LINE
  5
1D9
  8
0
 10
57.587732016632259
 20
94.533855857143038
 30
0.0
 11
52.44187354954957
 21
93.047201681904795
 31
0.0
  0
ARC
  5
1DA
  8
0
 10
62.999999999999943
 20
75.799999999999926
 30
0.0
 40
19.50000000000006
 50
73.885833212616447
 51
106.11416678738181
  0
ARC
  5
1DB
  8
0
 10
62.999999999999943
 20
103.8
 30
0.0
 40
19.50000000000006
 50
253.88583321261811
 51
286.11416678738192
  0
ARC
  5
1DC
  8
0
 10
53.380000000000003
 20
89.799999999999955
 30
0.0
 40
3.380000000000031
 50
106.11416678738181
 51
253.88583321261811
  0
ARC
  5
1DD
  8
0
 10
72.619999999999919
 20
89.799999999999955
 30
0.0
 40
3.380000000000031
 50
286.11416678738192
 51
73.885833212616447
  0
TEXT
  5
272
  8
0
 62
     3
 10
0.0
 20
0.0
 30
0.0
 40
10.0
  1
LS5X16
  7
STANDARD1
  0
ENDSEC
  0
EOF
