  0
SECTION
  2
HEADER
  9
$ACADVER
  1
AC1009
  9
$INSBASE
 10
0.0
 20
0.0
 30
0.0
  9
$EXTMIN
 10
0.0
 20
-2.960436562073669
 30
0.0
  9
$EXTMAX
 10
235.7652877391802
 20
228.7463619810099
 30
0.0
  9
$LIMMIN
 10
0.0
 20
0.0
  9
$LIMMAX
 10
750.0
 20
540.0
  9
$ORTHOMODE
 70
     1
  9
$REGENMODE
 70
     1
  9
$FILLMODE
 70
     1
  9
$QTEXTMODE
 70
     0
  9
$MIRRTEXT
 70
     0
  9
$DRAGMODE
 70
     2
  9
$LTSCALE
 40
20.0
  9
$OSMODE
 70
  3071
  9
$ATTMODE
 70
     1
  9
$TEXTSIZE
 40
0.2
  9
$TRACEWID
 40
0.05
  9
$TEXTSTYLE
  7
STANDARD
  9
$CLAYER
  8
0
  9
$CELTYPE
  6
BYLAYER
  9
$CECOLOR
 62
   256
  9
$DIMSCALE
 40
2.0
  9
$DIMASZ
 40
3.0
  9
$DIMEXO
 40
2.0
  9
$DIMDLI
 40
0.38
  9
$DIMRND
 40
0.0
  9
$DIMDLE
 40
0.0
  9
$DIMEXE
 40
2.0
  9
$DIMTP
 40
0.0
  9
$DIMTM
 40
0.0
  9
$DIMTXT
 40
3.2000000000000002
  9
$DIMCEN
 40
0.0
  9
$DIMTSZ
 40
0.0
  9
$DIMTOL
 70
     0
  9
$DIMLIM
 70
     0
  9
$DIMTIH
 70
     0
  9
$DIMTOH
 70
     0
  9
$DIMSE1
 70
     0
  9
$DIMSE2
 70
     0
  9
$DIMTAD
 70
     1
  9
$DIMZIN
 70
     0
  9
$DIMBLK
  1

  9
$DIMASO
 70
     1
  9
$DIMSHO
 70
     0
  9
$DIMPOST
  1

  9
$DIMAPOST
  1

  9
$DIMALT
 70
     0
  9
$DIMALTD
 70
     2
  9
$DIMALTF
 40
25.399999999999999
  9
$DIMLFAC
 40
1.0
  9
$DIMTOFL
 70
     1
  9
$DIMTVP
 40
1.6000000000000001
  9
$DIMTIX
 70
     1
  9
$DIMSOXD
 70
     0
  9
$DIMSAH
 70
     0
  9
$DIMBLK1
  1

  9
$DIMBLK2
  1

  9
$DIMSTYLE
  2
STANDARD
  9
$DIMCLRD
 70
     0
  9
$DIMCLRE
 70
     0
  9
$DIMCLRT
 70
     0
  9
$DIMTFAC
 40
1.0
  9
$DIMGAP
 40
0.09
  9
$LUNITS
 70
     2
  9
$LUPREC
 70
     4
  9
$SKETCHINC
 40
0.1
  9
$FILLETRAD
 40
0.0
  9
$AUNITS
 70
     0
  9
$AUPREC
 70
     4
  9
$MENU
  1
E:\r13\win\SUPPORT\ACAD
  9
$ELEVATION
 40
0.0
  9
$PELEVATION
 40
0.0
  9
$THICKNESS
 40
0.0
  9
$LIMCHECK
 70
     0
  9
$BLIPMODE
 70
     0
  9
$CHAMFERA
 40
0.0
  9
$CHAMFERB
 40
0.0
  9
$SKPOLY
 70
     0
  9
$TDCREATE
 40
2451614.5541212969
  9
$TDUPDATE
 40
2456597.5881023961
  9
$TDINDWG
 40
0.0017724769
  9
$TDUSRTIMER
 40
0.0017724769
  9
$USRTIMER
 70
     1
  9
$ANGBASE
 50
0.0
  9
$ANGDIR
 70
     0
  9
$PDMODE
 70
     0
  9
$PDSIZE
 40
0.0
  9
$PLINEWID
 40
0.0
  9
$COORDS
 70
     1
  9
$SPLFRAME
 70
     0
  9
$SPLINETYPE
 70
     6
  9
$SPLINESEGS
 70
     8
  9
$ATTDIA
 70
     0
  9
$ATTREQ
 70
     1
  9
$HANDLING
 70
     1
  9
$HANDSEED
  5
A39
  9
$SURFTAB1
 70
     6
  9
$SURFTAB2
 70
     6
  9
$SURFTYPE
 70
     6
  9
$SURFU
 70
     6
  9
$SURFV
 70
     6
  9
$UCSNAME
  2

  9
$UCSORG
 10
0.0
 20
0.0
 30
0.0
  9
$UCSXDIR
 10
1.0
 20
0.0
 30
0.0
  9
$UCSYDIR
 10
0.0
 20
1.0
 30
0.0
  9
$PUCSNAME
  2

  9
$PUCSORG
 10
0.0
 20
0.0
 30
0.0
  9
$PUCSXDIR
 10
1.0
 20
0.0
 30
0.0
  9
$PUCSYDIR
 10
0.0
 20
1.0
 30
0.0
  9
$USERI1
 70
     0
  9
$USERI2
 70
     1
  9
$USERI3
 70
     1
  9
$USERI4
 70
     0
  9
$USERI5
 70
     0
  9
$USERR1
 40
0.0
  9
$USERR2
 40
0.0
  9
$USERR3
 40
0.0
  9
$USERR4
 40
0.0
  9
$USERR5
 40
0.0
  9
$WORLDVIEW
 70
     1
  9
$SHADEDGE
 70
     3
  9
$SHADEDIF
 70
    70
  9
$TILEMODE
 70
     1
  9
$MAXACTVP
 70
    16
  9
$PLIMCHECK
 70
     0
  9
$PEXTMIN
 10
1.0000000000000000E+020
 20
1.0000000000000000E+020
 30
1.0000000000000000E+020
  9
$PEXTMAX
 10
-1.0000000000000000E+020
 20
-1.0000000000000000E+020
 30
-1.0000000000000000E+020
  9
$PLIMMIN
 10
0.0
 20
0.0
  9
$PLIMMAX
 10
12.0
 20
9.0
  9
$UNITMODE
 70
     0
  9
$VISRETAIN
 70
     0
  9
$PLINEGEN
 70
     0
  9
$PSLTSCALE
 70
     0
  0
ENDSEC
  0
SECTION
  2
TABLES
  0
TABLE
  2
VPORT
 70
     1
  0
VPORT
  2
*ACTIVE
 70
     0
 10
0.0
 20
0.0
 11
1.0
 21
1.0
 12
374.98855678130462
 22
269.68405869568772
 13
0.0
 23
0.0
 14
20.0
 24
20.0
 15
20.0
 25
20.0
 16
0.0
 26
0.0
 36
1.0
 17
0.0
 27
0.0
 37
0.0
 40
551.57487251346481
 41
2.304913294797688
 42
50.0
 43
0.0
 44
0.0
 50
0.0
 51
0.0
 71
     0
 72
   500
 73
     1
 74
     0
 75
     0
 76
     0
 77
     0
 78
     2
  0
ENDTAB
  0
TABLE
  2
LTYPE
 70
     3
  0
LTYPE
  2
CONTINUOUS
 70
     0
  3
Solid Line
 72
    65
 73
     0
 40
0.0
  0
LTYPE
  2
CENTER
 70
     0
  3
____ _ ____ _ ____ _ ____ _ ____ _ ____ _ ____
 72
    65
 73
     4
 40
2.0
 49
1.25
 49
-0.25
 49
0.25
 49
-0.25
  0
LTYPE
  2
PHANTOM2
 70
     0
  3
___ _ _ ___ _ _ ___ _ _ ___ _ _
 72
    65
 73
     6
 40
1.25
 49
0.625
 49
-0.125
 49
0.125
 49
-0.125
 49
0.125
 49
-0.125
  0
ENDTAB
  0
TABLE
  2
LAYER
 70
     3
  0
LAYER
  2
0
 70
     0
 62
     7
  6
CONTINUOUS
  0
LAYER
  2
1
 70
     0
 62
     1
  6
CENTER
  0
LAYER
  2
3
 70
     0
 62
     3
  6
CONTINUOUS
  0
ENDTAB
  0
TABLE
  2
STYLE
 70
     4
  0
STYLE
  2
STANDARD
 70
     0
 40
0.0
 41
1.0
 50
0.0
 71
     0
 42
0.2
  3
TXT
  4
BIGFONT
  0
STYLE
  2
SIM300
 70
     0
 40
0.0
 41
3.0
 50
0.0
 71
     0
 42
1.0
  3
SIMPLEX
  4

  0
STYLE
  2
SIM110
 70
     0
 40
0.0
 41
1.1000000000000001
 50
0.0
 71
     0
 42
1.3
  3
SIMPLEX
  4

  0
STYLE
  2
STANDARD1
 70
     0
 40
0.0
 41
1.0
 50
0.0
 71
     0
 42
3.0
  3
txt
  4

  0
ENDTAB
  0
TABLE
  2
VIEW
 70
     1
  0
VIEW
  2
ALL
 70
     0
 40
540.0
 10
441.98319327731087
 20
270.0
 41
0.0
 11
0.0
 21
0.0
 31
1.0
 12
0.0
 22
0.0
 32
0.0
 42
0.0
 43
0.0
 44
0.0
 50
0.0
 71
     0
  0
ENDTAB
  0
TABLE
  2
UCS
 70
     0
  0
ENDTAB
  0
TABLE
  2
APPID
 70
     5
  0
APPID
  2
ACAD
 70
     0
  0
APPID
  2
GRADIENTCOLOR1ACI
 70
     0
  0
APPID
  2
GRADIENTCOLOR2ACI
 70
     0
  0
APPID
  2
ACAD_MLEADERVER
 70
     0
  0
APPID
  2
ACAD_NAV_VCDISPLAY
 70
     0
  0
ENDTAB
  0
TABLE
  2
DIMSTYLE
 70
     1
  0
DIMSTYLE
  2
STANDARD
 70
     0
  3

  4

  5

  6

  7

 40
1.0
 41
0.18
 42
0.0625
 43
0.38
 44
0.18
 45
0.0
 46
0.0
 47
0.0
 48
0.0
140
0.18
141
0.09
142
0.0
143
25.399999999999999
144
1.0
145
0.0
146
1.0
147
0.09
 71
     0
 72
     0
 73
     1
 74
     1
 75
     0
 76
     0
 77
     0
 78
     0
170
     0
171
     2
172
     0
173
     0
174
     0
175
     0
176
     0
177
     0
178
     0
  0
ENDTAB
  0
ENDSEC
  0
SECTION
  2
BLOCKS
  0
BLOCK
  8
0
  2
$MODEL_SPACE
 70
     0
 10
0.0
 20
0.0
 30
0.0
  3
$MODEL_SPACE
  1

  0
ENDBLK
  5
442
  8
0
  0
BLOCK
 67
     1
  8
0
  2
$PAPER_SPACE
 70
     0
 10
0.0
 20
0.0
 30
0.0
  3
$PAPER_SPACE
  1

  0
ENDBLK
  5
440
 67
     1
  8
0
  0
BLOCK
  8
0
  2
*U0
 70
     1
 10
0.0
 20
0.0
 30
0.0
  3
*U0
  1

  0
SOLID
  5
A23
  8
0
  6
CONTINUOUS
 10
126.7652877391798
 20
194.84636198101009
 30
0.0
 11
126.7652877391798
 21
193.54636198100999
 31
0.0
 12
134.26528773917971
 22
193.54636198100999
 32
0.0
 13
134.26528773917971
 23
193.54636198100999
 33
0.0
210
0.0
220
0.0
230
1.0
  0
SOLID
  5
A24
  8
0
  6
CONTINUOUS
 10
-126.7652877391798
 20
194.84636198101009
 30
0.0
 11
-134.26528773917971
 21
194.84636198101009
 31
0.0
 12
-134.26528773917971
 22
193.54636198100999
 32
0.0
 13
-134.26528773917971
 23
193.54636198100999
 33
0.0
210
0.0
220
0.0
230
-1.0
  0
SOLID
  5
A25
  8
0
  6
CONTINUOUS
 10
119.2652877391797
 20
194.84636198101009
 30
0.0
 11
119.2652877391797
 21
193.54636198100999
 31
0.0
 12
126.7652877391798
 22
193.54636198100999
 32
0.0
 13
126.7652877391798
 23
193.54636198100999
 33
0.0
210
0.0
220
0.0
230
1.0
  0
SOLID
  5
A26
  8
0
  6
CONTINUOUS
 10
-119.2652877391797
 20
194.84636198101009
 30
0.0
 11
-126.7652877391798
 21
194.84636198101009
 31
0.0
 12
-126.7652877391798
 22
193.54636198100999
 32
0.0
 13
-126.7652877391798
 23
193.54636198100999
 33
0.0
210
0.0
220
0.0
230
-1.0
  0
SOLID
  5
A27
  8
0
  6
CONTINUOUS
 10
126.7652877391796
 20
155.4963619810101
 30
0.0
 11
126.7652877391796
 21
153.9963619810099
 31
0.0
 12
134.26528773917971
 22
153.9963619810099
 32
0.0
 13
134.26528773917971
 23
153.9963619810099
 33
0.0
  0
SOLID
  5
A28
  8
0
  6
CONTINUOUS
 10
-126.7652877391796
 20
155.4963619810101
 30
0.0
 11
-134.26528773917971
 21
155.4963619810101
 31
0.0
 12
-134.26528773917971
 22
153.9963619810099
 32
0.0
 13
-134.26528773917971
 23
153.9963619810099
 33
0.0
210
0.0
220
0.0
230
-1.0
  0
SOLID
  5
A29
  8
0
  6
CONTINUOUS
 10
119.2652877391797
 20
155.4963619810101
 30
0.0
 11
119.2652877391797
 21
153.9963619810099
 31
0.0
 12
126.7652877391796
 22
153.9963619810099
 32
0.0
 13
126.7652877391796
 23
153.9963619810099
 33
0.0
210
0.0
220
0.0
230
1.0
  0
SOLID
  5
A2A
  8
0
  6
CONTINUOUS
 10
-119.2652877391797
 20
155.4963619810101
 30
0.0
 11
-126.7652877391796
 21
155.4963619810101
 31
0.0
 12
-126.7652877391796
 22
153.9963619810099
 32
0.0
 13
-126.7652877391796
 23
153.9963619810099
 33
0.0
210
0.0
220
0.0
230
-1.0
  0
LINE
  5
A2B
  8
0
  6
CONTINUOUS
 10
126.7652877391798
 20
194.84636198101009
 30
0.0
 11
126.7652877391798
 21
193.54636198100999
 31
0.0
  0
LINE
  5
A2C
  8
0
  6
CONTINUOUS
 10
134.26528773917971
 20
194.84636198101009
 30
0.0
 11
134.26528773917971
 21
193.54636198100999
 31
0.0
  0
LINE
  5
A2D
  8
0
  6
CONTINUOUS
 10
119.2652877391797
 20
194.84636198101009
 30
0.0
 11
119.2652877391797
 21
193.54636198100999
 31
0.0
  0
LINE
  5
A2E
  8
0
  6
CONTINUOUS
 10
126.7652877391798
 20
194.84636198101009
 30
0.0
 11
126.7652877391798
 21
193.54636198100999
 31
0.0
  0
LINE
  5
A2F
  8
0
  6
CONTINUOUS
 10
126.7652877391796
 20
155.4963619810101
 30
0.0
 11
126.7652877391796
 21
153.9963619810099
 31
0.0
  0
LINE
  5
A30
  8
0
  6
CONTINUOUS
 10
134.26528773917971
 20
155.4963619810101
 30
0.0
 11
134.26528773917971
 21
153.9963619810099
 31
0.0
  0
LINE
  5
A31
  8
0
  6
CONTINUOUS
 10
119.2652877391797
 20
155.4963619810101
 30
0.0
 11
119.2652877391797
 21
153.9963619810099
 31
0.0
  0
LINE
  5
A32
  8
0
  6
CONTINUOUS
 10
126.7652877391796
 20
155.4963619810101
 30
0.0
 11
126.7652877391796
 21
153.9963619810099
 31
0.0
  0
ENDBLK
  5
A34
  8
0
  0
ENDSEC
  0
SECTION
  2
ENTITIES
  0
LINE
  5
2BE
  8
1
 10
110.7652877391801
 20
174.2463619810101
 30
0.0
 11
142.7652877391802
 21
174.24636198101001
 31
0.0
  0
LINE
  5
2BF
  8
1
 10
126.7652877391801
 20
94.746361981010125
 30
0.0
 11
126.76528773918
 21
50.746361981010153
 31
0.0
  0
LINE
  5
2C8
  8
0
 10
137.76528773918
 20
88.746361981010125
 30
0.0
 11
137.76528773918
 21
76.246361981010182
 31
0.0
  0
LINE
  5
2C9
  8
0
 10
115.7652877391802
 20
88.746361981010125
 30
0.0
 11
115.7652877391802
 21
76.246361981010182
 31
0.0
  0
LINE
  5
2CC
  8
0
 10
115.7652877391802
 20
78.546361981010136
 30
0.0
 11
126.76528773918
 21
78.546361981010136
 31
0.0
  0
LINE
  5
2F4
  8
0
 10
137.76528773918
 20
78.546361981010136
 30
0.0
 11
126.76528773918
 21
78.546361981010136
 31
0.0
  0
LINE
  5
312
  8
0
 10
117.7652877391802
 20
90.746361981010125
 30
0.0
 11
126.76528773918
 21
90.746361981010125
 31
0.0
  0
ARC
  5
313
  8
0
 10
117.7652877391802
 20
88.746361981010125
 30
0.0
 40
2.0
 50
90.0
 51
180.0
  0
LINE
  5
314
  8
0
 10
118.8652877391801
 20
92.246361981010125
 30
0.0
 11
118.26528773918
 21
91.646361981010102
 31
0.0
  0
LINE
  5
315
  8
0
 10
118.26528773918
 20
91.646361981010102
 30
0.0
 11
118.26528773918
 21
90.746361981010125
 31
0.0
  0
LINE
  5
316
  8
0
 10
125.76528773918
 20
92.246361981010125
 30
0.0
 11
125.76528773918
 21
90.746361981010125
 31
0.0
  0
LINE
  5
317
  8
0
 10
125.76528773918
 20
92.246361981010125
 30
0.0
 11
118.8652877391801
 21
92.246361981010125
 31
0.0
  0
ARC
  5
318
  8
0
 10
135.76528773918
 20
88.746361981010125
 30
0.0
 40
2.0
 50
0.0
 51
90.0
  0
LINE
  5
319
  8
0
 10
135.76528773918
 20
90.746361981010125
 30
0.0
 11
126.76528773918
 21
90.746361981010125
 31
0.0
  0
LINE
  5
31A
  8
0
 10
127.76528773918
 20
92.246361981010125
 30
0.0
 11
134.66528773918009
 21
92.246361981010125
 31
0.0
  0
LINE
  5
31B
  8
0
 10
127.76528773918
 20
92.246361981010125
 30
0.0
 11
127.76528773918
 21
90.746361981010125
 31
0.0
  0
LINE
  5
31C
  8
0
 10
134.66528773918009
 20
92.246361981010125
 30
0.0
 11
135.26528773918011
 21
91.646361981010102
 31
0.0
  0
LINE
  5
31D
  8
0
 10
135.26528773918
 20
91.646361981010102
 30
0.0
 11
135.26528773918
 21
90.746361981010125
 31
0.0
  0
LINE
  5
31E
  8
0
 10
115.7652877391802
 20
221.74636198101001
 30
0.0
 11
115.7652877391802
 21
126.99636198101
 31
0.0
  0
LINE
  5
31F
  8
0
 10
137.76528773918011
 20
221.74636198101001
 30
0.0
 11
137.76528773918011
 21
126.9963619810102
 31
0.0
  0
LINE
  5
320
  8
1
 10
126.76528773918
 20
228.7463619810099
 30
0.0
 11
126.7652877391794
 21
119.7463619810101
 31
0.0
  0
LINE
  5
321
  8
0
 10
134.26528773917971
 20
199.74636198101001
 30
0.0
 11
134.26528773917971
 21
148.7463619810101
 31
0.0
  0
LINE
  5
322
  8
0
 10
119.2652877391797
 20
148.7463619810099
 30
0.0
 11
119.2652877391797
 21
199.74636198101021
 31
0.0
  0
CIRCLE
  5
323
  8
0
 10
126.76528773918039
 20
136.2463619810101
 30
0.0
 40
7.7999999999999989
  0
CIRCLE
  5
324
  8
0
 10
126.76528773918039
 20
136.2463619810101
 30
0.0
 40
8.5
  0
LINE
  5
325
  8
0
 10
135.76528773918011
 20
124.7463619810102
 30
0.0
 11
117.7652877391802
 21
124.7463619810101
 31
0.0
  0
LINE
  5
326
  8
0
 10
126.76528773918039
 20
137.24636198101021
 30
0.0
 11
119.0296558968549
 21
137.24636198101021
 31
0.0
  0
LINE
  5
327
  8
0
 10
126.76528773918039
 20
135.24636198101021
 30
0.0
 11
119.0296558968549
 21
135.24636198101021
 31
0.0
  0
LINE
  5
328
  8
1
 10
140.26528773918011
 20
136.24636198101001
 30
0.0
 11
113.2652877391801
 21
136.2463619810101
 31
0.0
  0
ARC
  5
329
  8
0
 10
117.99174060130809
 20
126.96154230290161
 30
0.0
 40
2.226725119376316
 50
179.10401966758329
 51
264.16305900555813
  0
ARC
  5
32A
  8
0
 10
135.53883487705221
 20
126.96154230290171
 30
0.0
 40
2.2267251193763542
 50
275.83694099444187
 51
0.8959803324166458
  0
LINE
  5
32B
  8
0
 10
126.76528773918049
 20
135.24636198101021
 30
0.0
 11
134.50091958150591
 21
135.24636198101021
 31
0.0
  0
LINE
  5
32C
  8
0
 10
126.76528773918049
 20
137.24636198101021
 30
0.0
 11
134.5009195815058
 21
137.24636198101021
 31
0.0
  0
LINE
  5
32D
  8
0
 10
135.76528773918011
 20
147.24636198101001
 30
0.0
 11
117.7652877391802
 21
147.24636198101021
 31
0.0
  0
LINE
  5
32E
  8
0
 10
134.26528773917971
 20
153.9963619810101
 30
0.0
 11
119.2652877391797
 21
153.9963619810099
 31
0.0
  0
LINE
  5
32F
  8
0
 10
134.26528773917971
 20
155.49636198101001
 30
0.0
 11
119.2652877391797
 21
155.4963619810099
 31
0.0
  0
TEXT
  5
330
  8
0
 10
122.9782809290258
 20
150.77433753216229
 30
0.0
 40
1.1999999999999991
  1
HCZ 76
 41
1.129999999999999
  7
SIM110
 72
     1
 11
126.6911380718829
 21
150.77433753216229
 31
0.0
  0
LINE
  5
331
  8
0
 10
134.26528773917971
 20
155.4963619810101
 30
0.0
 11
119.2652877391797
 21
155.4963619810101
 31
0.0
  0
LINE
  5
332
  8
0
 10
133.26528773917971
 20
147.7463619810101
 30
0.0
 11
120.2652877391797
 21
147.7463619810099
 31
0.0
  0
ARC
  5
333
  8
0
 10
117.7652877391802
 20
145.2463619810101
 30
0.0
 40
2.0
 50
89.999999999999687
 51
180.0
  0
ARC
  5
334
  8
0
 10
120.2652877391797
 20
148.7463619810099
 30
0.0
 40
1.0
 50
180.0
 51
270.00000000000011
  0
ARC
  5
335
  8
0
 10
133.26528773917971
 20
148.7463619810101
 30
0.0
 40
1.0
 50
270.00000000000011
 51
0.0000000000000127
  0
ARC
  5
336
  8
0
 10
135.76528773918011
 20
145.24636198101001
 30
0.0
 40
2.0
 50
0.0
 51
89.999999999999687
  0
CIRCLE
  5
337
  8
0
 10
126.76528773918039
 20
212.2463619810101
 30
0.0
 40
7.7999999999999989
  0
CIRCLE
  5
338
  8
0
 10
126.76528773918039
 20
212.2463619810101
 30
0.0
 40
8.5
  0
LINE
  5
339
  8
0
 10
135.76528773918011
 20
201.2463619810101
 30
0.0
 11
117.7652877391802
 21
201.24636198101001
 31
0.0
  0
LINE
  5
33A
  8
0
 10
120.2652877391797
 20
200.74636198101021
 30
0.0
 11
133.26528773917971
 21
200.7463619810101
 31
0.0
  0
LINE
  5
33B
  8
0
 10
134.26528773917971
 20
193.54636198100999
 30
0.0
 11
119.2652877391797
 21
193.54636198100999
 31
0.0
  0
LINE
  5
33C
  8
0
 10
134.26528773917971
 20
194.84636198101009
 30
0.0
 11
119.2652877391797
 21
194.84636198101009
 31
0.0
  0
TEXT
  5
33D
  8
0
 10
120.0486210725131
 20
197.00249555833889
 30
0.0
 40
1.0
  1
ELESA
 41
3.1000000000000001
  7
SIM300
 72
     1
 11
126.7652877391798
 21
197.00249555833889
 31
0.0
  0
ARC
  5
33E
  8
0
 10
117.2391489078983
 20
202.62953985095911
 30
0.0
 40
1.4798659026072489
 50
185.1632159621652
 51
290.82601762166979
  0
ARC
  5
33F
  8
0
 10
120.2652877391797
 20
199.74636198101021
 30
0.0
 40
1.0
 50
89.999999999999517
 51
180.0
  0
ARC
  5
340
  8
0
 10
133.26528773917971
 20
199.74636198101001
 30
0.0
 40
1.0
 50
0.0
 51
89.999999999999474
  0
ARC
  5
341
  8
0
 10
136.29142657046191
 20
202.62953985095919
 30
0.0
 40
1.4798659026072489
 50
249.1739823783322
 51
354.83678403783699
  0
LINE
  5
342
  8
0
 10
135.76528773918011
 20
223.74636198101001
 30
0.0
 11
117.7652877391802
 21
223.7463619810101
 31
0.0
  0
LINE
  5
343
  8
1
 10
140.26528773918011
 20
212.2463619810103
 30
0.0
 11
113.2652877391801
 21
212.2463619810101
 31
0.0
  0
LINE
  5
344
  8
0
 10
126.76528773918039
 20
213.2463619810101
 30
0.0
 11
119.0296558968549
 21
213.24636198101001
 31
0.0
  0
LINE
  5
345
  8
0
 10
126.76528773918039
 20
211.24636198101001
 30
0.0
 11
119.0296558968549
 21
211.24636198101001
 31
0.0
  0
ARC
  5
346
  8
0
 10
117.7652877391802
 20
221.74636198101001
 30
0.0
 40
2.0
 50
89.999999999999687
 51
180.0
  0
LINE
  5
347
  8
0
 10
126.76528773918049
 20
213.2463619810101
 30
0.0
 11
134.50091958150591
 21
213.24636198101001
 31
0.0
  0
LINE
  5
348
  8
0
 10
126.76528773918049
 20
211.24636198101001
 30
0.0
 11
134.5009195815058
 21
211.24636198101001
 31
0.0
  0
ARC
  5
349
  8
0
 10
135.76528773918011
 20
221.74636198101001
 30
0.0
 40
2.0
 50
0.0
 51
89.999999999999687
  0
LINE
  5
355
  8
0
 10
197.76528773918011
 20
200.74636198101021
 30
0.0
 11
197.76528773918011
 21
147.7463619810099
 31
0.0
  0
LINE
  5
356
  8
0
 10
207.9652877391801
 20
174.24636198101001
 30
0.0
 11
207.9652877391801
 21
223.74636198101001
 31
0.0
  0
LINE
  5
358
  8
0
 10
197.76528773918011
 20
147.7463619810099
 30
0.0
 11
207.9652877391801
 21
147.7463619810099
 31
0.0
  0
LINE
  5
359
  8
1
 10
215.2652877391802
 20
174.24636198101001
 30
0.0
 11
192.7652877391802
 21
174.24636198101001
 31
0.0
  0
LINE
  5
35A
  8
0
 10
210.2652877391802
 20
124.7463619810101
 30
0.0
 11
197.76528773918011
 21
124.7463619810101
 31
0.0
  0
LINE
  5
35B
  8
1
 10
235.7652877391802
 20
136.2463619810101
 30
0.0
 11
191.7652877391802
 21
136.24636198101001
 31
0.0
  0
LINE
  5
35C
  8
0
 10
194.26528773918011
 20
137.2463619810101
 30
0.0
 11
194.26528773918011
 21
144.14636198100999
 31
0.0
  0
LINE
  5
35D
  8
0
 10
195.76528773918011
 20
126.7463619810101
 30
0.0
 11
195.76528773918011
 21
145.7463619810099
 31
0.0
  0
LINE
  5
35E
  8
0
 10
194.26528773918011
 20
135.24636198101001
 30
0.0
 11
194.26528773918011
 21
128.34636198100989
 31
0.0
  0
LINE
  5
35F
  8
0
 10
194.86528773918019
 20
127.7463619810101
 30
0.0
 11
195.76528773918011
 21
127.7463619810101
 31
0.0
  0
LINE
  5
360
  8
0
 10
194.26528773918011
 20
128.34636198100989
 30
0.0
 11
194.86528773918019
 21
127.7463619810101
 31
0.0
  0
ARC
  5
361
  8
0
 10
197.76528773918011
 20
126.7463619810101
 30
0.0
 40
2.0
 50
180.0
 51
270.0
  0
LINE
  5
362
  8
0
 10
194.26528773918011
 20
137.2463619810101
 30
0.0
 11
195.76528773918011
 21
137.2463619810101
 31
0.0
  0
LINE
  5
363
  8
0
 10
194.26528773918011
 20
135.24636198101001
 30
0.0
 11
195.76528773918011
 21
135.24636198101001
 31
0.0
  0
LINE
  5
364
  8
0
 10
194.86528773918019
 20
144.74636198101001
 30
0.0
 11
195.76528773918011
 21
144.74636198101001
 31
0.0
  0
LINE
  5
365
  8
0
 10
194.26528773918011
 20
144.14636198100999
 30
0.0
 11
194.86528773918019
 21
144.74636198101001
 31
0.0
  0
ARC
  5
366
  8
0
 10
197.76528773918011
 20
145.7463619810099
 30
0.0
 40
2.0
 50
90.0
 51
180.0
  0
LINE
  5
36D
  8
0
 10
207.9652877391801
 20
174.24636198101001
 30
0.0
 11
207.9652877391801
 21
124.7463619810101
 31
0.0
  0
LINE
  5
38C
  8
0
 10
207.9652877391801
 20
124.7463619810101
 30
0.0
 11
210.2652877391802
 21
124.7463619810101
 31
0.0
  0
LINE
  5
3B5
  8
0
 10
197.76528773918011
 20
200.74636198101021
 30
0.0
 11
207.9652877391801
 21
200.74636198101021
 31
0.0
  0
LINE
  5
3B6
  8
1
 10
235.7652877391802
 20
212.2463619810101
 30
0.0
 11
191.7652877391802
 21
212.2463619810101
 31
0.0
  0
LINE
  5
3B7
  8
0
 10
210.2652877391802
 20
223.7463619810101
 30
0.0
 11
197.76528773918011
 21
223.7463619810101
 31
0.0
  0
LINE
  5
3B8
  8
0
 10
195.76528773918011
 20
221.74636198101001
 30
0.0
 11
195.76528773918011
 21
202.74636198101021
 31
0.0
  0
LINE
  5
3B9
  8
0
 10
194.26528773918011
 20
211.2463619810101
 30
0.0
 11
194.26528773918011
 21
204.34636198101009
 31
0.0
  0
ARC
  5
3BA
  8
0
 10
197.76528773918011
 20
202.74636198101021
 30
0.0
 40
2.0
 50
180.0
 51
270.0
  0
LINE
  5
3BB
  8
0
 10
194.26528773918011
 20
204.34636198101009
 30
0.0
 11
194.86528773918019
 21
203.7463619810101
 31
0.0
  0
LINE
  5
3BC
  8
0
 10
194.86528773918019
 20
203.7463619810101
 30
0.0
 11
195.76528773918011
 21
203.7463619810101
 31
0.0
  0
LINE
  5
3BD
  8
0
 10
194.26528773918011
 20
213.2463619810101
 30
0.0
 11
194.26528773918011
 21
220.14636198101019
 31
0.0
  0
LINE
  5
3BE
  8
0
 10
194.26528773918011
 20
213.2463619810101
 30
0.0
 11
195.76528773918011
 21
213.2463619810101
 31
0.0
  0
LINE
  5
3BF
  8
0
 10
194.26528773918011
 20
211.2463619810101
 30
0.0
 11
195.76528773918011
 21
211.2463619810101
 31
0.0
  0
ARC
  5
3C0
  8
0
 10
197.76528773918011
 20
221.74636198101001
 30
0.0
 40
2.0
 50
90.0
 51
180.0
  0
LINE
  5
3C1
  8
0
 10
194.26528773918011
 20
220.14636198101019
 30
0.0
 11
194.86528773918019
 21
220.7463619810101
 31
0.0
  0
LINE
  5
3C2
  8
0
 10
194.86528773918019
 20
220.7463619810101
 30
0.0
 11
195.76528773918011
 21
220.7463619810101
 31
0.0
  0
LINE
  5
400
  8
0
 10
207.9652877391801
 20
223.7463619810101
 30
0.0
 11
210.2652877391802
 21
223.7463619810101
 31
0.0
  0
INSERT
  5
4F5
  8
0
  6
CONTINUOUS
  2
*U0
 10
0.0
 20
0.0
 30
0.0
1001
GRADIENTCOLOR1ACI
1070
     5
1001
GRADIENTCOLOR2ACI
1070
     2
1001
ACAD
1002
{
1000
R14_HATCH_DATA
1000
4F5
1011
1.0
1021
0.0
1031
0.0
1021
0.0
1031
0.0
1011
0.0
1021
0.0
1031
0.0
1021
1.0
1031
0.0
1011
0.0
1021
0.0
1031
0.0
1021
0.0
1031
1.0
1040
0.0
1010
0.0
1020
0.0
1030
1.0
1000
SOLID
1070
     1
1070
     1
1071
        4
1071
        7
1070
     0
1070
     1
1071
        4
1040
134.26528773917971
1040
194.84636198101009
1040
126.7652877391798
1040
194.84636198101009
1040
126.7652877391798
1040
193.54636198100999
1040
134.26528773917971
1040
193.54636198100999
1071
        4
1005
33C
1005
320
1005
33B
1005
321
1071
        7
1070
     0
1070
     1
1071
        4
1040
126.7652877391798
1040
194.84636198101009
1040
119.2652877391797
1040
194.84636198101009
1040
119.2652877391797
1040
193.54636198100999
1040
126.7652877391798
1040
193.54636198100999
1071
        3
1005
33C
1005
322
1005
33B
1071
        7
1070
     0
1070
     1
1071
        4
1040
126.7652877391796
1040
155.4963619810101
1040
119.2652877391797
1040
155.4963619810101
1040
119.2652877391797
1040
153.9963619810099
1040
126.7652877391796
1040
153.99636198101001
1071
        4
1005
331
1005
322
1005
32E
1005
320
1071
        7
1070
     0
1070
     1
1071
        4
1040
134.26528773917971
1040
155.4963619810101
1040
126.7652877391796
1040
155.4963619810101
1040
126.7652877391796
1040
153.99636198101001
1040
134.26528773917971
1040
153.9963619810101
1071
        3
1005
331
1005
32E
1005
321
1070
     1
1070
     1
1040
0.0654069639633466
1071
        4
1040
132.02310998657501
1040
194.3956921698483
1040
0.0
1040
125.90590939746851
1040
194.66158292755401
1040
0.0
1040
124.3560585663257
1040
155.0052251867059
1040
0.0
1040
128.6087045331231
1040
154.93981879430959
1040
0.0
1002
}
  0
LINE
  5
859
  8
0
 10
210.2652877391802
 20
223.7463619810101
 30
0.0
 11
210.2652877391802
 21
124.74636198101
 31
0.0
  0
ARC
  5
85A
  8
0
 10
218.7106162396129
 20
143.17456521128551
 30
0.0
 40
3.7612745522780271
 50
322.12112050828108
 51
37.878879491718891
  0
LINE
  5
85B
  8
0
 10
212.7912611864011
 20
142.7969337201622
 30
0.0
 11
212.79126108424461
 21
144.99505309079379
 31
0.0
  0
LINE
  5
85C
  8
0
 10
213.4528541812042
 20
141.57787511377751
 30
0.0
 11
213.45285399063039
 21
144.99505316756981
 31
0.0
  0
ARC
  5
85D
  8
0
 10
218.2331653441689
 20
143.17456521128551
 30
0.0
 40
3.7612745522780271
 50
142.12112050828111
 51
217.87887949171889
  0
LINE
  5
85E
  8
0
 10
230.47765735028889
 20
131.24636198101001
 30
0.0
 11
222.4718907918909
 21
131.24636198101001
 31
0.0
  0
LINE
  5
85F
  8
3
 10
231.44297776029029
 20
132.05636198101001
 30
0.0
 11
222.4718907918909
 21
132.0563619810101
 31
0.0
  0
LINE
  5
860
  8
0
 10
230.47765735028889
 20
141.24636198101001
 30
0.0
 11
222.4718907918909
 21
141.24636198101001
 31
0.0
  0
LINE
  5
861
  8
3
 10
231.44297776029029
 20
140.43636198101001
 30
0.0
 11
222.4718907918909
 21
140.43636198101001
 31
0.0
  0
LINE
  5
862
  8
0
 10
214.4718907918909
 20
130.40998680837529
 30
0.0
 11
212.070596863746
 21
132.1121398115304
 31
0.0
  0
LINE
  5
863
  8
0
 10
211.85025867175699
 20
131.74647554157289
 30
0.0
 11
214.36355557546449
 21
129.96492942426551
 31
0.0
  0
LINE
  5
864
  8
0
 10
212.07926136287611
 20
134.63216171307511
 30
0.0
 11
214.0256836559621
 21
132.24427391184631
 31
0.0
  0
LINE
  5
865
  8
0
 10
214.33565030353179
 20
132.5378381374714
 30
0.0
 11
212.3892280049885
 21
134.92572594446241
 31
0.0
  0
LINE
  5
866
  8
0
 10
212.79126184971221
 20
128.5243462220019
 30
0.0
 11
214.17670743244631
 21
130.0973764038599
 31
0.0
  0
LINE
  5
867
  8
0
 10
214.41403782140051
 20
135.26102499409109
 30
0.0
 11
212.3465084077948
 21
137.54485731431919
 31
0.0
  0
LINE
  5
868
  8
0
 10
212.01880025093041
 20
139.79818465383391
 30
0.0
 11
214.15110283983751
 21
137.57470684561989
 31
0.0
  0
LINE
  5
869
  8
0
 10
214.43643557041901
 20
137.89226709192189
 30
0.0
 11
212.30413297560861
 21
140.1157449054401
 31
0.0
  0
LINE
  5
86A
  8
0
 10
214.4718907918909
 20
141.3394610006967
 30
0.0
 11
213.45285410001631
 21
143.03365341042951
 31
0.0
  0
LINE
  5
86B
  8
0
 10
214.4718907918909
 20
141.08197370269329
 30
0.0
 11
211.92077227292469
 21
142.3234435970337
 31
0.0
  0
LINE
  5
86C
  8
0
 10
211.76298756124561
 20
141.92675321155309
 30
0.0
 11
214.4718907918909
 21
140.60849936165911
 31
0.0
  0
LINE
  5
86D
  8
0
 10
212.0521682720296
 20
137.23562736484769
 30
0.0
 11
214.11969767988671
 21
134.95179505009139
 31
0.0
  0
LINE
  5
86E
  8
0
 10
213.15116265689909
 20
133.31714388101929
 30
0.0
 11
212.10896555001889
 21
132.08494223533989
 31
0.0
  0
LINE
  5
86F
  8
0
 10
212.40878450753689
 20
131.87763737037329
 30
0.0
 11
213.4037287230949
 21
133.00729363391949
 31
0.0
  0
LINE
  5
870
  8
0
 10
211.76528773918011
 20
126.24636198101
 30
0.0
 11
211.76528773918011
 21
146.24636198101001
 31
0.0
  0
LINE
  5
871
  8
0
 10
213.4528549667981
 20
127.49140099162651
 30
0.0
 11
212.7912618977179
 21
127.4914009670287
 31
0.0
  0
LINE
  5
872
  8
0
 10
210.2652877391802
 20
126.24636198101
 30
0.0
 11
211.76528773918011
 21
126.24636198101
 31
0.0
  0
LINE
  5
873
  8
0
 10
211.97558044668281
 20
131.65764142046149
 30
0.0
 11
212.7913392032294
 21
129.3955197240119
 31
0.0
  0
LINE
  5
874
  8
0
 10
212.070596863746
 20
132.1121398115304
 30
0.0
 11
211.85025867175699
 21
131.74647554157289
 31
0.0
  0
LINE
  5
875
  8
0
 10
212.7912617067125
 20
131.60129779742039
 30
0.0
 11
212.79126167368759
 21
132.31190063825221
 31
0.0
  0
LINE
  5
876
  8
0
 10
213.4528547637459
 20
131.13232871550301
 30
0.0
 11
213.45285467569431
 21
132.71117934154211
 31
0.0
  0
LINE
  5
877
  8
0
 10
213.84980098769029
 20
130.3291034658393
 30
0.0
 11
212.79126182400091
 21
129.07758041813241
 31
0.0
  0
LINE
  5
878
  8
0
 10
212.7912618977179
 20
127.49140094758999
 30
0.0
 11
212.7912617309652
 21
131.07944716779269
 31
0.0
  0
LINE
  5
879
  8
0
 10
213.4528549667981
 20
127.4914009670287
 30
0.0
 11
213.4528548672991
 21
129.2755166741224
 31
0.0
  0
LINE
  5
87A
  8
0
 10
212.79126164674491
 20
132.89162877061841
 30
0.0
 11
212.79126160644961
 21
133.75867362051659
 31
0.0
  0
LINE
  5
87B
  8
0
 10
212.3892280049885
 20
134.92572594446241
 30
0.0
 11
212.07926136287611
 21
134.63216171307511
 31
0.0
  0
LINE
  5
87C
  8
0
 10
212.79126157513349
 20
134.4325076634816
 30
0.0
 11
212.79126155738561
 21
134.81439234290659
 31
0.0
  0
LINE
  5
87D
  8
0
 10
212.7912614533208
 20
137.05357463983441
 30
0.0
 11
212.79126143343959
 21
137.4813608078579
 31
0.0
  0
LINE
  5
87E
  8
0
 10
213.4528544742783
 20
136.32276640360951
 30
0.0
 11
213.45285436777189
 21
138.23253116545149
 31
0.0
  0
LINE
  5
87F
  8
0
 10
213.45285432954901
 20
138.91790532553361
 30
0.0
 11
213.45285422588989
 21
140.7766163626184
 31
0.0
  0
LINE
  5
880
  8
0
 10
212.30413297560861
 20
140.1157449054401
 30
0.0
 11
212.01880025093041
 21
139.79818465383391
 31
0.0
  0
LINE
  5
881
  8
0
 10
212.7912612887373
 20
140.5949459222013
 30
0.0
 11
212.7912612500979
 21
141.42635669175891
 31
0.0
  0
LINE
  5
882
  8
0
 10
212.59766244122901
 20
139.80563453170879
 30
0.0
 11
213.65493653433211
 21
141.0060599252964
 31
0.0
  0
LINE
  5
883
  8
0
 10
212.791261334615
 20
139.60778740390049
 30
0.0
 11
212.79126131520459
 21
140.0254460318734
 31
0.0
  0
LINE
  5
884
  8
0
 10
213.28942555211631
 20
141.1839312696965
 30
0.0
 11
212.3476086303651
 21
140.07041027328489
 31
0.0
  0
LINE
  5
885
  8
0
 10
212.3465084077948
 20
137.54485731431919
 30
0.0
 11
212.0521682720296
 21
137.23562736484769
 31
0.0
  0
LINE
  5
886
  8
0
 10
212.60028680594189
 20
137.26452886817961
 30
0.0
 11
213.48512046859031
 21
138.26916598609731
 31
0.0
  0
LINE
  5
887
  8
0
 10
212.79126140683709
 20
138.05377290674679
 30
0.0
 11
212.7912613632011
 21
138.99269384320621
 31
0.0
  0
LINE
  5
888
  8
0
 10
213.21323494164861
 20
138.55267707813181
 30
0.0
 11
212.38248106232069
 21
137.57046719623469
 31
0.0
  0
LINE
  5
889
  8
0
 10
212.7912615308357
 20
135.38566797814161
 30
0.0
 11
212.79126148280241
 21
136.4192109443772
 31
0.0
  0
LINE
  5
88A
  8
0
 10
212.5178796133126
 20
142.03286878395849
 30
0.0
 11
213.45285410901459
 21
142.8723060823516
 31
0.0
  0
LINE
  5
88B
  8
0
 10
213.45285407873251
 20
143.41529420177309
 30
0.0
 11
212.16757004096189
 21
142.2139982600921
 31
0.0
  0
LINE
  5
88C
  8
0
 10
211.92077227292469
 20
142.3234435970337
 30
0.0
 11
211.76298756124561
 21
141.92675321155309
 31
0.0
  0
LINE
  5
88D
  8
0
 10
213.45285462496199
 20
133.62085955502229
 30
0.0
 11
213.45285451650719
 21
135.56556272864589
 31
0.0
  0
LINE
  5
88E
  8
0
 10
212.62959709050929
 20
134.63083905947229
 30
0.0
 11
213.49274111701101
 21
135.61084983860241
 31
0.0
  0
LINE
  5
88F
  8
0
 10
213.2285505244356
 20
135.9026797928876
 30
0.0
 11
212.40670510745741
 21
134.93100248865269
 31
0.0
  0
ARC
  5
890
  8
0
 10
208.6154843313399
 20
136.2463619810101
 30
0.0
 40
13.856406460551019
 50
340.52877936550851
 51
19.471220634491559
  0
LINE
  5
891
  8
0
 10
222.4718907918909
 20
143.17456521128551
 30
0.0
 11
222.4718907918909
 21
129.31815875073451
 31
0.0
  0
ARC
  5
892
  8
0
 10
228.32829725244201
 20
136.2463619810101
 30
0.0
 40
13.856406460551019
 50
160.5287793655084
 51
199.47122063449149
  0
LINE
  5
893
  8
0
 10
214.4718907918909
 20
143.17456521128551
 30
0.0
 11
214.4718907918909
 21
129.31815875073451
 31
0.0
  0
LINE
  5
894
  8
0
 10
215.26435195759839
 20
127.00875767397601
 30
0.0
 11
221.67942962618349
 21
127.00875767397601
 31
0.0
  0
LINE
  5
895
  8
0
 10
215.26435195759839
 20
131.62755982749309
 30
0.0
 11
221.67942962618349
 21
131.62755982749309
 31
0.0
  0
LINE
  5
896
  8
0
 10
214.0256836559621
 20
132.24427391184631
 30
0.0
 11
214.33565030353179
 21
132.5378381374714
 31
0.0
  0
LINE
  5
897
  8
0
 10
214.36355557546449
 20
129.96492942426551
 30
0.0
 11
214.4718907918909
 21
130.14471812000511
 31
0.0
  0
ARC
  5
898
  8
0
 10
218.2331653441689
 20
129.31815875073451
 30
0.0
 40
3.7612745522780271
 50
142.12112050828111
 51
217.87887949171889
  0
ARC
  5
899
  8
0
 10
218.7106162396129
 20
129.31815875073451
 30
0.0
 40
3.7612745522780271
 50
322.12112050828108
 51
37.878879491718891
  0
LINE
  5
89A
  8
0
 10
215.26435195759839
 20
140.86516413452699
 30
0.0
 11
221.67942962618349
 21
140.86516413452699
 31
0.0
  0
LINE
  5
89B
  8
0
 10
214.15110283983751
 20
137.57470684561989
 30
0.0
 11
214.43643557041901
 21
137.89226709192189
 31
0.0
  0
LINE
  5
89C
  8
0
 10
214.11969767988671
 20
134.95179505009139
 30
0.0
 11
214.41403782140051
 21
135.26102499409109
 31
0.0
  0
LINE
  5
89D
  8
0
 10
230.47765735028889
 20
131.24636198101001
 30
0.0
 11
230.47765735028889
 21
141.24636198101001
 31
0.0
  0
LINE
  5
89E
  8
0
 10
232.2652877391802
 20
132.74636198101001
 30
0.0
 11
232.2652877391802
 21
139.7463619810101
 31
0.0
  0
LINE
  5
89F
  8
0
 10
232.2652877391802
 20
132.74636198101001
 30
0.0
 11
230.47765735028889
 21
131.24636198101001
 31
0.0
  0
LINE
  5
8A0
  8
0
 10
232.2652877391802
 20
139.74636198101001
 30
0.0
 11
230.47765735028889
 21
141.24636198101001
 31
0.0
  0
LINE
  5
8A1
  8
0
 10
213.45285399063039
 20
144.9950531502835
 30
0.0
 11
212.79126108424461
 21
144.99505309079379
 31
0.0
  0
LINE
  5
8A2
  8
0
 10
210.2652877391802
 20
146.24636198101001
 30
0.0
 11
211.76528773918011
 21
146.24636198101001
 31
0.0
  0
LINE
  5
8A3
  8
0
 10
215.26435195759839
 20
145.483966288044
 30
0.0
 11
221.67942962618349
 21
145.483966288044
 31
0.0
  0
LINE
  5
8A4
  8
3
 10
231.44297776029029
 20
216.43636198101009
 30
0.0
 11
222.4718907918909
 21
216.43636198101001
 31
0.0
  0
LINE
  5
8A5
  8
0
 10
230.47765735028889
 20
217.2463619810101
 30
0.0
 11
222.4718907918909
 21
217.2463619810101
 31
0.0
  0
LINE
  5
8A6
  8
3
 10
231.44297776029029
 20
208.0563619810101
 30
0.0
 11
222.4718907918909
 21
208.0563619810101
 31
0.0
  0
LINE
  5
8A7
  8
0
 10
230.47765735028889
 20
207.24636198101001
 30
0.0
 11
222.4718907918909
 21
207.24636198101001
 31
0.0
  0
ARC
  5
8A8
  8
0
 10
218.7106162396129
 20
205.3181587507346
 30
0.0
 40
3.7612745522780271
 50
322.12112050828108
 51
37.878879491718891
  0
LINE
  5
8A9
  8
0
 10
211.76298756124561
 20
206.56597075046699
 30
0.0
 11
214.4718907918909
 21
207.88422460036099
 31
0.0
  0
LINE
  5
8AA
  8
0
 10
214.4718907918909
 20
207.41075025932679
 30
0.0
 11
211.92077227292469
 21
206.16928036498641
 31
0.0
  0
LINE
  5
8AB
  8
0
 10
214.4718907918909
 20
207.15326296132341
 30
0.0
 11
213.45285410001631
 21
205.4590705515906
 31
0.0
  0
LINE
  5
8AC
  8
0
 10
213.4528541812042
 20
206.9148488482426
 30
0.0
 11
213.45285399063039
 21
203.4976707944503
 31
0.0
  0
ARC
  5
8AD
  8
0
 10
218.2331653441689
 20
205.3181587507346
 30
0.0
 40
3.7612745522780271
 50
142.12112050828111
 51
217.87887949171889
  0
LINE
  5
8AE
  8
0
 10
214.4718907918909
 20
205.3181587507346
 30
0.0
 11
214.4718907918909
 21
219.17456521128571
 31
0.0
  0
LINE
  5
8AF
  8
0
 10
222.4718907918909
 20
205.3181587507346
 30
0.0
 11
222.4718907918909
 21
219.17456521128571
 31
0.0
  0
LINE
  5
8B0
  8
0
 10
211.76528773918011
 20
202.2463619810101
 30
0.0
 11
211.76528773918011
 21
222.2463619810101
 31
0.0
  0
LINE
  5
8B1
  8
0
 10
211.92077227292469
 20
206.16928036498641
 30
0.0
 11
211.76298756124561
 21
206.56597075046699
 31
0.0
  0
LINE
  5
8B2
  8
0
 10
213.45285407873251
 20
205.07742976024701
 30
0.0
 11
212.16757004096189
 21
206.27872570192801
 31
0.0
  0
LINE
  5
8B3
  8
0
 10
212.5178796133126
 20
206.45985517806159
 30
0.0
 11
213.45285410901459
 21
205.62041787966851
 31
0.0
  0
LINE
  5
8B4
  8
0
 10
213.45285399063039
 20
203.49767081173661
 30
0.0
 11
212.79126108424461
 21
203.49767087122629
 31
0.0
  0
LINE
  5
8B5
  8
0
 10
210.2652877391802
 20
202.2463619810101
 30
0.0
 11
211.76528773918011
 21
202.2463619810101
 31
0.0
  0
LINE
  5
8B6
  8
0
 10
212.7912611864011
 20
205.69579024185799
 30
0.0
 11
212.79126108424461
 21
203.49767087122629
 31
0.0
  0
LINE
  5
8B7
  8
0
 10
215.26435195759839
 20
203.00875767397611
 30
0.0
 11
221.67942962618349
 21
203.00875767397611
 31
0.0
  0
LINE
  5
8B8
  8
0
 10
212.79126184971221
 20
219.96837774001821
 30
0.0
 11
214.17670743244631
 21
218.39534755816021
 31
0.0
  0
LINE
  5
8B9
  8
0
 10
214.33565030353179
 20
215.95488582454871
 30
0.0
 11
212.3892280049885
 21
213.56699801755769
 31
0.0
  0
LINE
  5
8BA
  8
0
 10
212.07926136287611
 20
213.860562248945
 30
0.0
 11
214.0256836559621
 21
216.2484500501738
 31
0.0
  0
LINE
  5
8BB
  8
0
 10
211.85025867175699
 20
216.74624842044719
 30
0.0
 11
214.36355557546449
 21
218.5277945377546
 31
0.0
  0
LINE
  5
8BC
  8
0
 10
214.4718907918909
 20
218.0827371536449
 30
0.0
 11
212.070596863746
 21
216.3805841504898
 31
0.0
  0
LINE
  5
8BD
  8
0
 10
214.43643557041901
 20
210.60045687009821
 30
0.0
 11
212.30413297560861
 21
208.37697905658001
 31
0.0
  0
LINE
  5
8BE
  8
0
 10
212.01880025093041
 20
208.69453930818619
 30
0.0
 11
214.15110283983751
 21
210.91801711640011
 31
0.0
  0
LINE
  5
8BF
  8
0
 10
212.0521682720296
 20
211.25709659717251
 30
0.0
 11
214.11969767988671
 21
213.54092891192869
 31
0.0
  0
LINE
  5
8C0
  8
0
 10
214.41403782140051
 20
213.23169896792899
 30
0.0
 11
212.3465084077948
 21
210.94786664770089
 31
0.0
  0
LINE
  5
8C1
  8
0
 10
213.4528547637459
 20
217.3603952465171
 30
0.0
 11
213.45285467569431
 21
215.781544620478
 31
0.0
  0
LINE
  5
8C2
  8
0
 10
211.97558044668281
 20
216.83508254155859
 30
0.0
 11
212.7913392032294
 21
219.0972042380082
 31
0.0
  0
LINE
  5
8C3
  8
0
 10
212.7912617067125
 20
216.89142616459969
 30
0.0
 11
212.79126167368759
 21
216.1808233237679
 31
0.0
  0
LINE
  5
8C4
  8
0
 10
212.070596863746
 20
216.3805841504898
 30
0.0
 11
211.85025867175699
 21
216.74624842044719
 31
0.0
  0
LINE
  5
8C5
  8
0
 10
213.2285505244356
 20
212.59004416913251
 30
0.0
 11
212.40670510745741
 21
213.56172147336741
 31
0.0
  0
LINE
  5
8C6
  8
0
 10
212.62959709050929
 20
213.86188490254781
 30
0.0
 11
213.49274111701101
 21
212.8818741234177
 31
0.0
  0
LINE
  5
8C7
  8
0
 10
212.7912615308357
 20
213.1070559838785
 30
0.0
 11
212.79126148280241
 21
212.07351301764291
 31
0.0
  0
LINE
  5
8C8
  8
0
 10
213.45285462496199
 20
214.87186440699779
 30
0.0
 11
213.45285451650719
 21
212.92716123337419
 31
0.0
  0
LINE
  5
8C9
  8
0
 10
212.79126157513349
 20
214.06021629853851
 30
0.0
 11
212.79126155738561
 21
213.67833161911341
 31
0.0
  0
LINE
  5
8CA
  8
0
 10
212.3892280049885
 20
213.56699801755769
 30
0.0
 11
212.07926136287611
 21
213.860562248945
 31
0.0
  0
LINE
  5
8CB
  8
0
 10
212.40878450753689
 20
216.61508659164679
 30
0.0
 11
213.4037287230949
 21
215.48543032810059
 31
0.0
  0
LINE
  5
8CC
  8
0
 10
213.15116265689909
 20
215.17558008100079
 30
0.0
 11
212.10896555001889
 21
216.40778172668021
 31
0.0
  0
LINE
  5
8CD
  8
0
 10
212.79126164674491
 20
215.6010951914017
 30
0.0
 11
212.79126160644961
 21
214.73405034150349
 31
0.0
  0
LINE
  5
8CE
  8
0
 10
213.21323494164861
 20
209.94004688388819
 30
0.0
 11
212.38248106232069
 21
210.92225676578539
 31
0.0
  0
LINE
  5
8CF
  8
0
 10
212.79126140683709
 20
210.43895105527329
 30
0.0
 11
212.7912613632011
 21
209.5000301188139
 31
0.0
  0
LINE
  5
8D0
  8
0
 10
212.60028680594189
 20
211.22819509384061
 30
0.0
 11
213.48512046859031
 21
210.2235579759228
 31
0.0
  0
LINE
  5
8D1
  8
0
 10
212.3465084077948
 20
210.94786664770089
 30
0.0
 11
212.0521682720296
 21
211.25709659717251
 31
0.0
  0
LINE
  5
8D2
  8
0
 10
213.28942555211631
 20
207.30879269232361
 30
0.0
 11
212.3476086303651
 21
208.42231368873519
 31
0.0
  0
LINE
  5
8D3
  8
0
 10
212.791261334615
 20
208.8849365581197
 30
0.0
 11
212.79126131520459
 21
208.46727793014671
 31
0.0
  0
LINE
  5
8D4
  8
0
 10
212.59766244122901
 20
208.68708943031129
 30
0.0
 11
213.65493653433211
 21
207.48666403672371
 31
0.0
  0
LINE
  5
8D5
  8
0
 10
212.7912612887373
 20
207.8977780398188
 30
0.0
 11
212.7912612500979
 21
207.0663672702612
 31
0.0
  0
LINE
  5
8D6
  8
0
 10
212.30413297560861
 20
208.37697905658001
 30
0.0
 11
212.01880025093041
 21
208.69453930818619
 31
0.0
  0
LINE
  5
8D7
  8
0
 10
213.45285432954901
 20
209.5748186364865
 30
0.0
 11
213.45285422588989
 21
207.71610759940179
 31
0.0
  0
LINE
  5
8D8
  8
0
 10
213.4528544742783
 20
212.1699575584106
 30
0.0
 11
213.45285436777189
 21
210.26019279656859
 31
0.0
  0
LINE
  5
8D9
  8
0
 10
212.7912614533208
 20
211.4391493221857
 30
0.0
 11
212.79126143343959
 21
211.01136315416221
 31
0.0
  0
LINE
  5
8DA
  8
0
 10
213.4528549667981
 20
221.0013229949914
 30
0.0
 11
213.4528548672991
 21
219.21720728789771
 31
0.0
  0
LINE
  5
8DB
  8
0
 10
213.84980098769029
 20
218.16362049618081
 30
0.0
 11
212.79126182400091
 21
219.41514354388769
 31
0.0
  0
LINE
  5
8DC
  8
0
 10
213.4528549667981
 20
221.0013229703936
 30
0.0
 11
212.7912618977179
 21
221.0013229949914
 31
0.0
  0
LINE
  5
8DD
  8
0
 10
210.2652877391802
 20
222.2463619810101
 30
0.0
 11
211.76528773918011
 21
222.2463619810101
 31
0.0
  0
LINE
  5
8DE
  8
0
 10
212.7912618977179
 20
221.00132301443011
 30
0.0
 11
212.7912617309652
 21
217.41327679422739
 31
0.0
  0
ARC
  5
8DF
  8
0
 10
218.7106162396129
 20
219.17456521128571
 30
0.0
 40
3.7612745522780271
 50
322.12112050828108
 51
37.878879491718891
  0
ARC
  5
8E0
  8
0
 10
218.2331653441689
 20
219.17456521128571
 30
0.0
 40
3.7612745522780271
 50
142.12112050828111
 51
217.87887949171889
  0
LINE
  5
8E1
  8
0
 10
215.26435195759839
 20
216.86516413452699
 30
0.0
 11
221.67942962618349
 21
216.86516413452699
 31
0.0
  0
LINE
  5
8E2
  8
0
 10
215.26435195759839
 20
207.62755982749309
 30
0.0
 11
221.67942962618349
 21
207.62755982749309
 31
0.0
  0
LINE
  5
8E3
  8
0
 10
214.0256836559621
 20
216.2484500501738
 30
0.0
 11
214.33565030353179
 21
215.95488582454871
 31
0.0
  0
LINE
  5
8E4
  8
0
 10
214.11969767988671
 20
213.54092891192869
 30
0.0
 11
214.41403782140051
 21
213.23169896792899
 31
0.0
  0
LINE
  5
8E5
  8
0
 10
214.15110283983751
 20
210.91801711640011
 30
0.0
 11
214.43643557041901
 21
210.60045687009821
 31
0.0
  0
ARC
  5
8E6
  8
0
 10
228.32829725244201
 20
212.2463619810101
 30
0.0
 40
13.856406460551019
 50
160.5287793655084
 51
199.47122063449149
  0
ARC
  5
8E7
  8
0
 10
208.6154843313399
 20
212.2463619810101
 30
0.0
 40
13.856406460551019
 50
340.52877936550851
 51
19.471220634491559
  0
LINE
  5
8E8
  8
0
 10
215.26435195759839
 20
221.4839662880442
 30
0.0
 11
221.67942962618349
 21
221.4839662880442
 31
0.0
  0
LINE
  5
8E9
  8
0
 10
214.36355557546449
 20
218.5277945377546
 30
0.0
 11
214.4718907918909
 21
218.34800584201491
 31
0.0
  0
LINE
  5
8EA
  8
0
 10
232.2652877391802
 20
215.7463619810101
 30
0.0
 11
230.47765735028889
 21
217.2463619810101
 31
0.0
  0
LINE
  5
8EB
  8
0
 10
232.2652877391802
 20
208.7463619810101
 30
0.0
 11
230.47765735028889
 21
207.24636198101001
 31
0.0
  0
LINE
  5
8EC
  8
0
 10
232.2652877391802
 20
208.7463619810101
 30
0.0
 11
232.2652877391802
 21
215.7463619810101
 31
0.0
  0
LINE
  5
8ED
  8
0
 10
230.47765735028889
 20
217.2463619810101
 30
0.0
 11
230.47765735028889
 21
207.24636198101001
 31
0.0
  0
LINE
  5
8EE
  8
0
 10
214.4718907918909
 20
217.24636198101001
 30
0.0
 11
213.45285475738629
 21
217.2463619810101
 31
0.0
  0
LINE
  5
8EF
  8
0
 10
212.1238946618935
 20
217.2463619810101
 30
0.0
 11
211.76528773918011
 21
217.2463619810101
 31
0.0
  0
LINE
  5
8F0
  8
3
 10
214.4718907918909
 20
216.43636198101001
 30
0.0
 11
213.4528547122132
 21
216.43636198101001
 31
0.0
  0
LINE
  5
8F1
  8
3
 10
212.7912616855636
 20
216.43636198101001
 30
0.0
 11
212.56619612314881
 21
216.4363619810099
 31
0.0
  0
LINE
  5
8F2
  8
3
 10
212.03698683580609
 20
216.43636198101001
 30
0.0
 11
211.76528773918011
 21
216.43636198101001
 31
0.0
  0
LINE
  5
8F3
  8
0
 10
212.79126125846309
 20
207.2463619810101
 30
0.0
 11
211.76528773918011
 21
207.2463619810101
 31
0.0
  0
LINE
  5
8F4
  8
3
 10
214.4718907918909
 20
208.0563619810101
 30
0.0
 11
213.4528542448657
 21
208.0563619810101
 31
0.0
  0
LINE
  5
8F5
  8
3
 10
212.65713086837411
 20
208.0563619810101
 30
0.0
 11
211.76528773918011
 21
208.0563619810101
 31
0.0
  0
LINE
  5
8F6
  8
0
 10
214.13408640128381
 20
207.2463619810101
 30
0.0
 11
214.4718907918909
 21
207.2463619810101
 31
0.0
  0
LINE
  5
8F7
  8
0
 10
214.4718907918909
 20
131.2463619810101
 30
0.0
 11
213.45285475738629
 21
131.2463619810101
 31
0.0
  0
LINE
  5
8F8
  8
0
 10
212.1238946618935
 20
131.24636198101001
 30
0.0
 11
211.76528773918011
 21
131.2463619810101
 31
0.0
  0
LINE
  5
8F9
  8
3
 10
214.4718907918909
 20
132.0563619810101
 30
0.0
 11
213.4528547122132
 21
132.0563619810101
 31
0.0
  0
LINE
  5
8FA
  8
3
 10
212.7912616855636
 20
132.0563619810101
 30
0.0
 11
212.56619612314881
 21
132.05636198101021
 31
0.0
  0
LINE
  5
8FB
  8
3
 10
212.03698683580609
 20
132.0563619810101
 30
0.0
 11
211.76528773918011
 21
132.0563619810101
 31
0.0
  0
LINE
  5
8FC
  8
0
 10
212.79126125846309
 20
141.24636198101001
 30
0.0
 11
211.76528773918011
 21
141.24636198101001
 31
0.0
  0
LINE
  5
8FD
  8
3
 10
214.4718907918909
 20
140.43636198101001
 30
0.0
 11
213.4528542448657
 21
140.43636198101001
 31
0.0
  0
LINE
  5
8FE
  8
3
 10
212.65713086837411
 20
140.43636198101001
 30
0.0
 11
211.76528773918011
 21
140.43636198101001
 31
0.0
  0
LINE
  5
8FF
  8
0
 10
214.13408640128381
 20
141.24636198101001
 30
0.0
 11
214.4718907918909
 21
141.24636198101001
 31
0.0
  0
LINE
  5
900
  8
0
 10
131.76528773917991
 20
56.033992369901512
 30
0.0
 11
131.76528773918
 21
64.138085647215192
 31
0.0
  0
LINE
  5
901
  8
0
 10
131.76528773918
 20
73.798421064916241
 30
0.0
 11
131.76528773918
 21
74.746361981010182
 31
0.0
  0
LINE
  5
902
  8
3
 10
130.95406081836919
 20
55.067209772616188
 30
0.0
 11
130.9540608183693
 21
64.118921026764369
 31
0.0
  0
LINE
  5
903
  8
3
 10
130.9540608183693
 20
72.118736709787186
 30
0.0
 11
130.9540608183693
 21
73.136828078445191
 31
0.0
  0
LINE
  5
904
  8
3
 10
130.9540608183693
 20
73.93358918557783
 30
0.0
 11
130.9540608183693
 21
74.746361981010182
 31
0.0
  0
LINE
  5
905
  8
3
 10
122.57651465999081
 20
55.067209772616081
 30
0.0
 11
122.57651465999091
 21
64.118921026764369
 31
0.0
  0
LINE
  5
906
  8
3
 10
122.57651465999091
 20
72.116662036212233
 30
0.0
 11
122.57651465999091
 21
73.136827611234665
 31
0.0
  0
LINE
  5
907
  8
3
 10
122.57651465999091
 20
74.551956182326919
 30
0.0
 11
122.57651465999091
 21
74.746361981010182
 31
0.0
  0
LINE
  5
908
  8
0
 10
121.7652877391799
 20
56.033992369901512
 30
0.0
 11
121.76528773918
 21
64.138085647215192
 31
0.0
  0
LINE
  5
909
  8
0
 10
121.76528773918
 20
72.097497415761424
 30
0.0
 11
121.76528773918
 21
73.13682756599303
 31
0.0
  0
LINE
  5
90A
  8
0
 10
121.76528773918
 20
74.465787661485749
 30
0.0
 11
121.76528773918
 21
74.746361981010182
 31
0.0
  0
LINE
  5
90B
  8
0
 10
123.2652877391799
 20
54.246361981010182
 30
0.0
 11
130.26528773918
 21
54.246361981010189
 31
0.0
  0
LINE
  5
90C
  8
0
 10
121.7652877391799
 20
56.033992369901512
 30
0.0
 11
131.76528773917991
 21
56.033992369901512
 31
0.0
  0
LINE
  5
90D
  8
0
 10
123.2652877391799
 20
54.246361981010182
 30
0.0
 11
121.7652877391799
 21
56.033992369901512
 31
0.0
  0
LINE
  5
90E
  8
0
 10
130.26528773917991
 20
54.246361981010182
 30
0.0
 11
131.76528773917991
 21
56.033992369901512
 31
0.0
  0
LINE
  5
90F
  8
0
 10
125.9045937363117
 20
73.798420792543482
 30
0.0
 11
126.9381367025472
 21
73.798420840576853
 31
0.0
  0
LINE
  5
910
  8
0
 10
124.13978531319231
 20
73.136827698417221
 30
0.0
 11
126.0844884868159
 21
73.136827806872191
 31
0.0
  0
LINE
  5
911
  8
0
 10
125.14976481764241
 20
73.960085232870085
 30
0.0
 11
126.1297755967725
 21
73.096941206368399
 31
0.0
  0
LINE
  5
912
  8
0
 10
126.4216055510576
 20
73.361131798943632
 30
0.0
 11
125.44992824682279
 21
74.182977215921994
 31
0.0
  0
LINE
  5
913
  8
0
 10
125.7799507522612
 20
72.175644501978866
 30
0.0
 11
128.06378307248909
 21
74.243173915584563
 31
0.0
  0
LINE
  5
914
  8
0
 10
127.7545531230176
 20
74.537514051349774
 30
0.0
 11
125.4707208082614
 21
72.469984643492637
 31
0.0
  0
ARC
  5
915
  8
0
 10
122.3825757006848
 20
63.147024702629828
 30
0.0
 40
8.9717337352337942
 50
60.757814300042092
 51
117.3172946463356
  0
LINE
  5
916
  8
0
 10
122.517653849166
 20
72.117791531488308
 30
0.0
 11
131.1479997776751
 21
72.118758437863633
 31
0.0
  0
ARC
  5
917
  8
0
 10
122.3825757006848
 20
73.088558360346781
 30
0.0
 40
8.9717337352337854
 50
242.6827053536644
 51
299.24218569995787
  0
LINE
  5
918
  8
0
 10
122.5976538491653
 20
64.117791531488308
 30
0.0
 11
130.9973010874161
 21
64.1180903613689
 31
0.0
  0
LINE
  5
919
  8
0
 10
116.76528773918
 20
74.746361981010182
 30
0.0
 11
136.76528773918
 21
74.746361981010182
 31
0.0
  0
LINE
  5
91A
  8
0
 10
115.7652877391801
 20
76.246361981010182
 30
0.0
 11
137.76528773918
 21
76.246361981010182
 31
0.0
  0
LINE
  5
91B
  8
0
 10
118.26528773918
 20
71.118219472423036
 30
0.0
 11
118.26528773918
 21
65.117363590553566
 31
0.0
  0
LINE
  5
91C
  8
0
 10
118.01032670575999
 20
73.798420425661504
 30
0.0
 11
121.59837292596281
 21
73.798420592414175
 31
0.0
  0
LINE
  5
91D
  8
0
 10
118.01032672519869
 20
73.13682735658125
 30
0.0
 11
119.7944424322923
 21
73.136827456080184
 31
0.0
  0
LINE
  5
91E
  8
0
 10
116.76528773918
 20
76.246361981010182
 30
0.0
 11
116.76528773918
 21
74.746361981010182
 31
0.0
  0
LINE
  5
91F
  8
0
 10
118.01032674979641
 20
73.13682735658125
 30
0.0
 11
118.01032672519869
 21
73.798420425661504
 31
0.0
  0
LINE
  5
920
  8
0
 10
123.4105545287885
 20
73.798420676634294
 30
0.0
 11
124.2775993786866
 21
73.798420716929797
 31
0.0
  0
LINE
  5
921
  8
0
 10
124.9514334216515
 20
73.79842074824586
 30
0.0
 11
125.3333181010767
 21
73.798420765993725
 31
0.0
  0
LINE
  5
922
  8
0
 10
125.4446517026325
 20
74.200454318390882
 30
0.0
 11
125.15108747124511
 21
74.510420960503254
 31
0.0
  0
LINE
  5
923
  8
0
 10
125.4707208082614
 20
72.469984643492637
 30
0.0
 11
125.7799507522612
 21
72.175644501978866
 31
0.0
  0
LINE
  5
924
  8
0
 10
122.6310655697004
 20
74.519085459633231
 30
0.0
 11
122.265401299743
 21
74.739423651622303
 31
0.0
  0
LINE
  5
925
  8
0
 10
122.1765671786316
 20
74.614101876696566
 30
0.0
 11
119.9144454821819
 21
73.798343120149809
 31
0.0
  0
LINE
  5
926
  8
0
 10
122.1202235555905
 20
73.798420616666874
 30
0.0
 11
122.8308263964223
 21
73.798420649691764
 31
0.0
  0
LINE
  5
927
  8
0
 10
122.76319967001641
 20
72.563998667417252
 30
0.0
 11
123.0567638956413
 21
72.254032019847557
 31
0.0
  0
LINE
  5
928
  8
0
 10
120.48385518243551
 20
72.226126747914861
 30
0.0
 11
120.8495194482968
 21
72.005788549128113
 31
0.0
  0
LINE
  5
929
  8
0
 10
120.8480292240093
 20
72.739881335689063
 30
0.0
 11
119.5965061763025
 21
73.798420499378437
 31
0.0
  0
LINE
  5
92A
  8
0
 10
119.04327198017189
 20
73.798420473667136
 30
0.0
 11
120.6163021620299
 21
72.412974890932944
 31
0.0
  0
LINE
  5
92B
  8
0
 10
120.8495194482968
 20
72.005788549128113
 30
0.0
 11
122.6310655697004
 21
74.519085459633231
 31
0.0
  0
LINE
  5
92C
  8
0
 10
122.265401299743
 20
74.739423651622303
 30
0.0
 11
120.48385518243551
 21
72.226126747914861
 31
0.0
  0
LINE
  5
92D
  8
0
 10
122.39656312854341
 20
74.180897815842457
 30
0.0
 11
123.5262193920895
 21
73.185953600284449
 31
0.0
  0
LINE
  5
92E
  8
0
 10
123.8360696391893
 20
73.438519666480204
 30
0.0
 11
122.60386799350989
 21
74.480716773360484
 31
0.0
  0
LINE
  5
92F
  8
0
 10
121.65125447367311
 20
73.136827559633446
 30
0.0
 11
123.23010509971211
 21
73.136827647685038
 31
0.0
  0
LINE
  5
930
  8
0
 10
123.0567638956413
 20
72.254032019847557
 30
0.0
 11
125.4446517026325
 21
74.200454318390882
 31
0.0
  0
LINE
  5
931
  8
0
 10
125.15108747124511
 20
74.510420960503254
 30
0.0
 11
122.76319967001641
 21
72.563998667417252
 31
0.0
  0
LINE
  5
932
  8
0
 10
135.26528773918
 20
71.118219472423036
 30
0.0
 11
135.26528773918
 21
65.117363590553566
 31
0.0
  0
LINE
  5
933
  8
0
 10
126.76528773918
 20
70.975424373288035
 30
0.0
 11
126.76528773918
 21
65.260158689688581
 31
0.0
  0
LINE
  5
934
  8
0
 10
126.76528773918
 20
70.975424373288035
 30
0.0
 11
126.76528773918
 21
65.260158689688581
 31
0.0
  0
ARC
  5
935
  8
0
 10
131.1479997776751
 20
73.088558360346781
 30
0.0
 40
8.9717337352337871
 50
240.7578143000421
 51
297.3172946463356
  0
LINE
  5
936
  8
0
 10
132.09680087194741
 20
73.136828142175133
 30
0.0
 11
135.51397892573991
 21
73.136828332748962
 31
0.0
  0
LINE
  5
937
  8
0
 10
131.8183054559031
 20
72.09368310192437
 30
0.0
 11
133.55257916859961
 21
73.136828223362883
 31
0.0
  0
ARC
  5
938
  8
0
 10
131.1479997776751
 20
63.147024702629828
 30
0.0
 40
8.9717337352337978
 50
62.68270535366436
 51
119.2421856999579
  0
LINE
  5
939
  8
0
 10
132.5517945421285
 20
74.07180271006672
 30
0.0
 11
133.3912318405217
 21
73.136828214364684
 31
0.0
  0
LINE
  5
93A
  8
0
 10
133.93421995994311
 20
73.136828244646765
 30
0.0
 11
132.73292401826211
 21
74.422112282417444
 31
0.0
  0
LINE
  5
93B
  8
0
 10
132.84236935520369
 20
74.668910050454599
 30
0.0
 11
132.6476455707423
 21
74.746361981010182
 31
0.0
  0
LINE
  5
93C
  8
0
 10
128.5726986649168
 20
73.798420916542284
 30
0.0
 11
129.5116196013762
 21
73.798420960178134
 31
0.0
  0
LINE
  5
93D
  8
0
 10
127.57250039800439
 20
73.798420870058578
 30
0.0
 11
128.00028656602791
 21
73.798420889939663
 31
0.0
  0
LINE
  5
93E
  8
0
 10
128.06378307248909
 20
74.243173915584563
 30
0.0
 11
127.7545531230176
 21
74.537514051349774
 31
0.0
  0
LINE
  5
93F
  8
0
 10
130.1267131620705
 20
73.798420988764349
 30
0.0
 11
130.5443717900435
 21
73.798421008174785
 31
0.0
  0
LINE
  5
940
  8
0
 10
130.63467066361
 20
74.285549347770768
 30
0.0
 11
130.31711041200381
 21
74.57088207244891
 31
0.0
  0
LINE
  5
941
  8
0
 10
131.11387168037129
 20
73.798421034641976
 30
0.0
 11
131.9452824499289
 21
73.798421073281403
 31
0.0
  0
LINE
  5
942
  8
0
 10
129.43683108370351
 20
73.136827993830195
 30
0.0
 11
131.29554212078841
 21
73.136828097489385
 31
0.0
  0
LINE
  5
943
  8
0
 10
128.09363260379001
 20
72.438579483541787
 30
0.0
 11
128.41119285009191
 21
72.153246752960342
 31
0.0
  0
LINE
  5
944
  8
0
 10
126.8416921617796
 20
73.136827849100939
 30
0.0
 11
128.7514569236215
 21
73.136827955607316
 31
0.0
  0
LINE
  5
945
  8
0
 10
129.07160283630191
 20
73.376447381730657
 30
0.0
 11
128.08939295440479
 21
74.207201261058614
 31
0.0
  0
LINE
  5
946
  8
0
 10
127.7834546263496
 20
73.989395517437458
 30
0.0
 11
128.78809174426729
 21
73.104561854789097
 31
0.0
  0
LINE
  5
947
  8
0
 10
131.70285702786649
 20
73.300256771262923
 30
0.0
 11
130.58933603145491
 21
74.24207369301422
 31
0.0
  0
LINE
  5
948
  8
0
 10
130.32456028987869
 20
73.992019882150373
 30
0.0
 11
131.52498568346641
 21
72.934745789047213
 31
0.0
  0
LINE
  5
949
  8
0
 10
130.31711041200381
 20
74.57088207244891
 30
0.0
 11
128.09363260379001
 21
72.438579483541787
 31
0.0
  0
LINE
  5
94A
  8
0
 10
128.41119285009191
 20
72.153246752960342
 30
0.0
 11
130.63467066361
 21
74.285549347770768
 31
0.0
  0
LINE
  5
94B
  8
0
 10
131.59592519922131
 20
72.107569832958959
 30
0.0
 11
132.84236935520369
 21
74.668910050454599
 31
0.0
  0
LINE
  5
94C
  8
0
 10
132.40658602731349
 20
74.746361981010182
 30
0.0
 11
131.1278846792421
 21
72.118735888281506
 31
0.0
  0
LINE
  5
94D
  8
0
 10
136.76528773918
 20
76.246361981010182
 30
0.0
 11
136.76528773918
 21
74.746361981010182
 31
0.0
  0
LINE
  5
94E
  8
0
 10
133.31585947833219
 20
73.79842113697822
 30
0.0
 11
135.5139788489638
 21
73.798421239134711
 31
0.0
  0
LINE
  5
94F
  8
0
 10
135.51397890845351
 20
73.136828332748962
 30
0.0
 11
135.5139788489638
 21
73.798421239134711
 31
0.0
  0
LINE
  5
950
  8
3
 10
122.57651468460151
 20
74.022405568635676
 30
0.0
 11
122.576514695011
 21
73.798420637872766
 31
0.0
  0
TEXT
  5
9C0
  8
0
 62
     3
 10
0.0
 20
0.0
 30
0.0
 40
10.0
  1
LR-76C
  7
STANDARD1
  0
ENDSEC
  0
EOF
